  0
SECTION
  2
HEADER
  9
$ACADVER
  1
AC1009
  9
$INSBASE
 10
3651.0887396855050611
 20
153.7957754381029076
 30
0.0
  9
$EXTMIN
 10
3649.8587396855059524
 20
146.8795562301758935
 30
0.0
  9
$EXTMAX
 10
3652.3187396855059887
 20
155.0270678209217863
 30
0.0
  9
$LIMMIN
 10
0.0
 20
0.0
  9
$LIMMAX
 10
11.6929133858000007
 20
8.2677165353999982
  9
$ORTHOMODE
 70
     0
  9
$REGENMODE
 70
     1
  9
$FILLMODE
 70
     1
  9
$QTEXTMODE
 70
     0
  9
$MIRRTEXT
 70
     0
  9
$DRAGMODE
 70
     2
  9
$LTSCALE
 40
0.6431102362
  9
$OSMODE
 70
  2047
  9
$ATTMODE
 70
     1
  9
$TEXTSIZE
 40
0.2
  9
$TRACEWID
 40
0.05
  9
$TEXTSTYLE
  7
STANDARD
  9
$CLAYER
  8
0
  9
$CELTYPE
  6
BYLAYER
  9
$CECOLOR
 62
   256
  9
$DIMSCALE
 40
1.0
  9
$DIMASZ
 40
0.1875
  9
$DIMEXO
 40
0.0625
  9
$DIMDLI
 40
0.4443307087
  9
$DIMRND
 40
0.0
  9
$DIMDLE
 40
0.0
  9
$DIMEXE
 40
0.125
  9
$DIMTP
 40
0.01
  9
$DIMTM
 40
0.01
  9
$DIMTXT
 40
2.0
  9
$DIMCEN
 40
0.1052362205
  9
$DIMTSZ
 40
0.0
  9
$DIMTOL
 70
     1
  9
$DIMLIM
 70
     0
  9
$DIMTIH
 70
     1
  9
$DIMTOH
 70
     1
  9
$DIMSE1
 70
     0
  9
$DIMSE2
 70
     0
  9
$DIMTAD
 70
     0
  9
$DIMZIN
 70
     0
  9
$DIMBLK
  1

  9
$DIMASO
 70
     1
  9
$DIMSHO
 70
     1
  9
$DIMPOST
  1
\X
  9
$DIMAPOST
  1

  9
$DIMALT
 70
     1
  9
$DIMALTD
 70
     2
  9
$DIMALTF
 40
25.3999999999999986
  9
$DIMLFAC
 40
1.0
  9
$DIMTOFL
 70
     0
  9
$DIMTVP
 40
0.0
  9
$DIMTIX
 70
     0
  9
$DIMSOXD
 70
     0
  9
$DIMSAH
 70
     0
  9
$DIMBLK1
  1

  9
$DIMBLK2
  1

  9
$DIMSTYLE
  2
STANDARD
  9
$DIMCLRD
 70
     0
  9
$DIMCLRE
 70
     0
  9
$DIMCLRT
 70
     0
  9
$DIMTFAC
 40
1.0
  9
$DIMGAP
 40
0.09
  9
$LUNITS
 70
     2
  9
$LUPREC
 70
     4
  9
$SKETCHINC
 40
0.1
  9
$FILLETRAD
 40
0.0
  9
$AUNITS
 70
     0
  9
$AUPREC
 70
     0
  9
$MENU
  1
.
  9
$ELEVATION
 40
0.0
  9
$PELEVATION
 40
0.0
  9
$THICKNESS
 40
0.0
  9
$LIMCHECK
 70
     0
  9
$BLIPMODE
 70
     0
  9
$CHAMFERA
 40
0.0
  9
$CHAMFERB
 40
0.0
  9
$SKPOLY
 70
     0
  9
$TDCREATE
 40
2458060.468368056230247
  9
$TDUPDATE
 40
2459029.6481712968088686
  9
$TDINDWG
 40
0.7151112269
  9
$TDUSRTIMER
 40
0.7151112269
  9
$USRTIMER
 70
     1
  9
$ANGBASE
 50
0.0
  9
$ANGDIR
 70
     0
  9
$PDMODE
 70
     0
  9
$PDSIZE
 40
0.3125
  9
$PLINEWID
 40
0.0
  9
$COORDS
 70
     1
  9
$SPLFRAME
 70
     0
  9
$SPLINETYPE
 70
     6
  9
$SPLINESEGS
 70
     8
  9
$ATTDIA
 70
     1
  9
$ATTREQ
 70
     1
  9
$HANDLING
 70
     1
  9
$HANDSEED
  5
EF11
  9
$SURFTAB1
 70
     6
  9
$SURFTAB2
 70
     6
  9
$SURFTYPE
 70
     6
  9
$SURFU
 70
     6
  9
$SURFV
 70
     6
  9
$UCSNAME
  2

  9
$UCSORG
 10
0.0
 20
0.0
 30
0.0
  9
$UCSXDIR
 10
1.0
 20
0.0
 30
0.0
  9
$UCSYDIR
 10
0.0
 20
1.0
 30
0.0
  9
$PUCSNAME
  2

  9
$PUCSORG
 10
0.0
 20
0.0
 30
0.0
  9
$PUCSXDIR
 10
1.0
 20
0.0
 30
0.0
  9
$PUCSYDIR
 10
0.0
 20
1.0
 30
0.0
  9
$USERI1
 70
     0
  9
$USERI2
 70
     0
  9
$USERI3
 70
     0
  9
$USERI4
 70
     0
  9
$USERI5
 70
     0
  9
$USERR1
 40
0.0
  9
$USERR2
 40
0.0
  9
$USERR3
 40
0.0
  9
$USERR4
 40
0.0
  9
$USERR5
 40
0.0
  9
$WORLDVIEW
 70
     1
  9
$SHADEDGE
 70
     3
  9
$SHADEDIF
 70
    70
  9
$TILEMODE
 70
     1
  9
$MAXACTVP
 70
    64
  9
$PLIMCHECK
 70
     0
  9
$PEXTMIN
 10
1.0000000000000000E+20
 20
1.0000000000000000E+20
 30
1.0000000000000000E+20
  9
$PEXTMAX
 10
-1.0000000000000000E+20
 20
-1.0000000000000000E+20
 30
-1.0000000000000000E+20
  9
$PLIMMIN
 10
0.0
 20
0.0
  9
$PLIMMAX
 10
12.0
 20
9.0
  9
$UNITMODE
 70
     0
  9
$VISRETAIN
 70
     1
  9
$PLINEGEN
 70
     0
  9
$PSLTSCALE
 70
     1
  0
ENDSEC
  0
SECTION
  2
TABLES
  0
TABLE
  2
VPORT
 70
     1
  0
VPORT
  2
*ACTIVE
 70
     0
 10
0.0
 20
0.0
 11
1.0
 21
1.0
 12
0.0
 22
0.316666547106383
 13
0.0
 23
0.0
 14
1.0
 24
1.0
 15
0.0
 25
0.0
 16
0.0
 26
0.0
 36
29.3101773862292312
 17
3651.0887451171879547
 27
150.9533157348633097
 37
0.0
 40
8.6209011387132577
 41
2.6486111111111108
 42
50.0
 43
0.0
 44
0.0
 50
0.0
 51
0.0
 71
     0
 72
   100
 73
     1
 74
     1
 75
     0
 76
     0
 77
     0
 78
     0
  0
ENDTAB
  0
TABLE
  2
LTYPE
 70
     2
  0
LTYPE
  2
CONTINUOUS
 70
     0
  3
Solid line
 72
    65
 73
     0
 40
0.0
  0
LTYPE
  2
PHANTOM2
 70
     0
  3
___ _ _ ___ _ _ ___ _ _ ___ _ _
 72
    65
 73
     6
 40
1.25
 49
0.625
 49
-0.125
 49
0.125
 49
-0.125
 49
0.125
 49
-0.125
  0
ENDTAB
  0
TABLE
  2
LAYER
 70
     2
  0
LAYER
  2
0
 70
     0
 62
   255
  6
CONTINUOUS
  0
LAYER
  2
DEFPOINTS
 70
     0
 62
     7
  6
CONTINUOUS
  0
ENDTAB
  0
TABLE
  2
STYLE
 70
     1
  0
STYLE
  2
STANDARD
 70
     0
 40
0.0
 41
0.8
 50
0.0
 71
     0
 42
0.2
  3
txt
  4

  0
ENDTAB
  0
TABLE
  2
VIEW
 70
     0
  0
ENDTAB
  0
TABLE
  2
UCS
 70
     0
  0
ENDTAB
  0
TABLE
  2
APPID
 70
    10
  0
APPID
  2
ACAD
 70
     0
  0
APPID
  2
ACAD_MLEADERVER
 70
     0
  0
APPID
  2
ACAD_EXEMPT_FROM_CAD_STANDARDS
 70
     0
  0
APPID
  2
ACAD_NAV_VCDISPLAY
 70
     0
  0
APPID
  2
ACAECLAYERSTANDARD
 70
     0
  0
APPID
  2
ACCMTRANSPARENCY
 70
     0
  0
APPID
  2
ACAD_DSTYLE_DIMJAG
 70
     0
  0
APPID
  2
ACAD_DSTYLE_DIMTALN
 70
     0
  0
APPID
  2
ACDBATTR
 70
     0
  0
APPID
  2
ACAD_PSEXT
 70
     0
  0
ENDTAB
  0
TABLE
  2
DIMSTYLE
 70
     1
  0
DIMSTYLE
  2
STANDARD
 70
     0
  3

  4

  5

  6

  7

 40
1.0
 41
0.1875
 42
0.0625
 43
0.38
 44
0.125
 45
0.0
 46
0.0
 47
0.01
 48
0.01
140
0.15625
141
0.09
142
0.0
143
25.3999999999999986
144
1.0
145
0.0
146
1.0
147
0.09
 71
     1
 72
     0
 73
     1
 74
     1
 75
     0
 76
     0
 77
     0
 78
     4
170
     0
171
     2
172
     0
173
     0
174
     0
175
     0
176
     0
177
     0
178
     0
  0
ENDTAB
  0
ENDSEC
  0
SECTION
  2
BLOCKS
  0
BLOCK
  8
0
  2
$MODEL_SPACE
 70
     0
 10
0.0
 20
0.0
 30
0.0
  3
$MODEL_SPACE
  1

  0
ENDBLK
  5
21
  8
0
  0
BLOCK
 67
     1
  8
0
  2
$PAPER_SPACE
 70
     0
 10
0.0
 20
0.0
 30
0.0
  3
$PAPER_SPACE
  1

  0
ENDBLK
  5
1D
 67
     1
  8
0
  0
BLOCK
  8
0
  2
_FILLED
 70
     0
 10
0.0
 20
0.0
 30
0.0
  3
_FILLED
  1

  0
SOLID
  5
B630
  8
0
  6
BYBLOCK
 62
     0
 10
0.0
 20
0.0
 30
0.0
 11
-1.0
 21
0.1666666667
 31
0.0
 12
-1.0
 22
-0.1666666667
 32
0.0
 13
-1.0
 23
-0.1666666667
 33
0.0
  0
ENDBLK
  5
B631
  8
0
  6
BYBLOCK
 62
     0
  0
ENDSEC
  0
SECTION
  2
ENTITIES
  0
ATTDEF
  5
AA11
  8
DEFPOINTS
 10
3651.0836573349852188
 20
153.8041588738973076
 30
0.0
 40
0.001
  1
K-16231T-4
  3

  2
MODELNUMBER
 70
     0
1001
ACDBATTR
1070
     0
1070
     1
  0
ATTDEF
  5
AA12
  8
DEFPOINTS
 10
3651.0836573349852188
 20
153.802492207230614
 30
0.0
 40
0.001
  1
MARGAUX
  3

  2
TRADENAME
 70
     0
1001
ACDBATTR
1070
     0
1070
     1
  0
ATTDEF
  5
AA13
  8
DEFPOINTS
 10
3651.0836573349852188
 20
153.800825540563892
 30
0.0
 40
0.001
  1
BATHROOM SINK FAUCET
  3

  2
PRODUCT
 70
     0
1001
ACDBATTR
1070
     0
1070
     1
  0
ARC
  5
ECF4
  8
0
 10
3651.0890094932301508
 20
150.5408580199255084
 30
0.0
 40
3.6613017996909121
 50
261.8131592302752892
 51
269.9957777739444964
  0
ARC
  5
ECF5
  8
0
 10
3650.5718847091129646
 20
146.9465441361838884
 30
0.0
 40
0.0299783089225936
 50
189.0564099613559108
 51
261.8488536368909081
  0
ARC
  5
ECF6
  8
0
 10
3658.824834256556187
 20
148.1986022201388948
 30
0.0
 40
8.3773618298537471
 50
186.7877418640069038
 51
188.6281205381926895
  0
ARC
  5
ECF7
  8
0
 10
3665.5413477581478219
 20
148.6453980829745092
 30
0.0
 40
15.1036653572702697
 50
177.9530092272642037
 51
185.4592493613027955
  0
ARC
  5
ECF8
  8
0
 10
3623.5101041789630472
 20
150.8936651743842106
 30
0.0
 40
26.9913605546151985
 50
356.3702738617703858
 51
1.7563413524125411
  0
ARC
  5
ECF9
  8
0
 10
3647.8471226883589225
 20
151.6812044549419056
 30
0.0
 40
2.641960271455623
 50
0.8614919624045809
 51
8.9991074820594434
  0
ARC
  5
ECFA
  8
0
 10
3652.0064555060062048
 20
153.8212441591462891
 30
0.0
 40
2.015804585792889
 50
146.9553491066425863
 51
206.3262934746495034
  0
ARC
  5
ECFB
  8
0
 10
3650.342468335149988
 20
154.905060412248389
 30
0.0
 40
0.0299992403409485
 50
103.7361816246232991
 51
149.1424585715365936
  0
ARC
  5
ECFC
  8
0
 10
3651.0720703861697984
 20
155.6893029383755902
 30
0.0
 40
3.1196848506793322
 50
250.9047865583438863
 51
255.7349443709144055
  0
ARC
  5
ECFD
  8
0
 10
3650.0613006236499132
 20
152.7696288149319912
 30
0.0
 40
0.0299999996383869
 50
199.0679707970531069
 51
250.9320424427029934
  0
ARC
  5
ECFE
  8
0
 10
3653.0337396855061343
 20
153.7970678767879917
 30
0.0
 40
3.1749999999999838
 50
160.9320244908020072
 51
199.0679755138988014
  0
ARC
  5
ECFF
  8
0
 10
3651.0887388720898343
 20
151.8520735862834101
 30
0.0
 40
3.174994234638342
 50
89.999985321127653
 51
109.0679956158827935
  0
ARC
  5
ED00
  8
0
 10
3650.0613001774681834
 20
154.8245072176306962
 30
0.0
 40
0.0299994867953383
 50
109.0673728602296961
 51
160.9322549072892059
  0
ARC
  5
ED01
  8
0
 10
3651.088893331656891
 20
154.0943464306600958
 30
0.0
 40
0.5478928926256561
 50
249.0314250928965976
 51
269.983932487111872
  0
ARC
  5
ED02
  8
0
 10
3650.905030367126983
 20
153.6144765789144913
 30
0.0
 40
0.0340051208556928
 50
200.4667561498712871
 51
248.9686497014020006
  0
ARC
  5
ED03
  8
0
 10
3651.3953690180001104
 20
153.797076580604994
 30
0.0
 40
0.5572400053303967
 50
159.574329439244508
 51
200.4276551884832998
  0
ARC
  5
ED04
  8
0
 10
3650.905018678442957
 20
153.9796584926261005
 30
0.0
 40
0.0340004818579109
 50
111.0327467094755036
 51
159.5303234274095132
  0
ARC
  5
ED05
  8
0
 10
3651.0888889358820961
 20
153.4998430105470959
 30
0.0
 40
0.5478400940570768
 50
90.0156093298550957
 51
110.971408113926401
  0
LINE
  5
ED06
  8
0
 10
3650.0400874058291265
 20
154.8457201270821884
 30
0.0
 11
3650.1885804469488903
 21
154.6923345090874875
 31
0.0
  0
LINE
  5
ED07
  8
0
 10
3650.0400874229208057
 20
152.7484156093011904
 30
0.0
 11
3650.2048566100988864
 21
152.9155519475050937
 31
0.0
  0
ARC
  5
ED09
  8
0
 10
3646.7350293432741637
 20
151.4027531531451984
 30
0.0
 40
3.7852690067971562
 50
10.5291542077480695
 51
23.7502032057789911
  0
ARC
  5
ED0A
  8
0
 10
3651.0887397466058246
 20
151.8523097376877899
 30
0.0
 40
3.1726426660002178
 50
90.0000011034336183
 51
103.737030241396198
  0
CIRCLE
  5
ED0B
  8
0
 10
3651.0887396855050611
 20
153.7970678767879917
 30
0.0
 40
1.019999997899999
  0
CIRCLE
  5
ED0C
  8
0
 10
3651.0887396855050611
 20
153.7970678767879917
 30
0.0
 40
1.0
  0
CIRCLE
  5
ED0D
  8
0
 10
3651.0887396855050611
 20
153.7970678767879917
 30
0.0
 40
0.4208491604999996
  0
CIRCLE
  5
ED0E
  8
0
 10
3651.0887397195128869
 20
153.7969981736210059
 30
0.0
 40
0.3300000348273553
  0
CIRCLE
  5
ED0F
  8
0
 10
3651.0887396855050611
 20
153.7970678767879917
 30
0.0
 40
0.6201785293000004
  0
ARC
  5
ED10
  8
0
 10
3651.0888799339281832
 20
153.7367602083158999
 30
0.0
 40
0.3514501948650273
 50
74.6646262550681428
 51
105.3354866327431978
  0
ARC
  5
ED11
  8
0
 10
3651.0888798699088511
 20
153.801745218282008
 30
0.0
 40
0.289290009850164
 50
71.2587119891545768
 51
108.7414008986535947
  0
ARC
  5
ED12
  8
0
 10
3651.0884698777831545
 20
150.5408580199255084
 30
0.0
 40
3.6613017996909121
 50
270.0042222260555036
 51
278.1868407697247108
  0
ARC
  5
ED13
  8
0
 10
3651.605594661898067
 20
146.9465441361838884
 30
0.0
 40
0.0299783089225936
 50
278.1511463631090919
 51
350.9435900386441176
  0
ARC
  5
ED14
  8
0
 10
3643.3526451144562088
 20
148.1986022201388948
 30
0.0
 40
8.3773618298537471
 50
351.371879461807282
 51
353.2122581359931246
  0
ARC
  5
ED15
  8
0
 10
3636.6361316128641192
 20
148.6453980829745092
 30
0.0
 40
15.1036653572702697
 50
354.5407506386973182
 51
2.0469907727358292
  0
ARC
  5
ED16
  8
0
 10
3678.667375192048894
 20
150.8936651743842106
 30
0.0
 40
26.9913605546151985
 50
178.2436586475874094
 51
183.6297261382296142
  0
ARC
  5
ED17
  8
0
 10
3654.3303566826530187
 20
151.6812044549419056
 30
0.0
 40
2.641960271455623
 50
171.0008925179405139
 51
179.1385080375953862
  0
ARC
  5
ED18
  8
0
 10
3650.171023865006191
 20
153.8212441591462891
 30
0.0
 40
2.015804585792889
 50
333.6737065253504966
 51
33.0446508933574066
  0
ARC
  5
ED19
  8
0
 10
3651.8350110358619531
 20
154.905060412248389
 30
0.0
 40
0.0299992403409485
 50
30.8575414284633887
 51
76.2638183753767294
  0
ARC
  5
ED1A
  8
0
 10
3651.1054089848421427
 20
155.6893029383755902
 30
0.0
 40
3.1196848506793322
 50
284.265055629085623
 51
289.0952134416560284
  0
ARC
  5
ED1B
  8
0
 10
3652.1161787473620279
 20
152.7696288149319912
 30
0.0
 40
0.0299999996383869
 50
289.0679575572970066
 51
340.9320292029469215
  0
ARC
  5
ED1C
  8
0
 10
3649.1437396855058068
 20
153.7970678767879917
 30
0.0
 40
3.1749999999999758
 50
340.932024486101227
 51
19.0679755091979786
  0
ARC
  5
ED1D
  8
0
 10
3651.0887404989221068
 20
151.8520735862834101
 30
0.0
 40
3.174994234638342
 50
70.9320043841171639
 51
90.000014678872347
  0
ARC
  5
ED1E
  8
0
 10
3652.1161791935442125
 20
154.8245072176306962
 30
0.0
 40
0.0299994867953383
 50
19.0677450927107515
 51
70.9326271397702897
  0
ARC
  5
ED1F
  8
0
 10
3651.0885860393550502
 20
154.0943464306600958
 30
0.0
 40
0.5478928926256561
 50
270.016067512888128
 51
290.9685749071034024
  0
ARC
  5
ED20
  8
0
 10
3651.2724490038840486
 20
153.6144765789144913
 30
0.0
 40
0.0340051208556928
 50
291.0313502985981131
 51
339.5332438501287129
  0
ARC
  5
ED21
  8
0
 10
3650.782110353013195
 20
153.797076580604994
 30
0.0
 40
0.5572400053303967
 50
339.5723448115167002
 51
20.4256705607554387
  0
ARC
  5
ED22
  8
0
 10
3651.2724606925689841
 20
153.9796584926261005
 30
0.0
 40
0.0340004818579109
 50
20.469676572590469
 51
68.9672532905244537
  0
ARC
  5
ED23
  8
0
 10
3651.088590435129845
 20
153.4998430105470959
 30
0.0
 40
0.5478400940570768
 50
69.0285918860736132
 51
89.9843906701449043
  0
LINE
  5
ED24
  8
0
 10
3652.1373919651828146
 20
154.8457201270821884
 30
0.0
 11
3651.9888989240630508
 21
154.6923345090874875
 31
0.0
  0
LINE
  5
ED25
  8
0
 10
3652.1373919480911354
 20
152.7484156093011904
 30
0.0
 11
3651.9726227609130547
 21
152.9155519475050937
 31
0.0
  0
ARC
  5
ED26
  8
0
 10
3655.4424500277368679
 20
151.4027531531451984
 30
0.0
 40
3.7852690067971562
 50
156.2497967942209982
 51
169.4708457922519074
  0
ARC
  5
ED27
  8
0
 10
3651.0887396244061165
 20
151.8523097376877899
 30
0.0
 40
3.1726426660002178
 50
76.2629697586037736
 51
89.9999988965663533
  0
ARC
  5
ED28
  8
0
 10
3651.088869658297881
 20
154.0540808441780882
 30
0.0
 40
0.4759815721099507
 50
249.0314250928965976
 51
269.983932487111872
  0
ARC
  5
ED29
  8
0
 10
3650.9288961256129369
 20
153.6369539125942083
 30
0.0
 40
0.0292308392125502
 50
200.1917669796177961
 51
249.2436388716392912
  0
ARC
  5
ED2A
  8
0
 10
3651.3551201991649577
 20
153.7958278672284962
 30
0.0
 40
0.4841018698173554
 50
159.574329439244508
 51
200.4276551884832998
  0
ARC
  5
ED2B
  8
0
 10
3650.9294181004329403
 20
153.9541591874456117
 30
0.0
 40
0.0299097320869434
 50
111.3531941575642037
 51
159.2098759792945089
  0
ARC
  5
ED2C
  8
0
 10
3651.0888658394710546
 20
153.5376064085014036
 30
0.0
 40
0.4759357033899587
 50
90.0156093298550957
 51
110.971408113926401
  0
ARC
  5
ED2D
  8
0
 10
3651.08860269832212
 20
154.0540808441780882
 30
0.0
 40
0.4759815721099507
 50
270.016067512888128
 51
290.9685749071034024
  0
ARC
  5
ED2E
  8
0
 10
3651.2486154688740498
 20
153.6369150594861139
 30
0.0
 40
0.0291806111362832
 50
290.7113543952457917
 51
339.8532397535158225
  0
ARC
  5
ED2F
  8
0
 10
3650.8223521574559527
 20
153.7958278672284962
 30
0.0
 40
0.4841018698173554
 50
339.5723448115167002
 51
20.4256705607554387
  0
ARC
  5
ED30
  8
0
 10
3651.2480957004190714
 20
153.9542002263760878
 30
0.0
 40
0.0298564291931287
 50
20.7447265523638897
 51
68.6922033107504006
  0
ARC
  5
ED31
  8
0
 10
3651.0886065171489463
 20
153.5376064085014036
 30
0.0
 40
0.4759357033899587
 50
69.0285918860736132
 51
89.9843906701449043
  0
LINE
  5
ED32
  8
0
 10
3650.9081650166131112
 20
153.9752043413218985
 30
0.0
 11
3651.2693143543988299
 21
153.6163465348836041
 31
0.0
  0
LINE
  5
ED33
  8
0
 10
3650.9081468712770402
 20
153.6163648279726885
 30
0.0
 11
3651.2693324997349009
 21
153.9751860482328141
 31
0.0
  0
ENDSEC
  0
EOF
