  0
SECTION
  2
HEADER
  9
$ACADVER
  1
AC1009
  9
$INSBASE
 10
3664.6963361889570479
 20
146.2693153399227981
 30
0.0
  9
$EXTMIN
 10
3657.778824880996126
 20
146.2643774260897089
 30
0.0
  9
$EXTMAX
 10
3665.9263737352671342
 20
157.9186929996072877
 30
0.0
  9
$LIMMIN
 10
0.0
 20
0.0
  9
$LIMMAX
 10
11.6929133858000007
 20
8.2677165353999982
  9
$ORTHOMODE
 70
     0
  9
$REGENMODE
 70
     1
  9
$FILLMODE
 70
     1
  9
$QTEXTMODE
 70
     0
  9
$MIRRTEXT
 70
     0
  9
$DRAGMODE
 70
     2
  9
$LTSCALE
 40
0.6431102362
  9
$OSMODE
 70
  2047
  9
$ATTMODE
 70
     1
  9
$TEXTSIZE
 40
0.2
  9
$TRACEWID
 40
0.05
  9
$TEXTSTYLE
  7
STANDARD
  9
$CLAYER
  8
0
  9
$CELTYPE
  6
BYLAYER
  9
$CECOLOR
 62
   256
  9
$DIMSCALE
 40
1.0
  9
$DIMASZ
 40
0.1875
  9
$DIMEXO
 40
0.0625
  9
$DIMDLI
 40
0.4443307087
  9
$DIMRND
 40
0.0
  9
$DIMDLE
 40
0.0
  9
$DIMEXE
 40
0.125
  9
$DIMTP
 40
0.01
  9
$DIMTM
 40
0.01
  9
$DIMTXT
 40
2.0
  9
$DIMCEN
 40
0.1052362205
  9
$DIMTSZ
 40
0.0
  9
$DIMTOL
 70
     1
  9
$DIMLIM
 70
     0
  9
$DIMTIH
 70
     1
  9
$DIMTOH
 70
     1
  9
$DIMSE1
 70
     0
  9
$DIMSE2
 70
     0
  9
$DIMTAD
 70
     0
  9
$DIMZIN
 70
     0
  9
$DIMBLK
  1

  9
$DIMASO
 70
     1
  9
$DIMSHO
 70
     1
  9
$DIMPOST
  1
\X
  9
$DIMAPOST
  1

  9
$DIMALT
 70
     1
  9
$DIMALTD
 70
     2
  9
$DIMALTF
 40
25.3999999999999986
  9
$DIMLFAC
 40
1.0
  9
$DIMTOFL
 70
     0
  9
$DIMTVP
 40
0.0
  9
$DIMTIX
 70
     0
  9
$DIMSOXD
 70
     0
  9
$DIMSAH
 70
     0
  9
$DIMBLK1
  1

  9
$DIMBLK2
  1

  9
$DIMSTYLE
  2
STANDARD
  9
$DIMCLRD
 70
     0
  9
$DIMCLRE
 70
     0
  9
$DIMCLRT
 70
     0
  9
$DIMTFAC
 40
1.0
  9
$DIMGAP
 40
0.09
  9
$LUNITS
 70
     2
  9
$LUPREC
 70
     4
  9
$SKETCHINC
 40
0.1
  9
$FILLETRAD
 40
0.0
  9
$AUNITS
 70
     0
  9
$AUPREC
 70
     0
  9
$MENU
  1
.
  9
$ELEVATION
 40
0.0
  9
$PELEVATION
 40
0.0
  9
$THICKNESS
 40
0.0
  9
$LIMCHECK
 70
     0
  9
$BLIPMODE
 70
     0
  9
$CHAMFERA
 40
0.0
  9
$CHAMFERB
 40
0.0
  9
$SKPOLY
 70
     0
  9
$TDCREATE
 40
2458060.468368056230247
  9
$TDUPDATE
 40
2459029.6480787037871778
  9
$TDINDWG
 40
0.7140116898
  9
$TDUSRTIMER
 40
0.7140116898
  9
$USRTIMER
 70
     1
  9
$ANGBASE
 50
0.0
  9
$ANGDIR
 70
     0
  9
$PDMODE
 70
     0
  9
$PDSIZE
 40
0.3125
  9
$PLINEWID
 40
0.0
  9
$COORDS
 70
     1
  9
$SPLFRAME
 70
     0
  9
$SPLINETYPE
 70
     6
  9
$SPLINESEGS
 70
     8
  9
$ATTDIA
 70
     1
  9
$ATTREQ
 70
     1
  9
$HANDLING
 70
     1
  9
$HANDSEED
  5
F0B3
  9
$SURFTAB1
 70
     6
  9
$SURFTAB2
 70
     6
  9
$SURFTYPE
 70
     6
  9
$SURFU
 70
     6
  9
$SURFV
 70
     6
  9
$UCSNAME
  2

  9
$UCSORG
 10
0.0
 20
0.0
 30
0.0
  9
$UCSXDIR
 10
1.0
 20
0.0
 30
0.0
  9
$UCSYDIR
 10
0.0
 20
1.0
 30
0.0
  9
$PUCSNAME
  2

  9
$PUCSORG
 10
0.0
 20
0.0
 30
0.0
  9
$PUCSXDIR
 10
1.0
 20
0.0
 30
0.0
  9
$PUCSYDIR
 10
0.0
 20
1.0
 30
0.0
  9
$USERI1
 70
     0
  9
$USERI2
 70
     0
  9
$USERI3
 70
     0
  9
$USERI4
 70
     0
  9
$USERI5
 70
     0
  9
$USERR1
 40
0.0
  9
$USERR2
 40
0.0
  9
$USERR3
 40
0.0
  9
$USERR4
 40
0.0
  9
$USERR5
 40
0.0
  9
$WORLDVIEW
 70
     1
  9
$SHADEDGE
 70
     3
  9
$SHADEDIF
 70
    70
  9
$TILEMODE
 70
     1
  9
$MAXACTVP
 70
    64
  9
$PLIMCHECK
 70
     0
  9
$PEXTMIN
 10
1.0000000000000000E+20
 20
1.0000000000000000E+20
 30
1.0000000000000000E+20
  9
$PEXTMAX
 10
-1.0000000000000000E+20
 20
-1.0000000000000000E+20
 30
-1.0000000000000000E+20
  9
$PLIMMIN
 10
0.0
 20
0.0
  9
$PLIMMAX
 10
12.0
 20
9.0
  9
$UNITMODE
 70
     0
  9
$VISRETAIN
 70
     1
  9
$PLINEGEN
 70
     0
  9
$PSLTSCALE
 70
     1
  0
ENDSEC
  0
SECTION
  2
TABLES
  0
TABLE
  2
VPORT
 70
     1
  0
VPORT
  2
*ACTIVE
 70
     0
 10
0.0
 20
0.0
 11
1.0
 21
1.0
 12
0.0000000000000036
 22
0.0891409532201939
 13
0.0
 23
0.0
 14
1.0
 24
1.0
 15
0.0
 25
0.0
 16
0.0
 26
0.0
 36
48.9711935119470212
 17
3661.8525390625
 27
152.0915316695877948
 37
0.0
 40
14.3999037490297308
 41
2.6486111111111108
 42
50.0
 43
0.0
 44
0.0
 50
0.0
 51
0.0
 71
     0
 72
   100
 73
     1
 74
     1
 75
     0
 76
     0
 77
     0
 78
     0
  0
ENDTAB
  0
TABLE
  2
LTYPE
 70
     2
  0
LTYPE
  2
CONTINUOUS
 70
     0
  3
Solid line
 72
    65
 73
     0
 40
0.0
  0
LTYPE
  2
PHANTOM2
 70
     0
  3
___ _ _ ___ _ _ ___ _ _ ___ _ _
 72
    65
 73
     6
 40
1.25
 49
0.625
 49
-0.125
 49
0.125
 49
-0.125
 49
0.125
 49
-0.125
  0
ENDTAB
  0
TABLE
  2
LAYER
 70
     2
  0
LAYER
  2
0
 70
     0
 62
   255
  6
CONTINUOUS
  0
LAYER
  2
DEFPOINTS
 70
     0
 62
     7
  6
CONTINUOUS
  0
ENDTAB
  0
TABLE
  2
STYLE
 70
     1
  0
STYLE
  2
STANDARD
 70
     0
 40
0.0
 41
0.8
 50
0.0
 71
     0
 42
0.2
  3
txt
  4

  0
ENDTAB
  0
TABLE
  2
VIEW
 70
     0
  0
ENDTAB
  0
TABLE
  2
UCS
 70
     0
  0
ENDTAB
  0
TABLE
  2
APPID
 70
    10
  0
APPID
  2
ACAD
 70
     0
  0
APPID
  2
ACAD_MLEADERVER
 70
     0
  0
APPID
  2
ACAD_EXEMPT_FROM_CAD_STANDARDS
 70
     0
  0
APPID
  2
ACAD_NAV_VCDISPLAY
 70
     0
  0
APPID
  2
ACAECLAYERSTANDARD
 70
     0
  0
APPID
  2
ACCMTRANSPARENCY
 70
     0
  0
APPID
  2
ACAD_DSTYLE_DIMJAG
 70
     0
  0
APPID
  2
ACAD_DSTYLE_DIMTALN
 70
     0
  0
APPID
  2
ACDBATTR
 70
     0
  0
APPID
  2
ACAD_PSEXT
 70
     0
  0
ENDTAB
  0
TABLE
  2
DIMSTYLE
 70
     1
  0
DIMSTYLE
  2
STANDARD
 70
     0
  3

  4

  5

  6

  7

 40
1.0
 41
0.1875
 42
0.0625
 43
0.38
 44
0.125
 45
0.0
 46
0.0
 47
0.01
 48
0.01
140
0.15625
141
0.09
142
0.0
143
25.3999999999999986
144
1.0
145
0.0
146
1.0
147
0.09
 71
     1
 72
     0
 73
     1
 74
     1
 75
     0
 76
     0
 77
     0
 78
     4
170
     0
171
     2
172
     0
173
     0
174
     0
175
     0
176
     0
177
     0
178
     0
  0
ENDTAB
  0
ENDSEC
  0
SECTION
  2
BLOCKS
  0
BLOCK
  8
0
  2
$MODEL_SPACE
 70
     0
 10
0.0
 20
0.0
 30
0.0
  3
$MODEL_SPACE
  1

  0
ENDBLK
  5
21
  8
0
  0
BLOCK
 67
     1
  8
0
  2
$PAPER_SPACE
 70
     0
 10
0.0
 20
0.0
 30
0.0
  3
$PAPER_SPACE
  1

  0
ENDBLK
  5
1D
 67
     1
  8
0
  0
BLOCK
  8
0
  2
_FILLED
 70
     0
 10
0.0
 20
0.0
 30
0.0
  3
_FILLED
  1

  0
SOLID
  5
B630
  8
0
  6
BYBLOCK
 62
     0
 10
0.0
 20
0.0
 30
0.0
 11
-1.0
 21
0.1666666667
 31
0.0
 12
-1.0
 22
-0.1666666667
 32
0.0
 13
-1.0
 23
-0.1666666667
 33
0.0
  0
ENDBLK
  5
B631
  8
0
  6
BYBLOCK
 62
     0
  0
ENDSEC
  0
SECTION
  2
ENTITIES
  0
ATTDEF
  5
AA11
  8
DEFPOINTS
 10
3664.6965915922842214
 20
146.2677107594230108
 30
0.0
 40
0.001
  1
K-16231T-4
  3

  2
MODELNUMBER
 70
     0
1001
ACDBATTR
1070
     0
1070
     1
  0
ATTDEF
  5
AA12
  8
DEFPOINTS
 10
3664.6965915922842214
 20
146.2660440927562888
 30
0.0
 40
0.001
  1
MARGAUX
  3

  2
TRADENAME
 70
     0
1001
ACDBATTR
1070
     0
1070
     1
  0
ATTDEF
  5
AA13
  8
DEFPOINTS
 10
3664.6965915922842214
 20
146.2643774260897089
 30
0.0
 40
0.001
  1
BATHROOM SINK FAUCET
  3

  2
PRODUCT
 70
     0
1001
ACDBATTR
1070
     0
1070
     1
  0
LINE
  5
EEB1
  8
0
 10
3663.4763361889581574
 20
146.2693153399227981
 30
0.0
 11
3665.916336188958212
 21
146.2693153399227981
 31
0.0
  0
LINE
  5
EEB2
  8
0
 10
3663.4872889059070076
 20
146.5252448230228026
 30
0.0
 11
3665.9053047294842145
 21
146.5252448230228026
 31
0.0
  0
LINE
  5
EEB3
  8
0
 10
3665.926336188957066
 20
146.279315339922789
 30
0.0
 11
3665.9263363487571041
 21
146.4973556505227918
 31
0.0
  0
ARC
  5
EEB4
  8
0
 10
3665.8992182463680365
 20
146.4987801153835107
 30
0.0
 40
0.0271554888983207
 50
356.9931198594376269
 51
77.0055543783548586
  0
ARC
  5
EEB5
  8
0
 10
3666.121392212156934
 20
147.4422747123495867
 30
0.0
 40
0.9421452213360486
 50
233.9683947335331027
 51
256.7420138896125081
  0
ARC
  5
EEB6
  8
0
 10
3665.7855594676238979
 20
146.9370167112415118
 30
0.0
 40
0.336975008752569
 50
197.330513956105591
 51
229.607484423138601
  0
ARC
  5
EEB7
  8
0
 10
3666.3129826414260606
 20
147.0566566740369012
 30
0.0
 40
0.8771429453959536
 50
173.8043626105290116
 51
194.5269990118443957
  0
LINE
  5
EEB8
  8
0
 10
3665.4409629262581802
 20
147.1513211500227953
 30
0.0
 11
3665.9241512113580939
 21
154.2372743990227946
 31
0.0
  0
LINE
  5
EEB9
  8
0
 10
3665.8334021489758925
 20
154.2372679552316015
 30
0.0
 11
3665.3599800119568499
 21
147.1273104113228101
 31
0.0
  0
ARC
  5
EEBA
  8
0
 10
3666.4613813560581548
 20
147.0453373927491896
 30
0.0
 40
1.1044475979242701
 50
175.7435455674811919
 51
189.1791276313070966
  0
ARC
  5
EEBB
  8
0
 10
3665.7383970992727882
 20
146.9285267485101087
 30
0.0
 40
0.3720877401138734
 50
189.1817093488384955
 51
220.8905918899756955
  0
ARC
  5
EEBC
  8
0
 10
3665.9251838476138801
 20
147.1738949651937105
 30
0.0
 40
0.6768717488111641
 50
226.2494251575610065
 51
253.4122189563304914
  0
ARC
  5
EEBD
  8
0
 10
3665.7237946753689357
 20
146.498044633978509
 30
0.0
 40
0.0283454982236499
 50
358.405885395418693
 51
73.2836464804659045
  0
LINE
  5
EEBE
  8
0
 10
3665.7521292032570273
 20
146.4972560917227895
 30
0.0
 11
3665.7521292032570273
 21
146.2796627190635945
 31
0.0
  0
ARC
  5
EEBF
  8
0
 10
3665.7423707401540014
 20
146.2790860034949958
 30
0.0
 40
0.0097754899100282
 50
271.8005081605107875
 51
3.382190208721775
  0
ARC
  5
EEC0
  8
0
 10
3665.916336188958212
 20
146.279315339922789
 30
0.0
 40
0.0100000000000087
 50
270.0000084184040929
 51
359.9999999999674856
  0
ARC
  5
EEC1
  8
0
 10
3659.4004235516867993
 20
148.600030323123093
 30
0.0
 40
6.107912379363178
 50
85.6954354928487732
 51
101.0276459572033048
  0
ARC
  5
EEC2
  8
0
 10
3658.280303381558042
 20
154.3498540386227944
 30
0.0
 40
0.2499999557000085
 50
101.1202813448927031
 51
152.5856802046660903
  0
ARC
  5
EEC3
  8
0
 10
3660.6325787947371282
 20
153.1297924471541023
 30
0.0
 40
2.8998584248293708
 50
152.5854719515400006
 51
169.7158900725750073
  0
ARC
  5
EEC4
  8
0
 10
3657.8088237789879713
 20
153.6421412713266932
 30
0.0
 40
0.0299988979917696
 50
169.7055772165369092
 51
256.9990586448390104
  0
LINE
  5
EEC5
  8
0
 10
3657.802075015014907
 20
153.6129113540235096
 30
0.0
 11
3658.9047838616570516
 21
153.3583309305228113
 31
0.0
  0
ARC
  5
EEC6
  8
0
 10
3658.9115329569631285
 20
153.3875601186371114
 30
0.0
 40
0.0299982620374747
 50
256.9981287139660822
 51
329.940379762807197
  0
ARC
  5
EEC7
  8
0
 10
3659.417351819167834
 20
153.1586001447747094
 30
0.0
 40
0.5253843518509665
 50
106.2959643898947064
 51
155.9712571103829077
  0
ARC
  5
EEC8
  8
0
 10
3659.5967281078910673
 20
151.4902234385911015
 30
0.0
 40
2.197093940499466
 50
85.5465723587174409
 51
98.5539916447985433
  0
ARC
  5
EEC9
  8
0
 10
3659.4408975531978285
 20
148.7703683658079115
 30
0.0
 40
4.921153955351806
 50
78.8048501851830565
 51
86.1966388866893425
  0
ARC
  5
EECA
  8
0
 10
3495.3223258953980803
 20
-681.0707522902937399
 30
0.0
 40
850.8355651180586392
 50
78.6963611125938343
 51
78.8128694164440731
  0
ARC
  5
EECB
  8
0
 10
3661.5199048688859875
 20
151.0332135376544045
 30
0.0
 40
2.2998864171443638
 50
10.4158989576207297
 51
75.5639861325355326
  0
ARC
  5
EECC
  8
0
 10
3661.7359857236078824
 20
151.1129553745766998
 30
0.0
 40
2.0733232723527988
 50
2.2055773187620029
 51
9.3280718111502434
  0
ARC
  5
EECD
  8
0
 10
3656.8683417754828042
 20
151.0938126563972048
 30
0.0
 40
7.0633087942797594
 50
0.5313326957853072
 51
6.3085974850419317
  0
ARC
  5
EECE
  8
0
 10
3661.7390534176620349
 20
151.8069165072834039
 30
0.0
 40
2.1507491140924579
 50
1.6795395526510031
 51
36.9418133548288026
  0
ARC
  5
EECF
  8
0
 10
3661.8029732919558228
 20
151.4994811145820961
 30
0.0
 40
2.3020332820549592
 50
44.0317295919642433
 51
77.6842840628843732
  0
ARC
  5
EED0
  8
0
 10
3646.0209100480728921
 20
77.4939308937993019
 30
0.0
 40
77.9716508330519673
 50
77.9535198898872892
 51
79.2850423549334806
  0
ARC
  5
EED1
  8
0
 10
3659.5621422055801304
 20
149.6356744155445142
 30
0.0
 40
4.5713899186527041
 50
77.9352091551235731
 51
91.4695958332305139
  0
ARC
  5
EED2
  8
0
 10
3659.4597484806981811
 20
153.0249815044516026
 30
0.0
 40
1.1806725315153299
 50
90.7204818342080728
 51
157.2490383111878884
  0
LINE
  5
EED3
  8
0
 10
3658.7226527657271617
 20
153.123826615279313
 30
0.0
 11
3657.8622839985268911
 21
153.3224583962791883
 31
0.0
  0
LINE
  5
EED4
  8
0
 10
3657.8398014282151962
 20
153.3584380298578935
 30
0.0
 11
3657.8936692404240603
 21
153.5917651586649129
 31
0.0
  0
LINE
  5
EED5
  8
0
 10
3658.758632399310045
 20
153.1463091856336973
 30
0.0
 11
3658.8125002119641067
 21
153.3796362920357126
 31
0.0
  0
LINE
  5
EED6
  8
0
 10
3663.4663361889570297
 20
146.279315339922789
 30
0.0
 11
3663.4663360388972251
 21
146.4973520029674887
 31
0.0
  0
ARC
  5
EED7
  8
0
 10
3663.4953442942792208
 20
146.4973774541794
 30
0.0
 40
0.0290082665472967
 50
106.0624631833401992
 51
180.0502700570644947
  0
ARC
  5
EED8
  8
0
 10
3663.2905162009369633
 20
147.3874067523439066
 30
0.0
 40
0.884330058976927
 50
282.8584710663919282
 51
307.1070857076065863
  0
ARC
  5
EED9
  8
0
 10
3663.5967784484741969
 20
146.9386921230089911
 30
0.0
 40
0.3427292760297939
 50
311.5358668462357059
 51
342.931947500041872
  0
ARC
  5
EEDA
  8
0
 10
3663.0472324003421818
 20
147.0691570531587047
 30
0.0
 40
0.9071017274302329
 50
345.2429051821072221
 51
3.8499591215965419
  0
LINE
  5
EEDB
  8
0
 10
3663.9522870725568282
 20
147.1300634092227995
 30
0.0
 11
3663.8077730260570206
 21
151.1927473860228019
 31
0.0
  0
LINE
  5
EEDC
  8
0
 10
3663.9313468570971963
 20
151.1593133467403902
 30
0.0
 11
3664.0331044739291428
 21
147.1329020468758983
 31
0.0
  0
ARC
  5
EEDD
  8
0
 10
3662.6873530881762235
 20
147.0865847328452105
 30
0.0
 40
1.3465482114779961
 50
350.7534859734246879
 51
1.971195815257385
  0
ARC
  5
EEDE
  8
0
 10
3663.6331405534619989
 20
146.9339353959155972
 30
0.0
 40
0.388524286366086
 50
320.5584306649606106
 51
350.5609373976561756
  0
ARC
  5
EEDF
  8
0
 10
3663.4894070737118454
 20
147.123521525942607
 30
0.0
 40
0.622411783355484
 50
285.9904270892656086
 51
315.4796147670285791
  0
ARC
  5
EEE0
  8
0
 10
3663.6690201721457925
 20
146.498044633978509
 30
0.0
 40
0.0283454982236499
 50
106.7163535195340955
 51
181.5941146045811934
  0
LINE
  5
EEE1
  8
0
 10
3663.6406856442581557
 20
146.4972560917227895
 30
0.0
 11
3663.6406856442581557
 21
146.2796627190635945
 31
0.0
  0
ARC
  5
EEE2
  8
0
 10
3663.6504441073611815
 20
146.2790860034949958
 30
0.0
 40
0.0097754899100282
 50
176.617809791278205
 51
268.1994918394892125
  0
ARC
  5
EEE3
  8
0
 10
3663.4763361889581574
 20
146.279315339922789
 30
0.0
 40
0.0100000000000122
 50
180.0000000000455884
 51
269.9999915815437816
  0
ARC
  5
EEE4
  8
0
 10
3657.5478552630538616
 20
128.2467159491285997
 30
0.0
 40
26.5447884221782608
 50
81.2272918391390419
 51
85.0054465212591737
  0
ARC
  5
EEE5
  8
0
 10
3083.6499925936050204
 20
-4184.984476905478914
 30
0.0
 40
4377.7828018009977313
 50
82.3952230313734333
 51
82.4137767620826907
  0
ARC
  5
EEE6
  8
0
 10
3663.5355630540320817
 20
160.1620659786958072
 30
0.0
 40
5.8927342378631211
 50
264.8003728678361881
 51
269.6794085986559253
  0
LINE
  5
EEE7
  8
0
 10
3663.5025911652578543
 20
154.2694239861228027
 30
0.0
 11
3665.8946178112209964
 21
154.2693127112328
 31
0.0
  0
ARC
  5
EEE8
  8
0
 10
3665.8942207160830549
 20
154.2393153396567129
 30
0.0
 40
0.0299999997670744
 50
356.0990774450413028
 51
89.2415819987225944
  0
ARC
  5
EEE9
  8
0
 10
3665.8038424247611147
 20
154.2396641999418989
 30
0.0
 40
0.0296566903808913
 50
355.3654795353293139
 51
89.0614386366812312
  0
ARC
  5
EEEA
  8
0
 10
3664.4541783731201576
 20
154.7286513457138142
 30
0.0
 40
0.0221668198789918
 50
328.9962027965810876
 51
358.3668751987199244
  0
ARC
  5
EEEB
  8
0
 10
3664.3963361905521197
 20
154.7580196020832091
 30
0.0
 40
0.0300000015944028
 50
180.0000012613145088
 51
270.0142970259383901
  0
LINE
  5
EEEC
  8
0
 10
3664.3663361889571206
 20
154.7580196014228022
 30
0.0
 11
3664.3663361873159374
 21
154.8325819016280889
 31
0.0
  0
ARC
  5
EEED
  8
0
 10
3664.3963617847771275
 20
154.8325819022890926
 30
0.0
 40
0.0300255974609334
 50
129.8116921766940095
 51
180.0000012613145088
  0
ARC
  5
EEEE
  8
0
 10
3664.3411841685460786
 20
154.8987806603107913
 30
0.0
 40
0.0561535467476053
 50
309.8116921766941232
 51
0.8108599175266376
  0
LINE
  5
EEEF
  8
0
 10
3664.3973320920567858
 20
154.8995753286228023
 30
0.0
 11
3664.4457236689818274
 21
157.887573704881703
 31
0.0
  0
ARC
  5
EEF0
  8
0
 10
3664.4754514613450738
 20
157.8873775936860966
 30
0.0
 40
0.0297284392186315
 50
85.9916058121237086
 51
179.6220311049453926
  0
LINE
  5
EEF1
  8
0
 10
3664.4775295572039795
 20
157.9170333117851897
 30
0.0
 11
3664.5710444735750571
 21
157.9101039889733045
 31
0.0
  0
LINE
  5
EEF2
  8
0
 10
3664.4775299543571236
 20
157.917033282722798
 30
0.0
 11
3664.5087626263580205
 21
157.9003735206727868
 31
0.0
  0
ARC
  5
EEF3
  8
0
 10
3664.708135242255139
 20
156.8284374917365938
 30
0.0
 40
1.0903193523463941
 50
90.6200469158796977
 51
100.5362212167516986
  0
ARC
  5
EEF4
  8
0
 10
3664.4105963144970701
 20
154.8987666323803012
 30
0.0
 40
0.0737930469790084
 50
323.8621535871690185
 51
0.9168646223775198
  0
LINE
  5
EEF5
  8
0
 10
3664.4843799134441724
 20
154.8999474409351933
 30
0.0
 11
3664.4807696240968653
 21
157.8699895312466026
 31
0.0
  0
ARC
  5
EEF6
  8
0
 10
3664.5103630500789222
 20
157.8708119595910944
 30
0.0
 40
0.0296048517928153
 50
93.0988922831618453
 51
181.5918923175987061
  0
ARC
  5
EEF7
  8
0
 10
3664.9384940047948476
 20
154.7286513457138142
 30
0.0
 40
0.0221668198789918
 50
181.6331248012801041
 51
211.0037972034187987
  0
ARC
  5
EEF8
  8
0
 10
3664.9963361873628855
 20
154.7580196020832091
 30
0.0
 40
0.0300000015944028
 50
269.9857029740616099
 51
359.9999987386855196
  0
LINE
  5
EEF9
  8
0
 10
3665.0263361889578846
 20
154.7580196014228022
 30
0.0
 11
3665.0263361905990678
 21
154.832581887759801
 31
0.0
  0
ARC
  5
EEFA
  8
0
 10
3664.9963105931378777
 20
154.8325819022890926
 30
0.0
 40
0.0300255974609493
 50
359.9999722747589885
 51
50.1883078233038304
  0
ARC
  5
EEFB
  8
0
 10
3665.0514882093689266
 20
154.8987806603107913
 30
0.0
 40
0.0561535467476053
 50
179.1891400824733012
 51
230.1883078233059052
  0
LINE
  5
EEFC
  8
0
 10
3664.9953402858568552
 20
154.8995753286228023
 30
0.0
 11
3664.9902947441951255
 21
155.2111186023199139
 31
0.0
  0
LINE
  5
EEFD
  8
0
 10
3664.9874695491780585
 20
155.3855637984125906
 30
0.0
 11
3664.9469487089331778
 21
157.887573704881703
 31
0.0
  0
ARC
  5
EEFE
  8
0
 10
3664.9172209165699314
 20
157.8873775936860966
 30
0.0
 40
0.0297284392186315
 50
0.3779688950545901
 51
94.0083941878762772
  0
LINE
  5
EEFF
  8
0
 10
3664.9151428207101162
 20
157.9170333117851897
 30
0.0
 11
3664.8193606474028456
 21
157.9099359884465912
 31
0.0
  0
LINE
  5
EF00
  8
0
 10
3664.9151424235569721
 20
157.917033282722798
 30
0.0
 11
3664.8839097515569847
 21
157.9003735206727868
 31
0.0
  0
ARC
  5
EF01
  8
0
 10
3664.6698507369987965
 20
156.6780631209057049
 30
0.0
 40
1.240912557391826
 50
80.0667188102558214
 51
88.7770130571415166
  0
ARC
  5
EF02
  8
0
 10
3664.9820760634179351
 20
154.8987666323803012
 30
0.0
 40
0.0737930469790084
 50
179.0831353776225114
 51
216.1378559853845047
  0
LINE
  5
EF03
  8
0
 10
3664.9082924644699233
 20
154.8999474409351933
 30
0.0
 11
3664.9119027538167757
 21
157.8699895312466026
 31
0.0
  0
ARC
  5
EF04
  8
0
 10
3664.882309327836083
 20
157.8708119595910944
 30
0.0
 40
0.0296048517928153
 50
358.4081076824012939
 51
86.9011077168381547
  0
LINE
  5
EF05
  8
0
 10
3664.3963436764570361
 20
154.7280196014228011
 30
0.0
 11
3664.9963287014570597
 21
154.7280196014228011
 31
0.0
  0
LINE
  5
EF06
  8
0
 10
3664.3766703052569937
 20
154.8552486651196887
 30
0.0
 11
3665.0160020888579311
 21
154.8552486510454003
 31
0.0
  0
ARC
  5
EF07
  8
0
 10
3664.0666050895570152
 20
154.2743153399227936
 30
0.0
 40
0.0049999999999972
 50
179.9999999999787974
 51
259.5804534272426167
  0
LINE
  5
EF08
  8
0
 10
3664.061605089556906
 20
154.2743153399227936
 30
0.0
 11
3664.0623969625230529
 21
154.2895561055431983
 31
0.0
  0
ARC
  5
EF09
  8
0
 10
3664.0673900743217928
 20
154.2893164822123993
 30
0.0
 40
0.0049988583471448
 50
89.9710815369688959
 51
177.2524388622659046
  0
ARC
  5
EF0A
  8
0
 10
3664.0688354531639561
 20
154.3043150351473116
 30
0.0
 40
0.0099992642114599
 50
179.998253636443593
 51
270.0042153571744734
  0
LINE
  5
EF0B
  8
0
 10
3664.058836188956775
 20
154.3043153399227947
 30
0.0
 11
3664.058836188956775
 21
154.4022786239227969
 31
0.0
  0
ARC
  5
EF0C
  8
0
 10
3664.0888361889578846
 20
154.4022786239227969
 30
0.0
 40
0.0299999999999763
 50
114.9999608558269983
 51
180.0000000000081002
  0
LINE
  5
EF0D
  8
0
 10
3664.0761576596810301
 20
154.4294678661958073
 30
0.0
 11
3664.2628085404940066
 21
154.5165044460736965
 31
0.0
  0
ARC
  5
EF0E
  8
0
 10
3664.2754876838112068
 20
154.4893138869844904
 30
0.0
 40
0.0300014529454477
 50
90.0012515734372869
 51
114.999960855826302
  0
ARC
  5
EF0F
  8
0
 10
3665.3251080308677956
 20
154.2750654929299117
 30
0.0
 40
0.0060469579379157
 50
288.7402012139680778
 51
356.4817240454092939
  0
LINE
  5
EF10
  8
0
 10
3665.3311435919508767
 20
154.274694409763697
 30
0.0
 11
3665.3303426176871653
 21
154.2899346997778878
 31
0.0
  0
ARC
  5
EF11
  8
0
 10
3665.3253496498759887
 20
154.2896920947167132
 30
0.0
 40
0.0049988583471448
 50
2.7817768804416252
 51
90.0631342057419175
  0
ARC
  5
EF12
  8
0
 10
3665.3238953144959851
 20
154.3046897818296941
 30
0.0
 40
0.0099992642114598
 50
270.0300003855501814
 51
0.0359621062578458
  0
LINE
  5
EF13
  8
0
 10
3665.3338945767368386
 20
154.3046960579391111
 30
0.0
 11
3665.3338360752850349
 21
154.4026593244711876
 31
0.0
  0
ARC
  5
EF14
  8
0
 10
3665.3038360806340279
 20
154.4026414091513004
 30
0.0
 40
0.0299999999999763
 50
0.0342157426998269
 51
65.0342548868681263
  0
LINE
  5
EF15
  8
0
 10
3665.31649837085115
 20
154.4298382179063935
 30
0.0
 11
3665.1297955470467969
 21
154.5167633185899945
 31
0.0
  0
ARC
  5
EF16
  8
0
 10
3665.117132643576042
 20
154.4895651926522078
 30
0.0
 40
0.0300014529454477
 50
65.0342548868924268
 51
90.0329641692624847
  0
LINE
  5
EF17
  8
0
 10
3664.0673925973569567
 20
154.2943153399228038
 30
0.0
 11
3665.3253441416368332
 21
154.2946909500290076
 31
0.0
  0
LINE
  5
EF18
  8
0
 10
3664.2754870284570643
 20
154.5193153399227981
 30
0.0
 11
3665.1171153827422131
 21
154.5195666406322914
 31
0.0
  0
ARC
  5
EF19
  8
0
 10
3664.6963361889961561
 20
154.5743153399234018
 30
0.0
 40
0.2650000000382566
 50
147.3631043482986911
 51
191.9679835304451956
  0
ARC
  5
EF1A
  8
0
 10
3664.6963362289429824
 20
154.5743153393650005
 30
0.0
 40
0.26499996076304
 50
348.0662305409294959
 51
32.6388216840593799
  0
ARC
  5
EF1C
  8
0
 10
3658.72940129664903
 20
153.1530577136053921
 30
0.0
 40
0.0299999963159222
 50
256.9999997647129817
 51
270.0000013535105268
  0
ARC
  5
EF1D
  8
0
 10
3658.72940129664903
 20
153.1530577181997899
 30
0.0
 40
0.0300000009103156
 50
270.0000013535105268
 51
346.9999984863214877
  0
ARC
  5
EF1E
  8
0
 10
3657.8690304135670885
 20
153.3516881756299028
 30
0.0
 40
0.0299982352276234
 50
166.9966292262409979
 51
257.0033707644096808
  0
LINE
  5
EF1F
  8
0
 10
3658.5089379323571848
 20
153.3312174049227963
 30
0.0
 11
3658.4810440016572102
 21
153.210395516822814
 31
0.0
  0
ARC
  5
EF20
  8
0
 10
3658.4326560379649891
 20
153.2674061116960047
 30
0.0
 40
0.0747770215916757
 50
260.1436806336525933
 51
310.323061251463173
  0
LINE
  5
EF21
  8
0
 10
3658.5089379323571848
 20
153.3312174049227963
 30
0.0
 11
3658.1452837566571361
 21
153.4151735866228137
 31
0.0
  0
LINE
  5
EF22
  8
0
 10
3658.1452837566571361
 20
153.4151735866228137
 30
0.0
 11
3658.1173898259357884
 21
153.2943516986046859
 31
0.0
  0
ARC
  5
EF23
  8
0
 10
3658.1724174601558843
 20
153.3090995604731006
 30
0.0
 40
0.0569696406654466
 50
195.003158899285495
 51
251.9488585450523885
  0
LINE
  5
EF24
  8
0
 10
3664.0761576596810301
 20
154.4294678661958073
 30
0.0
 11
3665.31649837085115
 21
154.4298382179063935
 31
0.0
  0
ARC
  5
EF25
  8
0
 10
3665.2555761639378034
 20
155.3026603941628991
 30
0.0
 40
0.280631664846969
 50
162.8174473178794983
 51
199.0382369236081956
  0
ENDSEC
  0
EOF
