  0
SECTION
  2
HEADER
  9
$ACADVER
  1
AC1009
  9
$INSBASE
 10
4586.7694028698642796
 20
216.7640178028997866
 30
0.0
  9
$EXTMIN
 10
4584.349409386413754
 20
212.9939217600498012
 30
0.0
  9
$EXTMAX
 10
4589.1893963533138958
 20
224.6592687523290977
 30
0.0
  9
$LIMMIN
 10
0.0
 20
0.0
  9
$LIMMAX
 10
11.6929133858000007
 20
8.2677165353999982
  9
$ORTHOMODE
 70
     0
  9
$REGENMODE
 70
     1
  9
$FILLMODE
 70
     1
  9
$QTEXTMODE
 70
     0
  9
$MIRRTEXT
 70
     0
  9
$DRAGMODE
 70
     2
  9
$LTSCALE
 40
0.6431102362
  9
$OSMODE
 70
  4095
  9
$ATTMODE
 70
     1
  9
$TEXTSIZE
 40
0.2
  9
$TRACEWID
 40
0.05
  9
$TEXTSTYLE
  7
STANDARD
  9
$CLAYER
  8
0
  9
$CELTYPE
  6
BYLAYER
  9
$CECOLOR
 62
   256
  9
$DIMSCALE
 40
1.0
  9
$DIMASZ
 40
0.1875
  9
$DIMEXO
 40
0.0625
  9
$DIMDLI
 40
0.4443307087
  9
$DIMRND
 40
0.0
  9
$DIMDLE
 40
0.0
  9
$DIMEXE
 40
0.125
  9
$DIMTP
 40
0.01
  9
$DIMTM
 40
0.01
  9
$DIMTXT
 40
2.0
  9
$DIMCEN
 40
0.1052362205
  9
$DIMTSZ
 40
0.0
  9
$DIMTOL
 70
     1
  9
$DIMLIM
 70
     0
  9
$DIMTIH
 70
     1
  9
$DIMTOH
 70
     1
  9
$DIMSE1
 70
     0
  9
$DIMSE2
 70
     0
  9
$DIMTAD
 70
     0
  9
$DIMZIN
 70
     0
  9
$DIMBLK
  1

  9
$DIMASO
 70
     1
  9
$DIMSHO
 70
     1
  9
$DIMPOST
  1
\X
  9
$DIMAPOST
  1

  9
$DIMALT
 70
     1
  9
$DIMALTD
 70
     2
  9
$DIMALTF
 40
25.3999999999999986
  9
$DIMLFAC
 40
1.0
  9
$DIMTOFL
 70
     0
  9
$DIMTVP
 40
0.0
  9
$DIMTIX
 70
     0
  9
$DIMSOXD
 70
     0
  9
$DIMSAH
 70
     0
  9
$DIMBLK1
  1

  9
$DIMBLK2
  1

  9
$DIMSTYLE
  2
STANDARD
  9
$DIMCLRD
 70
     0
  9
$DIMCLRE
 70
     0
  9
$DIMCLRT
 70
     0
  9
$DIMTFAC
 40
1.0
  9
$DIMGAP
 40
0.09
  9
$LUNITS
 70
     2
  9
$LUPREC
 70
     4
  9
$SKETCHINC
 40
0.1
  9
$FILLETRAD
 40
0.0
  9
$AUNITS
 70
     0
  9
$AUPREC
 70
     0
  9
$MENU
  1
.
  9
$ELEVATION
 40
0.0
  9
$PELEVATION
 40
0.0
  9
$THICKNESS
 40
0.0
  9
$LIMCHECK
 70
     0
  9
$BLIPMODE
 70
     0
  9
$CHAMFERA
 40
0.0
  9
$CHAMFERB
 40
0.0
  9
$SKPOLY
 70
     0
  9
$TDCREATE
 40
2458060.468368056230247
  9
$TDUPDATE
 40
2459856.7312037041410804
  9
$TDINDWG
 40
0.3482246528
  9
$TDUSRTIMER
 40
0.3482246528
  9
$USRTIMER
 70
     1
  9
$ANGBASE
 50
0.0
  9
$ANGDIR
 70
     0
  9
$PDMODE
 70
     0
  9
$PDSIZE
 40
0.3125
  9
$PLINEWID
 40
0.0
  9
$COORDS
 70
     1
  9
$SPLFRAME
 70
     0
  9
$SPLINETYPE
 70
     6
  9
$SPLINESEGS
 70
     8
  9
$ATTDIA
 70
     1
  9
$ATTREQ
 70
     1
  9
$HANDLING
 70
     1
  9
$HANDSEED
  5
C5EB
  9
$SURFTAB1
 70
     6
  9
$SURFTAB2
 70
     6
  9
$SURFTYPE
 70
     6
  9
$SURFU
 70
     6
  9
$SURFV
 70
     6
  9
$UCSNAME
  2

  9
$UCSORG
 10
0.0
 20
0.0
 30
0.0
  9
$UCSXDIR
 10
1.0
 20
0.0
 30
0.0
  9
$UCSYDIR
 10
0.0
 20
1.0
 30
0.0
  9
$PUCSNAME
  2

  9
$PUCSORG
 10
0.0
 20
0.0
 30
0.0
  9
$PUCSXDIR
 10
1.0
 20
0.0
 30
0.0
  9
$PUCSYDIR
 10
0.0
 20
1.0
 30
0.0
  9
$USERI1
 70
     0
  9
$USERI2
 70
     0
  9
$USERI3
 70
     0
  9
$USERI4
 70
     0
  9
$USERI5
 70
     0
  9
$USERR1
 40
0.0
  9
$USERR2
 40
0.0
  9
$USERR3
 40
0.0
  9
$USERR4
 40
0.0
  9
$USERR5
 40
0.0
  9
$WORLDVIEW
 70
     1
  9
$SHADEDGE
 70
     3
  9
$SHADEDIF
 70
    70
  9
$TILEMODE
 70
     1
  9
$MAXACTVP
 70
    64
  9
$PLIMCHECK
 70
     0
  9
$PEXTMIN
 10
1.0000000000000000E+20
 20
1.0000000000000000E+20
 30
1.0000000000000000E+20
  9
$PEXTMAX
 10
-1.0000000000000000E+20
 20
-1.0000000000000000E+20
 30
-1.0000000000000000E+20
  9
$PLIMMIN
 10
0.0
 20
0.0
  9
$PLIMMAX
 10
12.0
 20
9.0
  9
$UNITMODE
 70
     0
  9
$VISRETAIN
 70
     1
  9
$PLINEGEN
 70
     0
  9
$PSLTSCALE
 70
     1
  0
ENDSEC
  0
SECTION
  2
TABLES
  0
TABLE
  2
VPORT
 70
     1
  0
VPORT
  2
*ACTIVE
 70
     0
 10
0.0
 20
0.0
 11
1.0
 21
1.0
 12
-6.036968314801106
 22
8.4466240123484972
 13
0.0
 23
0.0
 14
1.0
 24
1.0
 15
0.0
 25
0.0
 16
0.0
 26
0.0
 36
70.1442342548394606
 17
4592.81298828125
 27
208.3136978149414063
 37
0.0
 40
0.0161955066933824
 41
3.062176165803109
 42
50.0
 43
0.0
 44
0.0
 50
0.0
 51
0.0
 71
     0
 72
   100
 73
     1
 74
     1
 75
     0
 76
     0
 77
     0
 78
     0
  0
ENDTAB
  0
TABLE
  2
LTYPE
 70
     2
  0
LTYPE
  2
CONTINUOUS
 70
     0
  3
Solid line
 72
    65
 73
     0
 40
0.0
  0
LTYPE
  2
PHANTOM2
 70
     0
  3
___ _ _ ___ _ _ ___ _ _ ___ _ _
 72
    65
 73
     6
 40
1.25
 49
0.625
 49
-0.125
 49
0.125
 49
-0.125
 49
0.125
 49
-0.125
  0
ENDTAB
  0
TABLE
  2
LAYER
 70
     2
  0
LAYER
  2
0
 70
     0
 62
   255
  6
CONTINUOUS
  0
LAYER
  2
DEFPOINTS
 70
     0
 62
     7
  6
CONTINUOUS
  0
ENDTAB
  0
TABLE
  2
STYLE
 70
     1
  0
STYLE
  2
STANDARD
 70
     0
 40
0.0
 41
0.8
 50
0.0
 71
     0
 42
0.2
  3
txt
  4

  0
ENDTAB
  0
TABLE
  2
VIEW
 70
     0
  0
ENDTAB
  0
TABLE
  2
UCS
 70
     0
  0
ENDTAB
  0
TABLE
  2
APPID
 70
     9
  0
APPID
  2
ACAD
 70
     0
  0
APPID
  2
ACAD_MLEADERVER
 70
     0
  0
APPID
  2
ACAD_EXEMPT_FROM_CAD_STANDARDS
 70
     0
  0
APPID
  2
ACAD_NAV_VCDISPLAY
 70
     0
  0
APPID
  2
ACAECLAYERSTANDARD
 70
     0
  0
APPID
  2
ACCMTRANSPARENCY
 70
     0
  0
APPID
  2
ACAD_DSTYLE_DIMJAG
 70
     0
  0
APPID
  2
ACAD_DSTYLE_DIMTALN
 70
     0
  0
APPID
  2
ACDBATTR
 70
     0
  0
ENDTAB
  0
TABLE
  2
DIMSTYLE
 70
     1
  0
DIMSTYLE
  2
STANDARD
 70
     0
  3

  4

  5

  6

  7

 40
1.0
 41
0.1875
 42
0.0625
 43
0.38
 44
0.125
 45
0.0
 46
0.0
 47
0.01
 48
0.01
140
0.15625
141
0.09
142
0.0
143
25.3999999999999986
144
1.0
145
0.0
146
1.0
147
0.09
 71
     1
 72
     0
 73
     1
 74
     1
 75
     0
 76
     0
 77
     0
 78
     4
170
     0
171
     2
172
     0
173
     0
174
     0
175
     0
176
     0
177
     0
178
     0
  0
ENDTAB
  0
ENDSEC
  0
SECTION
  2
BLOCKS
  0
BLOCK
  8
0
  2
$MODEL_SPACE
 70
     0
 10
0.0
 20
0.0
 30
0.0
  3
$MODEL_SPACE
  1

  0
ENDBLK
  5
21
  8
0
  0
BLOCK
 67
     1
  8
0
  2
$PAPER_SPACE
 70
     0
 10
0.0
 20
0.0
 30
0.0
  3
$PAPER_SPACE
  1

  0
ENDBLK
  5
1D
 67
     1
  8
0
  0
BLOCK
  8
0
  2
_FILLED
 70
     0
 10
0.0
 20
0.0
 30
0.0
  3
_FILLED
  1

  0
SOLID
  5
C373
  8
0
  6
BYBLOCK
 62
     0
 10
0.0
 20
0.0
 30
0.0
 11
-1.0
 21
0.1666666667
 31
0.0
 12
-1.0
 22
-0.1666666667
 32
0.0
 13
-1.0
 23
-0.1666666667
 33
0.0
  0
ENDBLK
  5
C374
  8
0
  6
BYBLOCK
 62
     0
  0
ENDSEC
  0
SECTION
  2
ENTITIES
  0
ATTDEF
  5
3930
  8
DEFPOINTS
 10
4586.7693889579923052
 20
216.7622660602870042
 30
0.0
 40
0.001
  1
K-16268T
  3

  2
MODELNUMBER
 70
     0
1001
ACDBATTR
1070
     0
1070
     1
  0
ATTDEF
  5
3931
  8
DEFPOINTS
 10
4586.7693889579923052
 20
216.7605993936203959
 30
0.0
 40
0.001
  1
MARGAUX
  3

  2
TRADENAME
 70
     0
1001
ACDBATTR
1070
     0
1070
     1
  0
ATTDEF
  5
3932
  8
DEFPOINTS
 10
4586.7693889579923052
 20
216.7589327269537023
 30
0.0
 40
0.001
  1
SCONCE
  3

  2
PRODUCT
 70
     0
1001
ACDBATTR
1070
     0
1070
     1
  0
LINE
  5
C41C
  8
0
 10
4588.6444028698151669
 20
217.9009217600498118
 30
0.0
 11
4588.6444028698151669
 21
217.4300250547784117
 31
0.0
  0
LINE
  5
C41D
  8
0
 10
4587.6760598126002151
 20
224.6592687371827992
 30
0.0
 11
4585.8627459271301632
 21
224.6592687371827992
 31
0.0
  0
LINE
  5
C41E
  8
0
 10
4588.2388006560440772
 20
224.4088370302497992
 30
0.0
 11
4585.3000050836863011
 21
224.4088370302497992
 31
0.0
  0
LINE
  5
C41F
  8
0
 10
4588.6294028698148395
 20
217.9159217600497982
 30
0.0
 11
4584.9094028699146293
 21
217.9159217600497982
 31
0.0
  0
LINE
  5
C420
  8
0
 10
4588.6310194613370186
 20
217.4159217600497982
 30
0.0
 11
4584.9077862783933597
 21
217.4159217600497982
 31
0.0
  0
ARC
  5
C421
  8
0
 10
4588.6294028698148395
 20
217.9009217600498118
 30
0.0
 40
0.0150000000000006
 50
359.9999999999935199
 51
90.0
  0
ARC
  5
C422
  8
0
 10
4586.7694028698151669
 20
220.8173357021497907
 30
0.0
 40
6.4834619314000239
 50
272.4530022170159214
 51
288.1209069416775037
  0
ARC
  5
C423
  8
0
 10
4588.7485874640997281
 20
214.7694868205911973
 30
0.0
 40
0.1199999999963785
 50
288.1209069416775037
 51
341.7177610176678968
  0
ARC
  5
C424
  8
0
 10
4586.7694012704350826
 20
220.8173500435472079
 30
0.0
 40
6.0104219573362059
 50
272.736193853712507
 51
285.7980100475219842
  0
ARC
  5
C425
  8
0
 10
4588.3743882906355793
 20
215.144694170438612
 30
0.0
 40
0.1150841392187235
 50
285.7980100475219842
 51
344.0488374048338187
  0
ARC
  5
C426
  8
0
 10
4586.7693355187893758
 20
220.8180631884754064
 30
0.0
 40
5.0968370102983034
 50
273.428354857289321
 51
280.4475643052588794
  0
ARC
  5
C427
  8
0
 10
4587.6749992840095729
 20
215.8459363789488066
 30
0.0
 40
0.0442937581744529
 50
294.7930397236842168
 51
335.0509347718650019
  0
ARC
  5
C428
  8
0
 10
4586.7694028698151669
 20
212.7106999036498109
 30
0.0
 40
6.4834619314000239
 50
71.8790930583224963
 51
79.0986493026635031
  0
ARC
  5
C429
  8
0
 10
4588.7485874640997281
 20
218.7585487852084896
 30
0.0
 40
0.1199999999963785
 50
18.2822389823320783
 51
71.8790930583224963
  0
ARC
  5
C42A
  8
0
 10
4586.7694012704350826
 20
212.7106855622523938
 30
0.0
 40
6.0104219573362059
 50
74.2019899524779305
 51
78.483380124139984
  0
ARC
  5
C42B
  8
0
 10
4588.3743882906355793
 20
218.3833414353609896
 30
0.0
 40
0.1150841392187235
 50
15.9511625951662097
 51
74.2019899524779305
  0
ARC
  5
C42C
  8
0
 10
4582.7087992695778667
 20
216.7640178028997866
 30
0.0
 40
6.4805970837359448
 50
341.724990300690024
 51
18.2750096993099511
  0
ARC
  5
C42D
  8
0
 10
4582.7087108698951852
 20
216.7640178028997866
 30
0.0
 40
6.0076310980876499
 50
344.0493706433912848
 51
8.8757043405085927
  0
ARC
  5
C42E
  8
0
 10
4582.7087108698951852
 20
216.7640178028997866
 30
0.0
 40
6.0076310980876499
 50
11.0543535379561693
 51
15.9506293566087294
  0
ARC
  5
C42F
  8
0
 10
4588.5894383257145819
 20
218.5180526535498018
 30
0.0
 40
0.6237168759999979
 50
177.9500228990478092
 51
254.8821391101176914
  0
LINE
  5
C430
  8
0
 10
4587.9661206252567354
 20
218.540363765216199
 30
0.0
 11
4588.2834549948138374
 21
224.3293972050518903
 31
0.0
  0
ARC
  5
C431
  8
0
 10
4588.1819375301738546
 20
224.3246030434706029
 30
0.0
 40
0.1016306037200354
 50
2.7037840010803449
 51
61.1958904358090265
  0
ARC
  5
C432
  8
0
 10
4587.1881490916148323
 20
222.8075360459498029
 30
0.0
 40
1.9149336363000351
 50
57.0068447236392402
 51
75.2387118587148933
  0
ARC
  5
C433
  8
0
 10
4582.7084500025803209
 20
216.7640178028997866
 30
0.0
 40
5.0935911381400318
 50
349.402379045519524
 51
7.3531765327415366
  0
LINE
  5
C434
  8
0
 10
4587.0544028077183611
 20
217.4159217600497982
 30
0.0
 11
4587.0544031608160367
 21
217.1354375695497936
 31
0.0
  0
ARC
  5
C435
  8
0
 10
4587.1144004262641829
 20
217.1354376450792927
 30
0.0
 40
0.0599972654491192
 50
180.0000721286390046
 51
224.5272437330764035
  0
ARC
  5
C436
  8
0
 10
4586.7694028698642796
 20
216.7640178028997866
 30
0.0
 40
0.4469999896320705
 50
318.0863856744243208
 51
47.4590153675683979
  0
ARC
  5
C437
  8
0
 10
4586.9900626517101045
 20
213.0304260292276126
 30
0.0
 40
0.0299891565559243
 50
273.3742240616670074
 51
358.8005947734279744
  0
ARC
  5
C438
  8
0
 10
3102.500656591204006
 20
244.11062938819191
 30
0.0
 40
1484.8447169077019225
 50
358.8005947734279744
 51
358.9317115556181079
  0
ARC
  5
C439
  8
0
 10
4587.1473789316332841
 20
216.4259593018186081
 30
0.0
 40
0.0601053330936981
 50
138.96757957752979
 51
178.9317115556181079
  0
ARC
  5
C43A
  8
0
 10
4588.629190278783426
 20
217.4310593554662034
 30
0.0
 40
0.0152477114283854
 50
276.8900480098625962
 51
356.1104585755721814
  0
LINE
  5
C43B
  8
0
 10
4584.8944028699152113
 20
217.9009217600498118
 30
0.0
 11
4584.8944028699152113
 21
217.4300250547784117
 31
0.0
  0
ARC
  5
C43C
  8
0
 10
4584.9094028699146293
 20
217.9009217600498118
 30
0.0
 40
0.0150000000000006
 50
90.0
 51
180.0000000000065086
  0
ARC
  5
C43D
  8
0
 10
4586.7694028699152113
 20
220.8173357021497907
 30
0.0
 40
6.4834619314000239
 50
251.8790930583224963
 51
267.5469977829840786
  0
ARC
  5
C43E
  8
0
 10
4584.7902182756306502
 20
214.7694868205911973
 30
0.0
 40
0.1199999999963785
 50
198.2822389823319895
 51
251.8790930583224963
  0
ARC
  5
C43F
  8
0
 10
4586.7694044692952957
 20
220.8173500435472079
 30
0.0
 40
6.0104219573362059
 50
254.2019899524779021
 51
267.263806146287493
  0
ARC
  5
C440
  8
0
 10
4585.1644174490947989
 20
215.144694170438612
 30
0.0
 40
0.1150841392187235
 50
195.9511625951662097
 51
254.2019899524779021
  0
ARC
  5
C441
  8
0
 10
4586.769470220941912
 20
220.8180631884754064
 30
0.0
 40
5.0968370102983034
 50
259.5524356947411206
 51
266.571645142710679
  0
ARC
  5
C442
  8
0
 10
4585.8638064557189864
 20
215.8459363789488066
 30
0.0
 40
0.0442937581744529
 50
204.9490652281349128
 51
245.2069602763156979
  0
ARC
  5
C443
  8
0
 10
4586.7694028699152113
 20
212.7106999036498109
 30
0.0
 40
6.4834619314000239
 50
100.9013506973364969
 51
108.1209069416775037
  0
ARC
  5
C444
  8
0
 10
4584.7902182756306502
 20
218.7585487852084896
 30
0.0
 40
0.1199999999963785
 50
108.1209069416775037
 51
161.7177610176678968
  0
ARC
  5
C445
  8
0
 10
4586.7694044692952957
 20
212.7106855622523938
 30
0.0
 40
6.0104219573362059
 50
101.5166198758600018
 51
105.7980100475220979
  0
ARC
  5
C446
  8
0
 10
4585.1644174490947989
 20
218.3833414353609896
 30
0.0
 40
0.1150841392187235
 50
105.7980100475220979
 51
164.0488374048337903
  0
ARC
  5
C447
  8
0
 10
4590.8300064701506926
 20
216.7640178028997866
 30
0.0
 40
6.4805970837359448
 50
161.7249903006899956
 51
198.2750096993098907
  0
ARC
  5
C448
  8
0
 10
4590.8300948698351931
 20
216.7640178028997866
 30
0.0
 40
6.0076310980876499
 50
171.1242956594913949
 51
195.9506293566086867
  0
ARC
  5
C449
  8
0
 10
4590.8300948698351931
 20
216.7640178028997866
 30
0.0
 40
6.0076310980876499
 50
164.0493706433913133
 51
168.9456464620438112
  0
ARC
  5
C44A
  8
0
 10
4584.9493674140139774
 20
218.5180526535498018
 30
0.0
 40
0.6237168759999979
 50
285.1178608898823086
 51
2.049977100952201
  0
LINE
  5
C44B
  8
0
 10
4585.5726851144727334
 20
218.540363765216199
 30
0.0
 11
4585.2553507449147219
 21
224.3293972050518903
 31
0.0
  0
ARC
  5
C44C
  8
0
 10
4585.3568682095556142
 20
224.3246030434706029
 30
0.0
 40
0.1016306037200354
 50
118.8041095641908953
 51
177.2962159989195925
  0
ARC
  5
C44D
  8
0
 10
4586.3506566481146365
 20
222.8075360459498029
 30
0.0
 40
1.9149336363000351
 50
104.7612881412851067
 51
122.9931552763606959
  0
ARC
  5
C44E
  8
0
 10
4590.8303557371500574
 20
216.7640178028997866
 30
0.0
 40
5.0935911381400318
 50
172.646823467258514
 51
190.5976209544805045
  0
LINE
  5
C44F
  8
0
 10
4586.4844029320111076
 20
217.4159217600497982
 30
0.0
 11
4586.4844025789152511
 21
217.1354375695497936
 31
0.0
  0
ARC
  5
C450
  8
0
 10
4586.4244053134661954
 20
217.1354376450792927
 30
0.0
 40
0.0599972654491192
 50
315.4727562669236249
 51
359.9999278713610238
  0
ARC
  5
C451
  8
0
 10
4586.7694028698642796
 20
216.7640178028997866
 30
0.0
 40
0.4469999896320705
 50
132.5409846324315879
 51
221.913614325575594
  0
ARC
  5
C452
  8
0
 10
4586.5487430880193642
 20
213.0304260292276126
 30
0.0
 40
0.0299891565559243
 50
181.1994052265719972
 51
266.6257759383329926
  0
ARC
  5
C453
  8
0
 10
6071.0381491485259176
 20
244.11062938819191
 30
0.0
 40
1484.8447169077019225
 50
181.0682884443818921
 51
181.1994052265719972
  0
ARC
  5
C454
  8
0
 10
4586.3914268080970942
 20
216.4259593018186081
 30
0.0
 40
0.0601053330936981
 50
1.068288444381899
 51
41.032420422470139
  0
ARC
  5
C455
  8
0
 10
4584.9096154609460427
 20
217.4310593554662034
 30
0.0
 40
0.0152477114283854
 50
183.8895414244277049
 51
263.1099519901374038
  0
LINE
  5
C456
  8
0
 10
4586.4506576372714335
 20
217.0774032962295905
 30
0.0
 11
4587.0912847210847758
 21
216.44754843356111
 31
0.0
  0
LINE
  5
C457
  8
0
 10
4587.0881481024580353
 20
217.0774032962295905
 30
0.0
 11
4586.447521018642874
 21
216.44754843356111
 31
0.0
  0
ARC
  5
C458
  8
0
 10
4586.7694028698642796
 20
216.7639217635671969
 30
0.0
 40
3.7700000035174059
 50
266.6176629284973956
 51
273.3823370715024907
  0
LINE
  5
C459
  8
0
 10
4587.7062770265256404
 20
215.8145733459911924
 30
0.0
 11
4588.8333207305549877
 21
214.684514627757693
 31
0.0
  0
LINE
  5
C45A
  8
0
 10
4588.1103797708092316
 20
218.118646040710388
 30
0.0
 11
4588.8333207305549877
 21
218.8435209780419086
 31
0.0
  0
LINE
  5
C45B
  8
0
 10
4585.8325287132029189
 20
215.8145733459911924
 30
0.0
 11
4584.7054850091753906
 21
214.684514627757693
 31
0.0
  0
LINE
  5
C45C
  8
0
 10
4585.4284259689193277
 20
218.118646040710388
 30
0.0
 11
4584.7054850091753906
 21
218.8435209780419086
 31
0.0
  0
ENDSEC
  0
EOF
