  0
SECTION
  2
HEADER
  9
$ACADVER
  1
AC1009
  9
$INSBASE
 10
254.5427441504145065
 20
26.2646690304960693
 30
0.0
  9
$EXTMIN
 10
250.884727314549707
 20
26.2584413998507387
 30
-0.0000000000000058
  9
$EXTMAX
 10
255.5442431793510139
 20
30.8093466341762507
 30
0.0000000000000104
  9
$LIMMIN
 10
0.0
 20
0.0
  9
$LIMMAX
 10
11.6929133858000007
 20
8.2677165353999982
  9
$ORTHOMODE
 70
     0
  9
$REGENMODE
 70
     1
  9
$FILLMODE
 70
     1
  9
$QTEXTMODE
 70
     0
  9
$MIRRTEXT
 70
     0
  9
$DRAGMODE
 70
     2
  9
$LTSCALE
 40
0.6431102362
  9
$OSMODE
 70
  3839
  9
$ATTMODE
 70
     1
  9
$TEXTSIZE
 40
0.2
  9
$TRACEWID
 40
0.05
  9
$TEXTSTYLE
  7
STANDARD
  9
$CLAYER
  8
0
  9
$CELTYPE
  6
BYLAYER
  9
$CECOLOR
 62
   256
  9
$DIMSCALE
 40
1.0
  9
$DIMASZ
 40
0.1875
  9
$DIMEXO
 40
0.0625
  9
$DIMDLI
 40
0.4443307087
  9
$DIMRND
 40
0.0
  9
$DIMDLE
 40
0.0
  9
$DIMEXE
 40
0.125
  9
$DIMTP
 40
0.01
  9
$DIMTM
 40
0.01
  9
$DIMTXT
 40
1.0
  9
$DIMCEN
 40
0.1052362205
  9
$DIMTSZ
 40
0.0
  9
$DIMTOL
 70
     1
  9
$DIMLIM
 70
     0
  9
$DIMTIH
 70
     0
  9
$DIMTOH
 70
     1
  9
$DIMSE1
 70
     0
  9
$DIMSE2
 70
     0
  9
$DIMTAD
 70
     0
  9
$DIMZIN
 70
     0
  9
$DIMBLK
  1

  9
$DIMASO
 70
     1
  9
$DIMSHO
 70
     1
  9
$DIMPOST
  1
\X
  9
$DIMAPOST
  1

  9
$DIMALT
 70
     1
  9
$DIMALTD
 70
     2
  9
$DIMALTF
 40
25.3999999999999986
  9
$DIMLFAC
 40
1.0
  9
$DIMTOFL
 70
     0
  9
$DIMTVP
 40
0.0
  9
$DIMTIX
 70
     0
  9
$DIMSOXD
 70
     0
  9
$DIMSAH
 70
     0
  9
$DIMBLK1
  1

  9
$DIMBLK2
  1

  9
$DIMSTYLE
  2
STANDARD
  9
$DIMCLRD
 70
     0
  9
$DIMCLRE
 70
     0
  9
$DIMCLRT
 70
     0
  9
$DIMTFAC
 40
1.0
  9
$DIMGAP
 40
0.09
  9
$LUNITS
 70
     2
  9
$LUPREC
 70
     4
  9
$SKETCHINC
 40
0.1
  9
$FILLETRAD
 40
0.0
  9
$AUNITS
 70
     0
  9
$AUPREC
 70
     0
  9
$MENU
  1
.
  9
$ELEVATION
 40
0.0
  9
$PELEVATION
 40
0.0
  9
$THICKNESS
 40
0.0
  9
$LIMCHECK
 70
     0
  9
$BLIPMODE
 70
     0
  9
$CHAMFERA
 40
0.0
  9
$CHAMFERB
 40
0.0
  9
$SKPOLY
 70
     0
  9
$TDCREATE
 40
2458172.5207638889551163
  9
$TDUPDATE
 40
2459192.4616087968461215
  9
$TDINDWG
 40
0.1837494792
  9
$TDUSRTIMER
 40
0.1837494792
  9
$USRTIMER
 70
     1
  9
$ANGBASE
 50
0.0
  9
$ANGDIR
 70
     0
  9
$PDMODE
 70
     0
  9
$PDSIZE
 40
0.3125
  9
$PLINEWID
 40
0.0
  9
$COORDS
 70
     1
  9
$SPLFRAME
 70
     0
  9
$SPLINETYPE
 70
     6
  9
$SPLINESEGS
 70
     8
  9
$ATTDIA
 70
     1
  9
$ATTREQ
 70
     1
  9
$HANDLING
 70
     1
  9
$HANDSEED
  5
3D48
  9
$SURFTAB1
 70
     6
  9
$SURFTAB2
 70
     6
  9
$SURFTYPE
 70
     6
  9
$SURFU
 70
     6
  9
$SURFV
 70
     6
  9
$UCSNAME
  2

  9
$UCSORG
 10
0.0
 20
0.0
 30
0.0
  9
$UCSXDIR
 10
1.0
 20
0.0
 30
0.0
  9
$UCSYDIR
 10
0.0
 20
1.0
 30
0.0
  9
$PUCSNAME
  2

  9
$PUCSORG
 10
0.0
 20
0.0
 30
0.0
  9
$PUCSXDIR
 10
1.0
 20
0.0
 30
0.0
  9
$PUCSYDIR
 10
0.0
 20
1.0
 30
0.0
  9
$USERI1
 70
     0
  9
$USERI2
 70
     0
  9
$USERI3
 70
     0
  9
$USERI4
 70
     0
  9
$USERI5
 70
     0
  9
$USERR1
 40
0.0
  9
$USERR2
 40
0.0
  9
$USERR3
 40
0.0
  9
$USERR4
 40
0.0
  9
$USERR5
 40
0.0
  9
$WORLDVIEW
 70
     1
  9
$SHADEDGE
 70
     3
  9
$SHADEDIF
 70
    70
  9
$TILEMODE
 70
     1
  9
$MAXACTVP
 70
    64
  9
$PLIMCHECK
 70
     0
  9
$PEXTMIN
 10
1.0000000000000000E+20
 20
1.0000000000000000E+20
 30
1.0000000000000000E+20
  9
$PEXTMAX
 10
-1.0000000000000000E+20
 20
-1.0000000000000000E+20
 30
-1.0000000000000000E+20
  9
$PLIMMIN
 10
0.0
 20
0.0
  9
$PLIMMAX
 10
12.0
 20
9.0
  9
$UNITMODE
 70
     0
  9
$VISRETAIN
 70
     1
  9
$PLINEGEN
 70
     0
  9
$PSLTSCALE
 70
     1
  0
ENDSEC
  0
SECTION
  2
TABLES
  0
TABLE
  2
VPORT
 70
     1
  0
VPORT
  2
*ACTIVE
 70
     0
 10
0.0
 20
0.0
 11
1.0
 21
1.0
 12
-12.2421465152026503
 22
2.4028605068969839
 13
0.0
 23
0.0
 14
1.0
 24
1.0
 15
0.0
 25
0.0
 16
0.0
 26
0.0
 36
0.0353741150031495
 17
265.4566317621529947
 27
26.1310335101165094
 37
0.0
 40
4.6012842590597423
 41
3.1182994454713491
 42
50.0
 43
0.0
 44
0.0
 50
0.0
 51
0.0
 71
     0
 72
   100
 73
     1
 74
     1
 75
     0
 76
     0
 77
     0
 78
     0
  0
ENDTAB
  0
TABLE
  2
LTYPE
 70
     2
  0
LTYPE
  2
CONTINUOUS
 70
     0
  3
Solid line
 72
    65
 73
     0
 40
0.0
  0
LTYPE
  2
PHANTOM2
 70
     0
  3
___ _ _ ___ _ _ ___ _ _ ___ _ _
 72
    65
 73
     6
 40
1.25
 49
0.625
 49
-0.125
 49
0.125
 49
-0.125
 49
0.125
 49
-0.125
  0
ENDTAB
  0
TABLE
  2
LAYER
 70
     2
  0
LAYER
  2
0
 70
     0
 62
   255
  6
CONTINUOUS
  0
LAYER
  2
DEFPOINTS
 70
     0
 62
     7
  6
CONTINUOUS
  0
ENDTAB
  0
TABLE
  2
STYLE
 70
     1
  0
STYLE
  2
STANDARD
 70
     0
 40
0.0
 41
0.8
 50
0.0
 71
     0
 42
0.2
  3
txt
  4

  0
ENDTAB
  0
TABLE
  2
VIEW
 70
     0
  0
ENDTAB
  0
TABLE
  2
UCS
 70
     0
  0
ENDTAB
  0
TABLE
  2
APPID
 70
    10
  0
APPID
  2
ACAD
 70
     0
  0
APPID
  2
ACAD_MLEADERVER
 70
     0
  0
APPID
  2
ACAD_EXEMPT_FROM_CAD_STANDARDS
 70
     0
  0
APPID
  2
ACAD_DSTYLE_DIMJAG
 70
     0
  0
APPID
  2
ACAD_DSTYLE_DIMTALN
 70
     0
  0
APPID
  2
ACAD_NAV_VCDISPLAY
 70
     0
  0
APPID
  2
ACAECLAYERSTANDARD
 70
     0
  0
APPID
  2
ACCMTRANSPARENCY
 70
     0
  0
APPID
  2
DCO15
 70
     0
  0
APPID
  2
ACDBATTR
 70
     0
  0
ENDTAB
  0
TABLE
  2
DIMSTYLE
 70
     1
  0
DIMSTYLE
  2
STANDARD
 70
     0
  3

  4

  5

  6

  7

 40
1.0
 41
0.1875
 42
0.0625
 43
0.38
 44
0.125
 45
0.0
 46
0.0
 47
0.01
 48
0.01
140
0.15625
141
0.09
142
0.0
143
25.3999999999999986
144
1.0
145
0.0
146
1.0
147
0.09
 71
     1
 72
     0
 73
     1
 74
     1
 75
     0
 76
     0
 77
     0
 78
     4
170
     0
171
     2
172
     0
173
     0
174
     0
175
     0
176
     0
177
     0
178
     0
  0
ENDTAB
  0
ENDSEC
  0
SECTION
  2
BLOCKS
  0
BLOCK
  8
0
  2
$MODEL_SPACE
 70
     0
 10
0.0
 20
0.0
 30
0.0
  3
$MODEL_SPACE
  1

  0
ENDBLK
  5
21
  8
0
  0
BLOCK
 67
     1
  8
0
  2
$PAPER_SPACE
 70
     0
 10
0.0
 20
0.0
 30
0.0
  3
$PAPER_SPACE
  1

  0
ENDBLK
  5
1D
 67
     1
  8
0
  0
BLOCK
  8
0
  2
_FILLED
 70
     0
 10
0.0
 20
0.0
 30
0.0
  3
_FILLED
  1

  0
SOLID
  5
2836
  8
0
  6
BYBLOCK
 62
     0
 10
0.0
 20
0.0
 30
0.0
 11
-1.0
 21
0.1666666667
 31
0.0
 12
-1.0
 22
-0.1666666667
 32
0.0
 13
-1.0
 23
-0.1666666667
 33
0.0
  0
ENDBLK
  5
2837
  8
0
  6
BYBLOCK
 62
     0
  0
ENDSEC
  0
SECTION
  2
ENTITIES
  0
ATTDEF
  5
829
  8
DEFPOINTS
 10
254.5317772650795121
 20
26.2630547016174098
 30
0.0
 40
0.001
  1
K-16312IN-4
  3

  2
MODELNUMBER
 70
     0
1001
ACDBATTR
1070
     0
1070
     1
  0
ATTDEF
  5
82A
  8
DEFPOINTS
 10
254.5317772650795121
 20
26.2613880349507482
 30
0.0
 40
0.001
  1
JULY
  3

  2
TRADENAME
 70
     0
1001
ACDBATTR
1070
     0
1070
     1
  0
ATTDEF
  5
82B
  8
DEFPOINTS
 10
254.5317772650795121
 20
26.2597213682840902
 30
0.0
 40
0.001
  1
BATHROOM SINK FAUCET
  3

  2
PRODUCT
 70
     0
1001
ACDBATTR
1070
     0
1070
     1
  0
LINE
  5
3B3E
  8
0
 10
255.1337494292835117
 20
30.7573569830369884
 30
0.0
 11
251.916475953863511
 21
30.7573569830369884
 31
0.0
  0
LINE
  5
3B3F
  8
0
 10
250.928182850710499
 20
29.3396393566998412
 30
0.0
 11
253.4909757629694127
 21
29.3396393566998412
 31
0.0
  0
LINE
  5
3B40
  8
0
 10
253.9342521676435922
 20
29.3749052509960684
 30
0.0
 11
255.1589408911854946
 21
29.3749052509960684
 31
0.0
  0
LINE
  5
3B41
  8
0
 10
254.597242736122098
 20
30.8086280471186313
 30
0.0
 11
252.3662955929042937
 21
30.8086280471186313
 31
0.0
  0
LINE
  5
3B42
  8
0
 10
255.1726654102145915
 20
29.2964256432756116
 30
0.0
 11
255.1726654102145915
 21
26.3827792666960583
 31
0.0
  0
LINE
  5
3B43
  8
0
 10
253.9128214346739014
 20
27.9162530743185684
 30
0.0
 11
253.9128214346739014
 21
26.3827792666960583
 31
0.0
  0
LINE
  5
3B44
  8
0
 10
251.8859750035198886
 20
28.548126975902079
 30
0.0
 11
253.2635066927383889
 21
28.548126975902079
 31
0.0
  0
LINE
  5
3B45
  8
0
 10
251.879338239622399
 20
28.5487417351763213
 30
0.0
 11
251.8008845049824913
 21
28.2941316433636914
 31
0.0
  0
LINE
  5
3B46
  8
0
 10
251.8008845049824913
 20
28.2941316433636914
 30
0.0
 11
251.7485472345144899
 21
28.2820264891960704
 31
0.0
  0
LINE
  5
3B47
  8
0
 10
251.7485472345144899
 20
28.2820264891960704
 30
0.0
 11
250.9393850911145876
 21
28.5305113112960704
 31
0.0
  0
LINE
  5
3B48
  8
0
 10
250.9393850911145876
 20
28.5305113112960704
 30
0.0
 11
250.9026943075718066
 21
28.5699558293643108
 31
0.0
  0
LINE
  5
3B49
  8
0
 10
250.9026943075718066
 20
28.5699558293643108
 30
0.0
 11
250.948278887208204
 21
28.7183978444603305
 31
0.0
  0
ARC
  5
3B4A
  8
0
 10
251.5898516487692973
 20
28.9515822224795016
 30
0.0
 40
0.6922030221069928
 50
180.4079757309631873
 51
199.588277716752998
  0
ARC
  5
3B4B
  8
0
 10
258.5938868957913996
 20
29.2377902895646393
 30
0.0
 40
7.7017253954839093
 50
179.534081901967312
 51
182.1663832926903126
  0
ARC
  5
3B4C
  8
0
 10
250.9313416183885863
 20
29.3008399686821797
 30
0.0
 40
0.0389277577544423
 50
94.6543461465225846
 51
180.6203101810266958
  0
ARC
  5
3B4D
  8
0
 10
251.8047659281322126
 20
18.5725015305458783
 30
0.0
 40
10.8027614459922798
 50
91.4685969782584465
 51
94.6543461465225846
  0
LINE
  5
3B4E
  8
0
 10
251.5279014570847949
 20
29.3717145075960602
 30
0.0
 11
253.5074116007752991
 21
29.3717145075960708
 31
0.0
  0
ARC
  5
3B4F
  8
0
 10
250.4113390048260896
 20
23.6890355567336606
 30
0.0
 40
5.0579432043568664
 50
77.28320410754894
 51
84.026526119531681
  0
ARC
  5
3B50
  8
0
 10
249.8230096293951021
 20
21.0819759102985387
 30
0.0
 40
7.7305620425126964
 50
75.8116945578409371
 51
77.28320410754894
  0
ARC
  5
3B51
  8
0
 10
251.9820928152039983
 20
29.6219188358243812
 30
0.0
 40
1.0780851506992959
 50
255.8116945578408945
 51
264.8849429661339059
  0
ARC
  5
3B52
  8
0
 10
251.0088623992145926
 20
28.5153535895960708
 30
0.0
 40
0.0157480314999983
 50
185.3252021633246045
 51
252.9288519355081064
  0
LINE
  5
3B53
  8
0
 10
251.0042394230302989
 20
28.5002994012311994
 30
0.0
 11
251.6779143521370088
 21
28.2934212170530408
 31
0.0
  0
ARC
  5
3B54
  8
0
 10
251.68253732832531
 20
28.3084754054310004
 30
0.0
 40
0.0157480315137059
 50
252.9288519355114886
 51
320.9034034814873166
  0
LINE
  5
3B55
  8
0
 10
251.8008845049824913
 20
28.2941316433636914
 30
0.0
 11
251.5284535635144891
 21
28.3780765672960591
 31
0.0
  0
LINE
  5
3B56
  8
0
 10
251.5284535635144891
 20
28.3780765672960591
 30
0.0
 11
251.564464690914491
 21
28.49534264709607
 31
0.0
  0
LINE
  5
3B57
  8
0
 10
251.564464690914491
 20
28.49534264709607
 30
0.0
 11
251.211464036170014
 21
28.6037452777176107
 31
0.0
  0
LINE
  5
3B58
  8
0
 10
251.211464036170014
 20
28.6037452777176107
 30
0.0
 11
251.1755647650111882
 21
28.4864449648127511
 31
0.0
  0
LINE
  5
3B59
  8
0
 10
251.1755647650111882
 20
28.4864449648127511
 30
0.0
 11
250.9026943075718066
 21
28.5699558293643108
 31
0.0
  0
ARC
  5
3B5A
  8
0
 10
251.568571646834414
 20
29.1374707352596189
 30
0.0
 40
0.760453130012836
 50
238.881740427932499
 51
266.9759287934630834
  0
LINE
  5
3B5B
  8
0
 10
252.2470997517494027
 20
30.5527297052476499
 30
0.0
 11
253.5538565282951993
 21
30.5527297052476499
 31
0.0
  0
LINE
  5
3B5C
  8
0
 10
255.1764991183146094
 20
29.3945902902967902
 30
0.0
 11
255.1764991183146094
 21
30.1037839957744495
 31
0.0
  0
LINE
  5
3B5D
  8
0
 10
255.1764991183146094
 20
30.4567363110710509
 30
0.0
 11
255.1764991183146094
 21
30.7167676262960008
 31
0.0
  0
LINE
  5
3B5E
  8
0
 10
253.9128214346739014
 20
29.3355351721960709
 30
0.0
 11
255.1348720895672102
 21
29.3355351721960709
 31
0.0
  0
ARC
  5
3B5F
  8
0
 10
255.1332343682267947
 20
29.2961370986512009
 30
0.0
 40
0.0394320977153799
 50
0.4192659706587173
 51
87.6196671215386971
  0
ARC
  5
3B60
  8
0
 10
255.1564952437421994
 20
29.3947597853665492
 30
0.0
 40
0.0200045926348489
 50
277.0222224825157014
 51
359.5145380582209782
  0
ARC
  5
3B61
  8
0
 10
255.7807979186486875
 20
30.2802601534227485
 30
0.0
 40
0.629540208647226
 50
163.7203690079145986
 51
196.2796309920854014
  0
ARC
  5
3B62
  8
0
 10
255.0187724689145909
 20
30.2804170619960686
 30
0.0
 40
0.1892224408999929
 50
319.7574395477768121
 51
40.2189649177266091
  0
ARC
  5
3B63
  8
0
 10
255.1321997203417027
 20
30.7129176123095604
 30
0.0
 40
0.044466383577417
 50
4.9670352851344406
 51
88.002766155394994
  0
ARC
  5
3B64
  8
0
 10
254.5385728382275943
 20
27.3620276501449986
 30
0.0
 40
3.447099716187179
 50
80.0574807897707359
 51
89.0247744108205978
  0
ARC
  5
3B65
  8
0
 10
255.0762087173146142
 20
29.343409187996059
 30
0.0
 40
0.007874015699997
 50
270.0000032085656017
 51
0.0000000000193378
  0
LINE
  5
3B66
  8
0
 10
255.0840827330146112
 20
29.343409187996059
 30
0.0
 11
255.0840827330146112
 21
29.3749052509960684
 31
0.0
  0
LINE
  5
3B67
  8
0
 10
253.9166939405145058
 20
29.3945902902967902
 30
0.0
 11
253.9166939405145058
 21
30.1375062772052793
 31
0.0
  0
ARC
  5
3B68
  8
0
 10
253.9366978150868874
 20
29.3947597853665492
 30
0.0
 40
0.0200045926348489
 50
180.4854619417789081
 51
262.9777775174842986
  0
ARC
  5
3B69
  8
0
 10
254.0092795835145125
 20
29.343409187996059
 30
0.0
 40
0.007874015699997
 50
179.9999999999807017
 51
269.999996791434512
  0
LINE
  5
3B6A
  8
0
 10
254.0014055678144871
 20
29.343409187996059
 30
0.0
 11
254.0014055678146008
 21
29.3749052509960684
 31
0.0
  0
ARC
  5
3B6B
  8
0
 10
253.4689932320092964
 20
28.5451759683394215
 30
0.0
 40
0.8274309203402673
 50
78.3201418759515633
 51
87.3387481591495316
  0
ARC
  5
3B6C
  8
0
 10
253.9688967857046009
 20
32.0372845275273832
 30
0.0
 40
2.7023312202663878
 50
262.9345309702865165
 51
268.8109852917698959
  0
ARC
  5
3B6D
  8
0
 10
253.4553069626539923
 20
3.9918421352468658
 30
0.0
 40
25.3478223175722697
 50
88.9657860340100939
 51
89.9193748335770664
  0
ARC
  5
3B6E
  8
0
 10
252.2566706640650125
 20
31.3803606613813209
 30
0.0
 40
0.8276862943853091
 50
250.5647136322897097
 51
269.3374481285508182
  0
ARC
  5
3B6F
  8
0
 10
252.0361143503311041
 20
30.7428258388386197
 30
0.0
 40
0.1531473266045464
 50
191.9316020052123122
 51
249.0134013452488944
  0
ARC
  5
3B70
  8
0
 10
251.9248535406171925
 20
30.7189111020427283
 30
0.0
 40
0.0393480587226576
 50
102.2929278569392011
 51
191.3555889271592036
  0
ARC
  5
3B71
  8
0
 10
252.3941868622486027
 20
28.5650768821745586
 30
0.0
 40
2.243724526903319
 50
90.712250170987005
 51
102.2929278569392011
  0
ARC
  5
3B72
  8
0
 10
253.2447605396380084
 20
30.1645474529132009
 30
0.0
 40
0.6724773010274566
 50
357.6954417973383897
 51
19.8730029992860686
  0
ARC
  5
3B73
  8
0
 10
253.6366248860848032
 20
30.271278538000459
 30
0.0
 40
0.2696736102428537
 50
26.8663575240263413
 51
75.3060655423350056
  0
ARC
  5
3B74
  8
0
 10
253.5432424414605919
 20
29.9097700946870013
 30
0.0
 40
0.6430472141698709
 50
75.4281586648000086
 51
89.0542374132671171
  0
ARC
  5
3B75
  8
0
 10
253.2064363291646885
 20
27.8399259280772391
 30
0.0
 40
0.7104968335880432
 50
6.1670634259922146
 51
85.3927768487790644
  0
LINE
  5
3B76
  8
0
 10
253.5584921819144881
 20
26.2646690304960586
 30
0.0
 11
255.5269961189146102
 21
26.2646690304960586
 31
0.0
  0
LINE
  5
3B77
  8
0
 10
255.5269961189146102
 20
26.3438366859490998
 30
0.0
 11
255.5269961189146102
 21
26.2646690304960586
 31
0.0
  0
LINE
  5
3B78
  8
0
 10
255.4892804067123109
 20
26.3827792666960583
 30
0.0
 11
253.5962078941167022
 21
26.3827792666960583
 31
0.0
  0
ARC
  5
3B79
  8
0
 10
255.4875633170084086
 20
26.3433812349594483
 30
0.0
 40
0.0394354320601446
 50
0.6617399198942314
 51
87.5044496440266641
  0
LINE
  5
3B7A
  8
0
 10
253.5584921819144881
 20
26.3438366859490998
 30
0.0
 11
253.5584921819144881
 21
26.2646690304960586
 31
0.0
  0
ARC
  5
3B7B
  8
0
 10
253.5979249838206897
 20
26.3433812349594483
 30
0.0
 40
0.0394354320601446
 50
92.4955503559733501
 51
179.3382600801058118
  0
ENDSEC
  0
EOF
