  0
SECTION
  2
HEADER
  9
$ACADVER
  1
AC1009
  9
$INSBASE
 10
4258.8390938464090141
 20
215.1374317280908031
 30
0.0
  9
$EXTMIN
 10
4256.6146843969581823
 20
211.8697151922158071
 30
0.0
  9
$EXTMAX
 10
4261.0635032958589363
 20
218.4051482639657991
 30
0.0
  9
$LIMMIN
 10
0.0
 20
0.0
  9
$LIMMAX
 10
11.6929133858000007
 20
8.2677165353999982
  9
$ORTHOMODE
 70
     0
  9
$REGENMODE
 70
     1
  9
$FILLMODE
 70
     1
  9
$QTEXTMODE
 70
     0
  9
$MIRRTEXT
 70
     0
  9
$DRAGMODE
 70
     2
  9
$LTSCALE
 40
0.6431102362
  9
$OSMODE
 70
   575
  9
$ATTMODE
 70
     1
  9
$TEXTSIZE
 40
0.2
  9
$TRACEWID
 40
0.05
  9
$TEXTSTYLE
  7
STANDARD
  9
$CLAYER
  8
0
  9
$CELTYPE
  6
BYLAYER
  9
$CECOLOR
 62
   256
  9
$DIMSCALE
 40
1.0
  9
$DIMASZ
 40
0.1875
  9
$DIMEXO
 40
0.0625
  9
$DIMDLI
 40
0.4443307087
  9
$DIMRND
 40
0.0
  9
$DIMDLE
 40
0.0
  9
$DIMEXE
 40
0.125
  9
$DIMTP
 40
0.01
  9
$DIMTM
 40
0.01
  9
$DIMTXT
 40
2.0
  9
$DIMCEN
 40
0.1052362205
  9
$DIMTSZ
 40
0.0
  9
$DIMTOL
 70
     1
  9
$DIMLIM
 70
     0
  9
$DIMTIH
 70
     1
  9
$DIMTOH
 70
     1
  9
$DIMSE1
 70
     0
  9
$DIMSE2
 70
     0
  9
$DIMTAD
 70
     0
  9
$DIMZIN
 70
     0
  9
$DIMBLK
  1

  9
$DIMASO
 70
     1
  9
$DIMSHO
 70
     1
  9
$DIMPOST
  1
\X
  9
$DIMAPOST
  1

  9
$DIMALT
 70
     1
  9
$DIMALTD
 70
     2
  9
$DIMALTF
 40
25.3999999999999986
  9
$DIMLFAC
 40
1.0
  9
$DIMTOFL
 70
     0
  9
$DIMTVP
 40
0.0
  9
$DIMTIX
 70
     0
  9
$DIMSOXD
 70
     0
  9
$DIMSAH
 70
     0
  9
$DIMBLK1
  1

  9
$DIMBLK2
  1

  9
$DIMSTYLE
  2
STANDARD
  9
$DIMCLRD
 70
     0
  9
$DIMCLRE
 70
     0
  9
$DIMCLRT
 70
     0
  9
$DIMTFAC
 40
1.0
  9
$DIMGAP
 40
0.09
  9
$LUNITS
 70
     2
  9
$LUPREC
 70
     4
  9
$SKETCHINC
 40
0.1
  9
$FILLETRAD
 40
0.0
  9
$AUNITS
 70
     0
  9
$AUPREC
 70
     0
  9
$MENU
  1
.
  9
$ELEVATION
 40
0.0
  9
$PELEVATION
 40
0.0
  9
$THICKNESS
 40
0.0
  9
$LIMCHECK
 70
     0
  9
$BLIPMODE
 70
     0
  9
$CHAMFERA
 40
0.0
  9
$CHAMFERB
 40
0.0
  9
$SKPOLY
 70
     0
  9
$TDCREATE
 40
2458060.468368056230247
  9
$TDUPDATE
 40
2459382.1325231487862766
  9
$TDINDWG
 40
0.561071875
  9
$TDUSRTIMER
 40
0.561071875
  9
$USRTIMER
 70
     1
  9
$ANGBASE
 50
0.0
  9
$ANGDIR
 70
     0
  9
$PDMODE
 70
     0
  9
$PDSIZE
 40
0.3125
  9
$PLINEWID
 40
0.0
  9
$COORDS
 70
     2
  9
$SPLFRAME
 70
     0
  9
$SPLINETYPE
 70
     6
  9
$SPLINESEGS
 70
     8
  9
$ATTDIA
 70
     1
  9
$ATTREQ
 70
     1
  9
$HANDLING
 70
     1
  9
$HANDSEED
  5
989A
  9
$SURFTAB1
 70
     6
  9
$SURFTAB2
 70
     6
  9
$SURFTYPE
 70
     6
  9
$SURFU
 70
     6
  9
$SURFV
 70
     6
  9
$UCSNAME
  2

  9
$UCSORG
 10
0.0
 20
0.0
 30
0.0
  9
$UCSXDIR
 10
1.0
 20
0.0
 30
0.0
  9
$UCSYDIR
 10
0.0
 20
1.0
 30
0.0
  9
$PUCSNAME
  2

  9
$PUCSORG
 10
0.0
 20
0.0
 30
0.0
  9
$PUCSXDIR
 10
1.0
 20
0.0
 30
0.0
  9
$PUCSYDIR
 10
0.0
 20
1.0
 30
0.0
  9
$USERI1
 70
     0
  9
$USERI2
 70
     0
  9
$USERI3
 70
     0
  9
$USERI4
 70
     0
  9
$USERI5
 70
     0
  9
$USERR1
 40
0.0
  9
$USERR2
 40
0.0
  9
$USERR3
 40
0.0
  9
$USERR4
 40
0.0
  9
$USERR5
 40
0.0
  9
$WORLDVIEW
 70
     1
  9
$SHADEDGE
 70
     3
  9
$SHADEDIF
 70
    70
  9
$TILEMODE
 70
     1
  9
$MAXACTVP
 70
    64
  9
$PLIMCHECK
 70
     0
  9
$PEXTMIN
 10
1.0000000000000000E+20
 20
1.0000000000000000E+20
 30
1.0000000000000000E+20
  9
$PEXTMAX
 10
-1.0000000000000000E+20
 20
-1.0000000000000000E+20
 30
-1.0000000000000000E+20
  9
$PLIMMIN
 10
0.0
 20
0.0
  9
$PLIMMAX
 10
12.0
 20
9.0
  9
$UNITMODE
 70
     0
  9
$VISRETAIN
 70
     1
  9
$PLINEGEN
 70
     0
  9
$PSLTSCALE
 70
     1
  0
ENDSEC
  0
SECTION
  2
TABLES
  0
TABLE
  2
VPORT
 70
     1
  0
VPORT
  2
*ACTIVE
 70
     0
 10
0.0
 20
0.0
 11
1.0
 21
1.0
 12
-1.255388598735645
 22
-0.0815166145062874
 13
0.0
 23
0.0
 14
1.0
 24
1.0
 15
0.0
 25
0.0
 16
0.0
 26
0.0
 36
32.8216699485205865
 17
4260.094482421875
 27
215.2189483642578125
 37
0.0
 40
10.8201875154160803
 41
2.4101748807631158
 42
50.0
 43
0.0
 44
0.0
 50
0.0
 51
0.0
 71
     0
 72
   100
 73
     1
 74
     1
 75
     0
 76
     0
 77
     0
 78
     0
  0
ENDTAB
  0
TABLE
  2
LTYPE
 70
     2
  0
LTYPE
  2
CONTINUOUS
 70
     0
  3
Solid line
 72
    65
 73
     0
 40
0.0
  0
LTYPE
  2
PHANTOM2
 70
     0
  3
___ _ _ ___ _ _ ___ _ _ ___ _ _
 72
    65
 73
     6
 40
1.25
 49
0.625
 49
-0.125
 49
0.125
 49
-0.125
 49
0.125
 49
-0.125
  0
ENDTAB
  0
TABLE
  2
LAYER
 70
     2
  0
LAYER
  2
0
 70
     0
 62
   255
  6
CONTINUOUS
  0
LAYER
  2
DEFPOINTS
 70
     0
 62
     7
  6
CONTINUOUS
  0
ENDTAB
  0
TABLE
  2
STYLE
 70
     1
  0
STYLE
  2
STANDARD
 70
     0
 40
0.0
 41
0.8
 50
0.0
 71
     0
 42
0.2
  3
txt
  4

  0
ENDTAB
  0
TABLE
  2
VIEW
 70
     3
  0
ENDTAB
  0
TABLE
  2
UCS
 70
     0
  0
ENDTAB
  0
TABLE
  2
APPID
 70
     9
  0
APPID
  2
ACAD
 70
     0
  0
APPID
  2
ACAD_MLEADERVER
 70
     0
  0
APPID
  2
ACAD_EXEMPT_FROM_CAD_STANDARDS
 70
     0
  0
APPID
  2
ACAD_NAV_VCDISPLAY
 70
     0
  0
APPID
  2
ACAECLAYERSTANDARD
 70
     0
  0
APPID
  2
ACCMTRANSPARENCY
 70
     0
  0
APPID
  2
ACAD_DSTYLE_DIMJAG
 70
     0
  0
APPID
  2
ACAD_DSTYLE_DIMTALN
 70
     0
  0
APPID
  2
ACDBATTR
 70
     0
  0
ENDTAB
  0
TABLE
  2
DIMSTYLE
 70
     1
  0
DIMSTYLE
  2
STANDARD
 70
     0
  3

  4

  5

  6

  7

 40
1.0
 41
0.1875
 42
0.0625
 43
0.38
 44
0.125
 45
0.0
 46
0.0
 47
0.01
 48
0.01
140
0.15625
141
0.09
142
0.0
143
25.3999999999999986
144
1.0
145
0.0
146
1.0
147
0.09
 71
     1
 72
     0
 73
     1
 74
     1
 75
     0
 76
     0
 77
     0
 78
     4
170
     0
171
     2
172
     0
173
     0
174
     0
175
     0
176
     0
177
     0
178
     0
  0
ENDTAB
  0
ENDSEC
  0
SECTION
  2
BLOCKS
  0
BLOCK
  8
0
  2
$MODEL_SPACE
 70
     0
 10
0.0
 20
0.0
 30
0.0
  3
$MODEL_SPACE
  1

  0
ENDBLK
  5
21
  8
0
  0
BLOCK
 67
     1
  8
0
  2
$PAPER_SPACE
 70
     0
 10
0.0
 20
0.0
 30
0.0
  3
$PAPER_SPACE
  1

  0
ENDBLK
  5
1D
 67
     1
  8
0
  0
ENDSEC
  0
SECTION
  2
ENTITIES
  0
ATTDEF
  5
3930
  8
DEFPOINTS
 10
4258.8391291895031827
 20
215.1363491365671052
 30
0.0
 40
0.001
  1
K-16316IN-4FP
  3

  2
MODELNUMBER
 70
     0
1001
ACDBATTR
1070
     0
1070
     1
  0
ATTDEF
  5
3931
  8
DEFPOINTS
 10
4258.8391291895031827
 20
215.1346824699004117
 30
0.0
 40
0.001
  1
JULY
  3

  2
TRADENAME
 70
     0
1001
ACDBATTR
1070
     0
1070
     1
  0
ATTDEF
  5
3932
  8
DEFPOINTS
 10
4258.8391291895031827
 20
215.1330158032336897
 30
0.0
 40
0.001
  1
VALVE TRIM
  3

  2
PRODUCT
 70
     0
1001
ACDBATTR
1070
     0
1070
     1
  0
LINE
  5
97D5
  8
0
 10
4256.6146843969581823
 20
217.7002482639657899
 30
0.0
 11
4256.6146843969581823
 21
212.5746151922157878
 31
0.0
  0
LINE
  5
97D6
  8
0
 10
4257.3195843969579073
 20
218.4051482639657991
 30
0.0
 11
4260.3586032958583019
 21
218.4051482639657991
 31
0.0
  0
ARC
  5
97D7
  8
0
 10
4257.3195843969579073
 20
217.7002482639657899
 30
0.0
 40
0.7049
 50
90.0
 51
180.0
  0
LINE
  5
97D8
  8
0
 10
4257.3195843969579073
 20
211.8697151922158071
 30
0.0
 11
4258.3141365294577554
 21
211.8697151922158071
 31
0.0
  0
LINE
  5
97D9
  8
0
 10
4258.6497637747579574
 20
211.8697151922158071
 30
0.0
 11
4259.0290971593567519
 21
211.8697151922158071
 31
0.0
  0
LINE
  5
97DA
  8
0
 10
4259.3697637747573026
 20
211.8697151922158071
 30
0.0
 11
4260.3586032958583019
 21
211.8697151922158071
 31
0.0
  0
ARC
  5
97DB
  8
0
 10
4257.3195843969579073
 20
212.5746151922157878
 30
0.0
 40
0.7049
 50
180.0
 51
270.0
  0
LINE
  5
97DC
  8
0
 10
4258.2541467086621196
 20
212.9549709045498957
 30
0.0
 11
4258.1583253680582857
 21
214.7504125503658088
 31
0.0
  0
ARC
  5
97DD
  8
0
 10
4255.448760389468589
 20
214.6372029898699054
 30
0.0
 40
2.7119289772752011
 50
2.392509345640744
 51
10.8209327507546202
  0
ARC
  5
97DE
  8
0
 10
4233.415745717837126
 20
210.0235613503112972
 30
0.0
 40
25.222429578443851
 50
11.7185391970487292
 51
13.5447152862160198
  0
ARC
  5
97DF
  8
0
 10
4258.8390938464081046
 20
216.1808954421657916
 30
0.0
 40
0.9364443988415079
 50
344.5074717530591215
 51
195.4925282469392869
  0
LINE
  5
97E0
  8
0
 10
4259.42404098415318
 20
212.9549709045498957
 30
0.0
 11
4259.519862324758833
 21
214.7504125503658088
 31
0.0
  0
ARC
  5
97E1
  8
0
 10
4262.2294273033467107
 20
214.6372029898699054
 30
0.0
 40
2.7119289772752011
 50
169.1790672492454064
 51
177.6074906543593102
  0
ARC
  5
97E2
  8
0
 10
4284.2624419749790832
 20
210.0235613503112972
 30
0.0
 40
25.222429578443851
 50
166.4552847137840104
 51
168.2814608029511874
  0
ARC
  5
97E3
  8
0
 10
4258.8390938464081046
 20
212.9552983140006859
 30
0.0
 40
0.5849472293754738
 50
180.0320698684352863
 51
359.9679301315646853
  0
LINE
  5
97E4
  8
0
 10
4261.0635032958589363
 20
217.7002482639657899
 30
0.0
 11
4261.0635032958589363
 21
212.5746151922157878
 31
0.0
  0
ARC
  5
97E5
  8
0
 10
4260.3586032958583019
 20
212.5746151922157878
 30
0.0
 40
0.7049
 50
270.0
 51
0.0
  0
ARC
  5
97E6
  8
0
 10
4260.3586032958583019
 20
217.7002482639657899
 30
0.0
 40
0.7049
 50
0.0
 51
90.0
  0
ARC
  5
97E7
  8
0
 10
4258.8390938464081046
 20
216.180738815165796
 30
0.0
 40
0.9645669290999991
 50
332.6367140165554019
 51
207.3632859836646105
  0
ARC
  5
97E8
  8
0
 10
4258.8394304671082864
 20
216.180738815165796
 30
0.0
 40
0.9999113528999998
 50
326.1078120121891857
 51
213.7872800019507054
  0
LINE
  5
97E9
  8
0
 10
4259.3594304671078135
 20
211.8800484998658078
 30
0.0
 11
4259.039430467107195
 21
211.8800484998658078
 31
0.0
  0
LINE
  5
97EA
  8
0
 10
4258.6394304671066493
 20
211.8800484998658078
 30
0.0
 11
4258.3244698371072445
 21
211.8800484998658078
 31
0.0
  0
LINE
  5
97EB
  8
0
 10
4258.3244698371072445
 20
211.8800484998658078
 30
0.0
 11
4258.3141365294577554
 21
211.8697151922158071
 31
0.0
  0
LINE
  5
97EC
  8
0
 10
4258.6394304671066493
 20
211.8800484998658078
 30
0.0
 11
4258.6497637747579574
 21
211.8697151922158071
 31
0.0
  0
LINE
  5
97ED
  8
0
 10
4259.039430467107195
 20
211.8800484998658078
 30
0.0
 11
4259.0290971593567519
 21
211.8697151922158071
 31
0.0
  0
LINE
  5
97EE
  8
0
 10
4259.3594304671078135
 20
211.8800484998658078
 30
0.0
 11
4259.3697637747573026
 21
211.8697151922158071
 31
0.0
  0
ENDSEC
  0
EOF
