  0
SECTION
  2
HEADER
  9
$ACADVER
  1
AC1009
  9
$INSBASE
 10
4529.6635792440902151
 20
483.0871996408541236
 30
0.0
  9
$EXTMIN
 10
4522.7886411411000154
 20
469.8668012043228828
 30
-0.0000000000000058
  9
$EXTMAX
 10
4536.5790971510787131
 20
483.0945749219728782
 30
0.0000000000000104
  9
$LIMMIN
 10
0.0
 20
0.0
  9
$LIMMAX
 10
11.6929133858000007
 20
8.2677165353999982
  9
$ORTHOMODE
 70
     0
  9
$REGENMODE
 70
     1
  9
$FILLMODE
 70
     1
  9
$QTEXTMODE
 70
     0
  9
$MIRRTEXT
 70
     0
  9
$DRAGMODE
 70
     2
  9
$LTSCALE
 40
0.6431102362
  9
$OSMODE
 70
     7
  9
$ATTMODE
 70
     1
  9
$TEXTSIZE
 40
0.2
  9
$TRACEWID
 40
0.05
  9
$TEXTSTYLE
  7
STANDARD
  9
$CLAYER
  8
0
  9
$CELTYPE
  6
BYLAYER
  9
$CECOLOR
 62
   256
  9
$DIMSCALE
 40
1.0
  9
$DIMASZ
 40
0.1875
  9
$DIMEXO
 40
0.0625
  9
$DIMDLI
 40
0.4443307087
  9
$DIMRND
 40
0.0
  9
$DIMDLE
 40
0.0
  9
$DIMEXE
 40
0.125
  9
$DIMTP
 40
0.01
  9
$DIMTM
 40
0.01
  9
$DIMTXT
 40
2.0
  9
$DIMCEN
 40
0.1052362205
  9
$DIMTSZ
 40
0.0
  9
$DIMTOL
 70
     1
  9
$DIMLIM
 70
     0
  9
$DIMTIH
 70
     1
  9
$DIMTOH
 70
     1
  9
$DIMSE1
 70
     0
  9
$DIMSE2
 70
     0
  9
$DIMTAD
 70
     0
  9
$DIMZIN
 70
     0
  9
$DIMBLK
  1

  9
$DIMASO
 70
     1
  9
$DIMSHO
 70
     1
  9
$DIMPOST
  1
\X
  9
$DIMAPOST
  1

  9
$DIMALT
 70
     1
  9
$DIMALTD
 70
     2
  9
$DIMALTF
 40
25.3999999999999986
  9
$DIMLFAC
 40
1.0
  9
$DIMTOFL
 70
     0
  9
$DIMTVP
 40
0.0
  9
$DIMTIX
 70
     0
  9
$DIMSOXD
 70
     0
  9
$DIMSAH
 70
     0
  9
$DIMBLK1
  1

  9
$DIMBLK2
  1

  9
$DIMSTYLE
  2
STANDARD
  9
$DIMCLRD
 70
     0
  9
$DIMCLRE
 70
     0
  9
$DIMCLRT
 70
     0
  9
$DIMTFAC
 40
1.0
  9
$DIMGAP
 40
0.09
  9
$LUNITS
 70
     2
  9
$LUPREC
 70
     4
  9
$SKETCHINC
 40
0.1
  9
$FILLETRAD
 40
0.0
  9
$AUNITS
 70
     0
  9
$AUPREC
 70
     0
  9
$MENU
  1
.
  9
$ELEVATION
 40
0.0
  9
$PELEVATION
 40
0.0
  9
$THICKNESS
 40
0.0
  9
$LIMCHECK
 70
     0
  9
$BLIPMODE
 70
     0
  9
$CHAMFERA
 40
0.0
  9
$CHAMFERB
 40
0.0
  9
$SKPOLY
 70
     0
  9
$TDCREATE
 40
2458060.468368056230247
  9
$TDUPDATE
 40
2459559.9101851847954094
  9
$TDINDWG
 40
1.5413501157
  9
$TDUSRTIMER
 40
1.5413501157
  9
$USRTIMER
 70
     1
  9
$ANGBASE
 50
0.0
  9
$ANGDIR
 70
     0
  9
$PDMODE
 70
     0
  9
$PDSIZE
 40
0.3125
  9
$PLINEWID
 40
0.0
  9
$COORDS
 70
     1
  9
$SPLFRAME
 70
     0
  9
$SPLINETYPE
 70
     6
  9
$SPLINESEGS
 70
     8
  9
$ATTDIA
 70
     1
  9
$ATTREQ
 70
     1
  9
$HANDLING
 70
     1
  9
$HANDSEED
  5
19F37
  9
$SURFTAB1
 70
     6
  9
$SURFTAB2
 70
     6
  9
$SURFTYPE
 70
     6
  9
$SURFU
 70
     6
  9
$SURFV
 70
     6
  9
$UCSNAME
  2

  9
$UCSORG
 10
0.0
 20
0.0
 30
0.0
  9
$UCSXDIR
 10
1.0
 20
0.0
 30
0.0
  9
$UCSYDIR
 10
0.0
 20
1.0
 30
0.0
  9
$PUCSNAME
  2

  9
$PUCSORG
 10
0.0
 20
0.0
 30
0.0
  9
$PUCSXDIR
 10
1.0
 20
0.0
 30
0.0
  9
$PUCSYDIR
 10
0.0
 20
1.0
 30
0.0
  9
$USERI1
 70
     0
  9
$USERI2
 70
     0
  9
$USERI3
 70
     0
  9
$USERI4
 70
     0
  9
$USERI5
 70
     0
  9
$USERR1
 40
0.0
  9
$USERR2
 40
0.0
  9
$USERR3
 40
0.0
  9
$USERR4
 40
0.0
  9
$USERR5
 40
0.0
  9
$WORLDVIEW
 70
     1
  9
$SHADEDGE
 70
     3
  9
$SHADEDIF
 70
    70
  9
$TILEMODE
 70
     1
  9
$MAXACTVP
 70
    64
  9
$PLIMCHECK
 70
     0
  9
$PEXTMIN
 10
1.0000000000000000E+20
 20
1.0000000000000000E+20
 30
1.0000000000000000E+20
  9
$PEXTMAX
 10
-1.0000000000000000E+20
 20
-1.0000000000000000E+20
 30
-1.0000000000000000E+20
  9
$PLIMMIN
 10
0.0
 20
0.0
  9
$PLIMMAX
 10
12.0
 20
9.0
  9
$UNITMODE
 70
     0
  9
$VISRETAIN
 70
     1
  9
$PLINEGEN
 70
     0
  9
$PSLTSCALE
 70
     1
  0
ENDSEC
  0
SECTION
  2
TABLES
  0
TABLE
  2
VPORT
 70
     1
  0
VPORT
  2
*ACTIVE
 70
     0
 10
0.0
 20
0.0
 11
1.0
 21
1.0
 12
618.318512700777319
 22
343.9010829606087896
 13
0.0
 23
0.0
 14
1.0
 24
1.0
 15
0.0
 25
0.0
 16
0.0
 26
0.0
 36
60.4960186965801583
 17
3911.3653564453120453
 27
132.5796051025390057
 37
0.0
 40
13.3224833146738302
 41
2.2831541218637992
 42
50.0
 43
0.0
 44
0.0
 50
0.0
 51
0.0
 71
     0
 72
   100
 73
     1
 74
     1
 75
     0
 76
     0
 77
     0
 78
     0
  0
ENDTAB
  0
TABLE
  2
LTYPE
 70
     2
  0
LTYPE
  2
CONTINUOUS
 70
     0
  3
Solid line
 72
    65
 73
     0
 40
0.0
  0
LTYPE
  2
PHANTOM2
 70
     0
  3
___ _ _ ___ _ _ ___ _ _ ___ _ _
 72
    65
 73
     6
 40
1.25
 49
0.625
 49
-0.125
 49
0.125
 49
-0.125
 49
0.125
 49
-0.125
  0
ENDTAB
  0
TABLE
  2
LAYER
 70
     2
  0
LAYER
  2
0
 70
     0
 62
   255
  6
CONTINUOUS
  0
LAYER
  2
DEFPOINTS
 70
     0
 62
     7
  6
CONTINUOUS
  0
ENDTAB
  0
TABLE
  2
STYLE
 70
     1
  0
STYLE
  2
STANDARD
 70
     0
 40
0.0
 41
0.8
 50
0.0
 71
     0
 42
0.2
  3
txt
  4

  0
ENDTAB
  0
TABLE
  2
VIEW
 70
     0
  0
ENDTAB
  0
TABLE
  2
UCS
 70
     0
  0
ENDTAB
  0
TABLE
  2
APPID
 70
    11
  0
APPID
  2
ACAD
 70
     0
  0
APPID
  2
ACAD_MLEADERVER
 70
     0
  0
APPID
  2
ACAD_EXEMPT_FROM_CAD_STANDARDS
 70
     0
  0
APPID
  2
ACAD_NAV_VCDISPLAY
 70
     0
  0
APPID
  2
ACAECLAYERSTANDARD
 70
     0
  0
APPID
  2
ACCMTRANSPARENCY
 70
     0
  0
APPID
  2
ACAD_DSTYLE_DIMJAG
 70
     0
  0
APPID
  2
ACAD_DSTYLE_DIMTALN
 70
     0
  0
APPID
  2
ACDBATTR
 70
     0
  0
APPID
  2
ACADANNOTATIVE
 70
     0
  0
APPID
  2
DCO15
 70
     0
  0
ENDTAB
  0
TABLE
  2
DIMSTYLE
 70
     1
  0
DIMSTYLE
  2
STANDARD
 70
     0
  3

  4

  5

  6

  7

 40
1.0
 41
0.1875
 42
0.0625
 43
0.38
 44
0.125
 45
0.0
 46
0.0
 47
0.01
 48
0.01
140
0.15625
141
0.09
142
0.0
143
25.3999999999999986
144
1.0
145
0.0
146
1.0
147
0.09
 71
     1
 72
     0
 73
     1
 74
     1
 75
     0
 76
     0
 77
     0
 78
     4
170
     0
171
     2
172
     0
173
     0
174
     0
175
     0
176
     0
177
     0
178
     0
  0
ENDTAB
  0
ENDSEC
  0
SECTION
  2
BLOCKS
  0
BLOCK
  8
0
  2
$MODEL_SPACE
 70
     0
 10
0.0
 20
0.0
 30
0.0
  3
$MODEL_SPACE
  1

  0
ENDBLK
  5
21
  8
0
  0
BLOCK
 67
     1
  8
0
  2
$PAPER_SPACE
 70
     0
 10
0.0
 20
0.0
 30
0.0
  3
$PAPER_SPACE
  1

  0
ENDBLK
  5
1D
 67
     1
  8
0
  0
ENDSEC
  0
SECTION
  2
ENTITIES
  0
ATTDEF
  5
159BF
  8
DEFPOINTS
 10
4529.6635827972640982
 20
483.0905398990926756
 30
0.0
 40
0.001
  1
K-16321T-M
  3

  2
MODELNUMBER
 70
     0
1001
ACDBATTR
1070
     0
1070
     1
  0
ATTDEF
  5
159C0
  8
DEFPOINTS
 10
4529.6635827972640982
 20
483.0888730587136024
 30
0.0
 40
0.001
  1
PATIO
  3

  2
TRADENAME
 70
     0
1001
ACDBATTR
1070
     0
1070
     1
  0
ATTDEF
  5
159C1
  8
DEFPOINTS
 10
4529.6635827972640982
 20
483.0872065657594021
 30
0.0
 40
0.001
  1
URINAL
  3

  2
PRODUCT
 70
     0
1001
ACDBATTR
1070
     0
1070
     1
  0
LINE
  5
19E44
  8
0
 10
4535.4547297162907853
 20
483.0871996408541236
 30
0.0
 11
4523.8724287718896448
 21
483.0871996408541236
 31
0.0
  0
LINE
  5
19E45
  8
0
 10
4535.4547297162907853
 20
483.0871996408541236
 30
0.0
 11
4535.4547297162907853
 21
481.2455490644970837
 31
0.0
  0
ARC
  5
19E46
  8
0
 10
4531.8315416424902651
 20
474.9387161310503984
 30
0.0
 40
4.2003109424999918
 50
329.6097723286343921
 51
30.3902276713656008
  0
ARC
  5
19E47
  8
0
 10
4524.2511775071561715
 20
476.8088451940176924
 30
0.0
 40
11.9997456376270701
 50
347.6952279408429831
 51
12.3047720591569902
  0
ARC
  5
19E48
  8
0
 10
4510.1387432407118467
 20
474.3654165627947918
 30
0.0
 40
26.3160199423149201
 50
10.9542739458317602
 51
15.8460045707002504
  0
ARC
  5
19E49
  8
0
 10
4529.6635792440902151
 20
472.1035014286825913
 30
0.0
 40
7.8306278955063862
 50
61.8721369442200384
 51
118.1278630557798976
  0
ARC
  5
19E4A
  8
0
 10
4530.7265193909188383
 20
474.0672984705781801
 30
0.0
 40
5.5976584262584179
 50
32.3627117883942432
 51
61.9907727266165693
  0
ARC
  5
19E4B
  8
0
 10
4529.6635792440902151
 20
478.1947477285220884
 30
0.0
 40
8.2926911466816833
 50
241.9492666306634874
 51
298.0507333693365126
  0
ARC
  5
19E4C
  8
0
 10
4530.9773324737498115
 20
475.2925262581709944
 30
0.0
 40
5.1177140265602432
 50
300.3503660662302082
 51
331.0310448702047097
  0
ARC
  5
19E4D
  8
0
 10
4529.6635792440902151
 20
471.5886684477022754
 30
0.0
 40
7.0952898915343354
 50
66.656802540344728
 51
113.343197459655201
  0
ARC
  5
19E4E
  8
0
 10
4530.2548712760390117
 20
478.826086983454104
 30
0.0
 40
0.0327400554939415
 50
291.3222011096966071
 51
55.0480697885273926
  0
ARC
  5
19E4F
  8
0
 10
4529.6635792440902151
 20
477.0347469741864757
 30
0.0
 40
1.94993837428841
 50
80.2232829383557942
 51
99.7767170616442201
  0
ARC
  5
19E50
  8
0
 10
4529.9216767762018208
 20
478.3316918232347916
 30
0.0
 40
0.6289277777829176
 50
55.9715380495961696
 51
83.3328202434692145
  0
ARC
  5
19E51
  8
0
 10
4529.6635792440902151
 20
485.7319005548060886
 30
0.0
 40
6.9924431068632611
 50
267.3487614376981014
 51
272.6512385623020123
  0
ARC
  5
19E52
  8
0
 10
4529.9347185190363234
 20
479.8764602153481178
 30
0.0
 40
1.1307285048597651
 50
272.6513468745641831
 51
287.0776111080585906
  0
CIRCLE
  5
19E53
  8
0
 10
4529.6635922552914053
 20
477.1816878298541269
 30
0.0
 40
0.6299212597999997
  0
ARC
  5
19E54
  8
0
 10
4529.6635796692526128
 20
480.871170622446698
 30
0.0
 40
4.0380929608121834
 50
262.2060687772943766
 51
277.7943221321505121
  0
ARC
  5
19E55
  8
0
 10
4529.6635792440902151
 20
475.3940415154053767
 30
0.0
 40
3.796863226031804
 50
243.2184423103300901
 51
296.7815576896699099
  0
ARC
  5
19E56
  8
0
 10
4531.091353446062385
 20
475.6912895987723005
 30
0.0
 40
3.0981867544898121
 50
331.708256294934074
 51
28.2917437050659295
  0
ARC
  5
19E57
  8
0
 10
4529.5828986848382556
 20
476.4356138029835961
 30
0.0
 40
4.7796017709457619
 50
292.0134420233055721
 51
332.4219875932129753
  0
ARC
  5
19E58
  8
0
 10
4530.9378363289806657
 20
474.4831142960118768
 30
0.0
 40
3.9329192755874649
 50
42.8875873097249567
 51
66.9928576747527131
  0
ARC
  5
19E59
  8
0
 10
4535.0529124118047548
 20
481.3017698702150255
 30
0.0
 40
0.4057313460650052
 50
344.1669865329262734
 51
352.0350910029479792
  0
ARC
  5
19E5A
  8
0
 10
4534.4486414076518486
 20
481.4731374469532739
 30
0.0
 40
1.0338318896226959
 50
309.6036836299733181
 51
344.1669865329262734
  0
ARC
  5
19E5B
  8
0
 10
4534.3755459360172608
 20
481.5818930292639948
 30
0.0
 40
1.164294175715485
 50
274.0798789676456977
 51
308.9634006041241037
  0
ARC
  5
19E5C
  8
0
 10
4533.9895605240053555
 20
486.9925345230348057
 30
0.0
 40
6.5886859491639891
 50
264.8350103802918056
 51
274.0803614351976876
  0
ARC
  5
19E5D
  8
0
 10
4531.9092920209986914
 20
463.9784378730789172
 30
0.0
 40
16.5192382686906996
 50
84.8350103802918767
 51
93.1530712116916959
  0
ARC
  5
19E5E
  8
0
 10
4530.8589171644207454
 20
482.3795177427351746
 30
0.0
 40
1.9121110530363561
 50
257.725175191828896
 51
274.2515606864835718
  0
ARC
  5
19E5F
  8
0
 10
4529.6635792440902151
 20
472.4370978263240204
 30
0.0
 40
8.1124633414544132
 50
84.4199879329389802
 51
95.580012067061034
  0
LINE
  5
19E60
  8
0
 10
4530.4524007934905967
 20
483.0871996408541236
 30
0.0
 11
4530.4524003244905543
 21
480.5111193007541033
 31
0.0
  0
LINE
  5
19E61
  8
0
 10
4523.8724287718896448
 20
483.0871996408541236
 30
0.0
 11
4523.8724287718896448
 21
481.2455490644970837
 31
0.0
  0
ARC
  5
19E62
  8
0
 10
4527.4956168456910746
 20
474.9387161310503984
 30
0.0
 40
4.2003109424999918
 50
149.6097723286343921
 51
210.3902276713656079
  0
ARC
  5
19E63
  8
0
 10
4535.0759809810242587
 20
476.8088451940176924
 30
0.0
 40
11.9997456376270701
 50
167.6952279408430115
 51
192.3047720591569885
  0
ARC
  5
19E64
  8
0
 10
4549.1884152474685834
 20
474.3654165627947918
 30
0.0
 40
26.3160199423149201
 50
164.1539954292996981
 51
169.045726054168199
  0
ARC
  5
19E65
  8
0
 10
4528.6006390972615918
 20
474.0672984705781801
 30
0.0
 40
5.5976584262584179
 50
118.0092272733834022
 51
147.6372882116056928
  0
ARC
  5
19E66
  8
0
 10
4528.3498260144297092
 20
475.2925262581709944
 30
0.0
 40
5.1177140265602432
 50
208.968955129795205
 51
239.6496339337697918
  0
ARC
  5
19E67
  8
0
 10
4529.0722872121423279
 20
478.826086983454104
 30
0.0
 40
0.0327400554939415
 50
124.9519302114726003
 51
248.6777988903035066
  0
ARC
  5
19E68
  8
0
 10
4529.4054817119786094
 20
478.3316918232347916
 30
0.0
 40
0.6289277777829176
 50
96.6671797565307855
 51
124.0284619504037948
  0
ARC
  5
19E69
  8
0
 10
4529.3924399691459257
 20
479.8764602153481178
 30
0.0
 40
1.1307285048597651
 50
252.9223888919414094
 51
267.3486531254358169
  0
ARC
  5
19E6A
  8
0
 10
4528.2358050421180451
 20
475.6912895987723005
 30
0.0
 40
3.0981867544898192
 50
151.7082562949339888
 51
208.2917437050658975
  0
ARC
  5
19E6B
  8
0
 10
4529.7442598033430841
 20
476.4356138029835961
 30
0.0
 40
4.7796017709457619
 50
207.5780124067869963
 51
247.9865579766942858
  0
ARC
  5
19E6C
  8
0
 10
4528.3893221591979454
 20
474.4831142960118768
 30
0.0
 40
3.9329192755874649
 50
113.0071423252473011
 51
137.1124126902749936
  0
ARC
  5
19E6D
  8
0
 10
4524.2742460763756753
 20
481.3017698702150255
 30
0.0
 40
0.4057313460650052
 50
187.9649089970519924
 51
195.8330134670736982
  0
ARC
  5
19E6E
  8
0
 10
4524.8785170805285816
 20
481.4731374469532739
 30
0.0
 40
1.0338318896226959
 50
195.8330134670736982
 51
230.3963163700267103
  0
ARC
  5
19E6F
  8
0
 10
4524.9516125521649883
 20
481.5818930292639948
 30
0.0
 40
1.164294175715485
 50
231.0365993958758111
 51
265.9201210323543023
  0
ARC
  5
19E70
  8
0
 10
4525.3375979641759841
 20
486.9925345230348057
 30
0.0
 40
6.5886859491639891
 50
265.9196385648021987
 51
275.1649896197080807
  0
ARC
  5
19E71
  8
0
 10
4527.4178664671826482
 20
463.9784378730789172
 30
0.0
 40
16.5192382686906996
 50
86.8469287883083041
 51
95.1649896197081233
  0
ARC
  5
19E72
  8
0
 10
4528.4682413237596847
 20
482.3795177427351746
 30
0.0
 40
1.9121110530363561
 50
265.7484393135164282
 51
282.2748248081709903
  0
LINE
  5
19E73
  8
0
 10
4528.8747576946907429
 20
483.0871996408541236
 30
0.0
 11
4528.8747581636907853
 21
480.5111193007541033
 31
0.0
  0
ENDSEC
  0
EOF
