  0
SECTION
  2
HEADER
  9
$ACADVER
  1
AC1009
  9
$INSBASE
 10
4511.3716953522352924
 20
481.7504723761094851
 30
0.0
  9
$EXTMIN
 10
4504.5732092356811336
 20
468.5522661999600018
 30
-0.0000000000000058
  9
$EXTMAX
 10
4517.9647514747275636
 20
481.7669337290114981
 30
0.0000000000000104
  9
$LIMMIN
 10
0.0
 20
0.0
  9
$LIMMAX
 10
11.6929133858000007
 20
8.2677165353999982
  9
$ORTHOMODE
 70
     0
  9
$REGENMODE
 70
     1
  9
$FILLMODE
 70
     1
  9
$QTEXTMODE
 70
     0
  9
$MIRRTEXT
 70
     0
  9
$DRAGMODE
 70
     2
  9
$LTSCALE
 40
0.6431102362
  9
$OSMODE
 70
     7
  9
$ATTMODE
 70
     1
  9
$TEXTSIZE
 40
0.2
  9
$TRACEWID
 40
0.05
  9
$TEXTSTYLE
  7
STANDARD
  9
$CLAYER
  8
0
  9
$CELTYPE
  6
BYLAYER
  9
$CECOLOR
 62
   256
  9
$DIMSCALE
 40
1.0
  9
$DIMASZ
 40
0.1875
  9
$DIMEXO
 40
0.0625
  9
$DIMDLI
 40
0.4443307087
  9
$DIMRND
 40
0.0
  9
$DIMDLE
 40
0.0
  9
$DIMEXE
 40
0.125
  9
$DIMTP
 40
0.01
  9
$DIMTM
 40
0.01
  9
$DIMTXT
 40
2.0
  9
$DIMCEN
 40
0.1052362205
  9
$DIMTSZ
 40
0.0
  9
$DIMTOL
 70
     1
  9
$DIMLIM
 70
     0
  9
$DIMTIH
 70
     1
  9
$DIMTOH
 70
     1
  9
$DIMSE1
 70
     0
  9
$DIMSE2
 70
     0
  9
$DIMTAD
 70
     0
  9
$DIMZIN
 70
     0
  9
$DIMBLK
  1

  9
$DIMASO
 70
     1
  9
$DIMSHO
 70
     1
  9
$DIMPOST
  1
\X
  9
$DIMAPOST
  1

  9
$DIMALT
 70
     1
  9
$DIMALTD
 70
     2
  9
$DIMALTF
 40
25.3999999999999986
  9
$DIMLFAC
 40
1.0
  9
$DIMTOFL
 70
     0
  9
$DIMTVP
 40
0.0
  9
$DIMTIX
 70
     0
  9
$DIMSOXD
 70
     0
  9
$DIMSAH
 70
     0
  9
$DIMBLK1
  1

  9
$DIMBLK2
  1

  9
$DIMSTYLE
  2
STANDARD
  9
$DIMCLRD
 70
     0
  9
$DIMCLRE
 70
     0
  9
$DIMCLRT
 70
     0
  9
$DIMTFAC
 40
1.0
  9
$DIMGAP
 40
0.09
  9
$LUNITS
 70
     2
  9
$LUPREC
 70
     4
  9
$SKETCHINC
 40
0.1
  9
$FILLETRAD
 40
0.0
  9
$AUNITS
 70
     0
  9
$AUPREC
 70
     0
  9
$MENU
  1
.
  9
$ELEVATION
 40
0.0
  9
$PELEVATION
 40
0.0
  9
$THICKNESS
 40
0.0
  9
$LIMCHECK
 70
     0
  9
$BLIPMODE
 70
     0
  9
$CHAMFERA
 40
0.0
  9
$CHAMFERB
 40
0.0
  9
$SKPOLY
 70
     0
  9
$TDCREATE
 40
2458060.468368056230247
  9
$TDUPDATE
 40
2459561.5799537040293217
  9
$TDINDWG
 40
2.2931506481000001
  9
$TDUSRTIMER
 40
2.2931506481000001
  9
$USRTIMER
 70
     1
  9
$ANGBASE
 50
0.0
  9
$ANGDIR
 70
     0
  9
$PDMODE
 70
     0
  9
$PDSIZE
 40
0.3125
  9
$PLINEWID
 40
0.0
  9
$COORDS
 70
     1
  9
$SPLFRAME
 70
     0
  9
$SPLINETYPE
 70
     6
  9
$SPLINESEGS
 70
     8
  9
$ATTDIA
 70
     1
  9
$ATTREQ
 70
     1
  9
$HANDLING
 70
     1
  9
$HANDSEED
  5
19E48
  9
$SURFTAB1
 70
     6
  9
$SURFTAB2
 70
     6
  9
$SURFTYPE
 70
     6
  9
$SURFU
 70
     6
  9
$SURFV
 70
     6
  9
$UCSNAME
  2

  9
$UCSORG
 10
0.0
 20
0.0
 30
0.0
  9
$UCSXDIR
 10
1.0
 20
0.0
 30
0.0
  9
$UCSYDIR
 10
0.0
 20
1.0
 30
0.0
  9
$PUCSNAME
  2

  9
$PUCSORG
 10
0.0
 20
0.0
 30
0.0
  9
$PUCSXDIR
 10
1.0
 20
0.0
 30
0.0
  9
$PUCSYDIR
 10
0.0
 20
1.0
 30
0.0
  9
$USERI1
 70
     0
  9
$USERI2
 70
     0
  9
$USERI3
 70
     0
  9
$USERI4
 70
     0
  9
$USERI5
 70
     0
  9
$USERR1
 40
0.0
  9
$USERR2
 40
0.0
  9
$USERR3
 40
0.0
  9
$USERR4
 40
0.0
  9
$USERR5
 40
0.0
  9
$WORLDVIEW
 70
     1
  9
$SHADEDGE
 70
     3
  9
$SHADEDIF
 70
    70
  9
$TILEMODE
 70
     1
  9
$MAXACTVP
 70
    64
  9
$PLIMCHECK
 70
     0
  9
$PEXTMIN
 10
1.0000000000000000E+20
 20
1.0000000000000000E+20
 30
1.0000000000000000E+20
  9
$PEXTMAX
 10
-1.0000000000000000E+20
 20
-1.0000000000000000E+20
 30
-1.0000000000000000E+20
  9
$PLIMMIN
 10
0.0
 20
0.0
  9
$PLIMMAX
 10
12.0
 20
9.0
  9
$UNITMODE
 70
     0
  9
$VISRETAIN
 70
     1
  9
$PLINEGEN
 70
     0
  9
$PSLTSCALE
 70
     1
  0
ENDSEC
  0
SECTION
  2
TABLES
  0
TABLE
  2
VPORT
 70
     1
  0
VPORT
  2
*ACTIVE
 70
     0
 10
0.0
 20
0.0
 11
1.0
 21
1.0
 12
599.9036239098923033
 22
342.5799948619467159
 13
0.0
 23
0.0
 14
1.0
 24
1.0
 15
0.0
 25
0.0
 16
0.0
 26
0.0
 36
60.4960186965801583
 17
3911.3653564453120453
 27
132.5796051025390057
 37
0.0
 40
13.3092832870159992
 41
2.2831541218637992
 42
50.0
 43
0.0
 44
0.0
 50
0.0
 51
0.0
 71
     0
 72
   100
 73
     1
 74
     1
 75
     0
 76
     0
 77
     0
 78
     0
  0
ENDTAB
  0
TABLE
  2
LTYPE
 70
     2
  0
LTYPE
  2
CONTINUOUS
 70
     0
  3
Solid line
 72
    65
 73
     0
 40
0.0
  0
LTYPE
  2
PHANTOM2
 70
     0
  3
___ _ _ ___ _ _ ___ _ _ ___ _ _
 72
    65
 73
     6
 40
1.25
 49
0.625
 49
-0.125
 49
0.125
 49
-0.125
 49
0.125
 49
-0.125
  0
ENDTAB
  0
TABLE
  2
LAYER
 70
     2
  0
LAYER
  2
0
 70
     0
 62
   255
  6
CONTINUOUS
  0
LAYER
  2
DEFPOINTS
 70
     0
 62
     7
  6
CONTINUOUS
  0
ENDTAB
  0
TABLE
  2
STYLE
 70
     1
  0
STYLE
  2
STANDARD
 70
     0
 40
0.0
 41
0.8
 50
0.0
 71
     0
 42
0.2
  3
txt
  4

  0
ENDTAB
  0
TABLE
  2
VIEW
 70
     0
  0
ENDTAB
  0
TABLE
  2
UCS
 70
     0
  0
ENDTAB
  0
TABLE
  2
APPID
 70
    11
  0
APPID
  2
ACAD
 70
     0
  0
APPID
  2
ACAD_MLEADERVER
 70
     0
  0
APPID
  2
ACAD_EXEMPT_FROM_CAD_STANDARDS
 70
     0
  0
APPID
  2
ACAD_NAV_VCDISPLAY
 70
     0
  0
APPID
  2
ACAECLAYERSTANDARD
 70
     0
  0
APPID
  2
ACCMTRANSPARENCY
 70
     0
  0
APPID
  2
ACAD_DSTYLE_DIMJAG
 70
     0
  0
APPID
  2
ACAD_DSTYLE_DIMTALN
 70
     0
  0
APPID
  2
ACDBATTR
 70
     0
  0
APPID
  2
ACADANNOTATIVE
 70
     0
  0
APPID
  2
DCO15
 70
     0
  0
ENDTAB
  0
TABLE
  2
DIMSTYLE
 70
     1
  0
DIMSTYLE
  2
STANDARD
 70
     0
  3

  4

  5

  6

  7

 40
1.0
 41
0.1875
 42
0.0625
 43
0.38
 44
0.125
 45
0.0
 46
0.0
 47
0.01
 48
0.01
140
0.15625
141
0.09
142
0.0
143
25.3999999999999986
144
1.0
145
0.0
146
1.0
147
0.09
 71
     1
 72
     0
 73
     1
 74
     1
 75
     0
 76
     0
 77
     0
 78
     4
170
     0
171
     2
172
     0
173
     0
174
     0
175
     0
176
     0
177
     0
178
     0
  0
ENDTAB
  0
ENDSEC
  0
SECTION
  2
BLOCKS
  0
BLOCK
  8
0
  2
$MODEL_SPACE
 70
     0
 10
0.0
 20
0.0
 30
0.0
  3
$MODEL_SPACE
  1

  0
ENDBLK
  5
21
  8
0
  0
BLOCK
 67
     1
  8
0
  2
$PAPER_SPACE
 70
     0
 10
0.0
 20
0.0
 30
0.0
  3
$PAPER_SPACE
  1

  0
ENDBLK
  5
1D
 67
     1
  8
0
  0
ENDSEC
  0
SECTION
  2
ENTITIES
  0
ATTDEF
  5
159BF
  8
DEFPOINTS
 10
4511.371698905410085
 20
481.7538126343482077
 30
0.0
 40
0.001
  1
K-16321T-Y
  3

  2
MODELNUMBER
 70
     0
1001
ACDBATTR
1070
     0
1070
     1
  0
ATTDEF
  5
159C0
  8
DEFPOINTS
 10
4511.371698905410085
 20
481.7521457939689071
 30
0.0
 40
0.001
  1
PATIO
  3

  2
TRADENAME
 70
     0
1001
ACDBATTR
1070
     0
1070
     1
  0
ATTDEF
  5
159C1
  8
DEFPOINTS
 10
4511.371698905410085
 20
481.7504793010148205
 30
0.0
 40
0.001
  1
URINAL
  3

  2
PRODUCT
 70
     0
1001
ACDBATTR
1070
     0
1070
     1
  0
LINE
  5
19D55
  8
0
 10
4517.1628458244349531
 20
481.7504723761094851
 30
0.0
 11
4505.5805448800347222
 21
481.7504723761094851
 31
0.0
  0
LINE
  5
19D56
  8
0
 10
4517.1628458244349531
 20
481.7504723761094851
 30
0.0
 11
4517.1628458244349531
 21
479.9088217997526158
 31
0.0
  0
ARC
  5
19D57
  8
0
 10
4513.5396577506353424
 20
473.6019888663058168
 30
0.0
 40
4.2003109424999918
 50
329.6097723286343921
 51
30.3902276713656008
  0
ARC
  5
19D58
  8
0
 10
4505.9592936153012488
 20
475.4721179292729971
 30
0.0
 40
11.9997456376270701
 50
347.6952279408429831
 51
12.3047720591569902
  0
ARC
  5
19D59
  8
0
 10
4491.8468593488560145
 20
473.0286892980502103
 30
0.0
 40
26.3160199423149201
 50
10.9542739458317602
 51
15.8460045707002504
  0
ARC
  5
19D5A
  8
0
 10
4511.3716953522352924
 20
470.766774163937896
 30
0.0
 40
7.8306278955063862
 50
61.8721369442200384
 51
118.1278630557798976
  0
ARC
  5
19D5B
  8
0
 10
4512.4346354990639156
 20
472.7305712058335985
 30
0.0
 40
5.5976584262584179
 50
32.3627117883942432
 51
61.9907727266165693
  0
ARC
  5
19D5C
  8
0
 10
4511.3716953522352924
 20
476.8580204637776205
 30
0.0
 40
8.2926911466816833
 50
241.9492666306634874
 51
298.0507333693365126
  0
ARC
  5
19D5D
  8
0
 10
4512.6854485818948888
 20
473.9557989934262991
 30
0.0
 40
5.1177140265602432
 50
300.3503660662302082
 51
331.0310448702047097
  0
ARC
  5
19D5E
  8
0
 10
4511.3716953522352924
 20
470.2519411829576939
 30
0.0
 40
7.0952898915343354
 50
66.656802540344728
 51
113.343197459655201
  0
ARC
  5
19D5F
  8
0
 10
4511.96298738418227
 20
477.4893597187094088
 30
0.0
 40
0.0327400554939415
 50
291.3222011096966071
 51
55.0480697885273926
  0
ARC
  5
19D60
  8
0
 10
4511.3716953522352924
 20
475.6980197094418941
 30
0.0
 40
1.94993837428841
 50
80.2232829383557942
 51
99.7767170616442201
  0
ARC
  5
19D61
  8
0
 10
4511.6297928843468981
 20
476.99496455849021
 30
0.0
 40
0.6289277777829176
 50
55.9715380495961696
 51
83.3328202434692145
  0
ARC
  5
19D62
  8
0
 10
4511.3716953522352924
 20
484.395173290061507
 30
0.0
 40
6.9924431068632611
 50
267.3487614376981014
 51
272.6512385623020123
  0
ARC
  5
19D63
  8
0
 10
4511.6428346271795817
 20
478.5397329506034794
 30
0.0
 40
1.1307285048597651
 50
272.6513468745641831
 51
287.0776111080585906
  0
CIRCLE
  5
19D64
  8
0
 10
4511.3717083634346636
 20
475.8449605651094885
 30
0.0
 40
0.6299212597999997
  0
ARC
  5
19D65
  8
0
 10
4511.3716957773967806
 20
479.5344433577021732
 30
0.0
 40
4.0380929608121834
 50
262.2060687772943766
 51
277.7943221321505121
  0
ARC
  5
19D66
  8
0
 10
4511.3716953522352924
 20
474.0573142506606814
 30
0.0
 40
3.796863226031804
 50
243.2184423103300901
 51
296.7815576896699099
  0
ARC
  5
19D67
  8
0
 10
4512.7994695542056434
 20
474.3545623340277189
 30
0.0
 40
3.0981867544898121
 50
331.708256294934074
 51
28.2917437050659295
  0
ARC
  5
19D68
  8
0
 10
4511.2910147929824234
 20
475.0988865382391282
 30
0.0
 40
4.7796017709457619
 50
292.0134420233055721
 51
332.4219875932129753
  0
ARC
  5
19D69
  8
0
 10
4512.6459524371266525
 20
473.1463870312672952
 30
0.0
 40
3.9329192755874649
 50
42.8875873097249567
 51
66.9928576747527131
  0
ARC
  5
19D6A
  8
0
 10
4516.7610285199498321
 20
479.9650426054703871
 30
0.0
 40
0.4057313460650052
 50
344.1669865329262734
 51
352.0350910029479792
  0
ARC
  5
19D6B
  8
0
 10
4516.1567575157960164
 20
480.1364101822086923
 30
0.0
 40
1.0338318896226959
 50
309.6036836299733181
 51
344.1669865329262734
  0
ARC
  5
19D6C
  8
0
 10
4516.0836620441614286
 20
480.2451657645192995
 30
0.0
 40
1.164294175715485
 50
274.0798789676456977
 51
308.9634006041241037
  0
ARC
  5
19D6D
  8
0
 10
4515.6976766321486139
 20
485.6558072582902241
 30
0.0
 40
6.5886859491639891
 50
264.8350103802918056
 51
274.0803614351976876
  0
ARC
  5
19D6E
  8
0
 10
4513.6174081291419498
 20
462.6417106083342787
 30
0.0
 40
16.5192382686906996
 50
84.8350103802918767
 51
93.1530712116916959
  0
ARC
  5
19D6F
  8
0
 10
4512.5670332725640037
 20
481.0427904779904793
 30
0.0
 40
1.9121110530363561
 50
257.725175191828896
 51
274.2515606864835718
  0
ARC
  5
19D70
  8
0
 10
4511.3716953522352924
 20
471.100370561579382
 30
0.0
 40
8.1124633414544132
 50
84.4199879329389802
 51
95.580012067061034
  0
LINE
  5
19D71
  8
0
 10
4512.1605169016347645
 20
481.7504723761094851
 30
0.0
 11
4512.1605164326347222
 21
479.1743920360095217
 31
0.0
  0
LINE
  5
19D72
  8
0
 10
4505.5805448800347222
 20
481.7504723761094851
 30
0.0
 11
4505.5805448800347222
 21
479.9088217997526158
 31
0.0
  0
ARC
  5
19D73
  8
0
 10
4509.2037329538343329
 20
473.6019888663058168
 30
0.0
 40
4.2003109424999918
 50
149.6097723286343921
 51
210.3902276713656079
  0
ARC
  5
19D74
  8
0
 10
4516.784097089169336
 20
475.4721179292729971
 30
0.0
 40
11.9997456376270701
 50
167.6952279408430115
 51
192.3047720591569885
  0
ARC
  5
19D75
  8
0
 10
4530.8965313556127512
 20
473.0286892980502103
 30
0.0
 40
26.3160199423149201
 50
164.1539954292996981
 51
169.045726054168199
  0
ARC
  5
19D76
  8
0
 10
4510.3087552054057596
 20
472.7305712058335985
 30
0.0
 40
5.5976584262584179
 50
118.0092272733834022
 51
147.6372882116056928
  0
ARC
  5
19D77
  8
0
 10
4510.057942122573877
 20
473.9557989934262991
 30
0.0
 40
5.1177140265602432
 50
208.968955129795205
 51
239.6496339337697918
  0
ARC
  5
19D78
  8
0
 10
4510.7804033202874052
 20
477.4893597187094088
 30
0.0
 40
0.0327400554939415
 50
124.9519302114726003
 51
248.6777988903035066
  0
ARC
  5
19D79
  8
0
 10
4511.1135978201227772
 20
476.99496455849021
 30
0.0
 40
0.6289277777829176
 50
96.6671797565307855
 51
124.0284619504037948
  0
ARC
  5
19D7A
  8
0
 10
4511.1005560772900935
 20
478.5397329506034794
 30
0.0
 40
1.1307285048597651
 50
252.9223888919414094
 51
267.3486531254358169
  0
ARC
  5
19D7B
  8
0
 10
4509.9439211502640319
 20
474.3545623340277189
 30
0.0
 40
3.0981867544898192
 50
151.7082562949339888
 51
208.2917437050658975
  0
ARC
  5
19D7C
  8
0
 10
4511.4523759114872519
 20
475.0988865382391282
 30
0.0
 40
4.7796017709457619
 50
207.5780124067869963
 51
247.9865579766942858
  0
ARC
  5
19D7D
  8
0
 10
4510.0974382673439322
 20
473.1463870312672952
 30
0.0
 40
3.9329192755874649
 50
113.0071423252473011
 51
137.1124126902749936
  0
ARC
  5
19D7E
  8
0
 10
4505.9823621845198431
 20
479.9650426054703871
 30
0.0
 40
0.4057313460650052
 50
187.9649089970519924
 51
195.8330134670736982
  0
ARC
  5
19D7F
  8
0
 10
4506.5866331886736589
 20
480.1364101822086923
 30
0.0
 40
1.0338318896226959
 50
195.8330134670736982
 51
230.3963163700267103
  0
ARC
  5
19D80
  8
0
 10
4506.6597286603082466
 20
480.2451657645192995
 30
0.0
 40
1.164294175715485
 50
231.0365993958758111
 51
265.9201210323543023
  0
ARC
  5
19D81
  8
0
 10
4507.0457140723210614
 20
485.6558072582902241
 30
0.0
 40
6.5886859491639891
 50
265.9196385648021987
 51
275.1649896197080807
  0
ARC
  5
19D82
  8
0
 10
4509.125982575326816
 20
462.6417106083342787
 30
0.0
 40
16.5192382686906996
 50
86.8469287883083041
 51
95.1649896197081233
  0
ARC
  5
19D83
  8
0
 10
4510.1763574319047621
 20
481.0427904779904793
 30
0.0
 40
1.9121110530363561
 50
265.7484393135164282
 51
282.2748248081709903
  0
LINE
  5
19D84
  8
0
 10
4510.5828738028340013
 20
481.7504723761094851
 30
0.0
 11
4510.5828742718349531
 21
479.1743920360095217
 31
0.0
  0
ENDSEC
  0
EOF
