  0
SECTION
  2
HEADER
  9
$ACADVER
  1
AC1009
  9
$INSBASE
 10
3476.0829383364439309
 20
188.7772040951385861
 30
0.0
  9
$EXTMIN
 10
3457.541599753843002
 20
186.0212985832885977
 30
0.0
  9
$EXTMAX
 10
3476.0829383364439309
 20
190.0705111817385955
 30
0.0
  9
$LIMMIN
 10
0.0
 20
0.0
  9
$LIMMAX
 10
11.6929133858000007
 20
8.2677165353999982
  9
$ORTHOMODE
 70
     0
  9
$REGENMODE
 70
     1
  9
$FILLMODE
 70
     1
  9
$QTEXTMODE
 70
     0
  9
$MIRRTEXT
 70
     0
  9
$DRAGMODE
 70
     2
  9
$LTSCALE
 40
0.6431102362
  9
$OSMODE
 70
  3839
  9
$ATTMODE
 70
     1
  9
$TEXTSIZE
 40
0.2
  9
$TRACEWID
 40
0.05
  9
$TEXTSTYLE
  7
STANDARD
  9
$CLAYER
  8
0
  9
$CELTYPE
  6
BYLAYER
  9
$CECOLOR
 62
   256
  9
$DIMSCALE
 40
1.0
  9
$DIMASZ
 40
0.1875
  9
$DIMEXO
 40
0.0625
  9
$DIMDLI
 40
0.4443307087
  9
$DIMRND
 40
0.0
  9
$DIMDLE
 40
0.0
  9
$DIMEXE
 40
0.125
  9
$DIMTP
 40
0.01
  9
$DIMTM
 40
0.01
  9
$DIMTXT
 40
2.0
  9
$DIMCEN
 40
0.1052362205
  9
$DIMTSZ
 40
0.0
  9
$DIMTOL
 70
     1
  9
$DIMLIM
 70
     0
  9
$DIMTIH
 70
     1
  9
$DIMTOH
 70
     1
  9
$DIMSE1
 70
     0
  9
$DIMSE2
 70
     0
  9
$DIMTAD
 70
     0
  9
$DIMZIN
 70
     0
  9
$DIMBLK
  1

  9
$DIMASO
 70
     1
  9
$DIMSHO
 70
     1
  9
$DIMPOST
  1
\X
  9
$DIMAPOST
  1

  9
$DIMALT
 70
     1
  9
$DIMALTD
 70
     2
  9
$DIMALTF
 40
25.3999999999999986
  9
$DIMLFAC
 40
1.0
  9
$DIMTOFL
 70
     0
  9
$DIMTVP
 40
0.0
  9
$DIMTIX
 70
     0
  9
$DIMSOXD
 70
     0
  9
$DIMSAH
 70
     0
  9
$DIMBLK1
  1

  9
$DIMBLK2
  1

  9
$DIMSTYLE
  2
STANDARD
  9
$DIMCLRD
 70
     0
  9
$DIMCLRE
 70
     0
  9
$DIMCLRT
 70
     0
  9
$DIMTFAC
 40
1.0
  9
$DIMGAP
 40
0.09
  9
$LUNITS
 70
     2
  9
$LUPREC
 70
     4
  9
$SKETCHINC
 40
0.1
  9
$FILLETRAD
 40
0.0
  9
$AUNITS
 70
     0
  9
$AUPREC
 70
     0
  9
$MENU
  1
.
  9
$ELEVATION
 40
0.0
  9
$PELEVATION
 40
0.0
  9
$THICKNESS
 40
0.0
  9
$LIMCHECK
 70
     0
  9
$BLIPMODE
 70
     0
  9
$CHAMFERA
 40
0.0
  9
$CHAMFERB
 40
0.0
  9
$SKPOLY
 70
     0
  9
$TDCREATE
 40
2458060.468368056230247
  9
$TDUPDATE
 40
2459089.9767708331346512
  9
$TDINDWG
 40
0.7072061343
  9
$TDUSRTIMER
 40
0.7072061343
  9
$USRTIMER
 70
     1
  9
$ANGBASE
 50
0.0
  9
$ANGDIR
 70
     0
  9
$PDMODE
 70
     0
  9
$PDSIZE
 40
0.3125
  9
$PLINEWID
 40
0.0
  9
$COORDS
 70
     1
  9
$SPLFRAME
 70
     0
  9
$SPLINETYPE
 70
     6
  9
$SPLINESEGS
 70
     8
  9
$ATTDIA
 70
     1
  9
$ATTREQ
 70
     1
  9
$HANDLING
 70
     1
  9
$HANDSEED
  5
9C05
  9
$SURFTAB1
 70
     6
  9
$SURFTAB2
 70
     6
  9
$SURFTYPE
 70
     6
  9
$SURFU
 70
     6
  9
$SURFV
 70
     6
  9
$UCSNAME
  2

  9
$UCSORG
 10
0.0
 20
0.0
 30
0.0
  9
$UCSXDIR
 10
1.0
 20
0.0
 30
0.0
  9
$UCSYDIR
 10
0.0
 20
1.0
 30
0.0
  9
$PUCSNAME
  2

  9
$PUCSORG
 10
0.0
 20
0.0
 30
0.0
  9
$PUCSXDIR
 10
1.0
 20
0.0
 30
0.0
  9
$PUCSYDIR
 10
0.0
 20
1.0
 30
0.0
  9
$USERI1
 70
     0
  9
$USERI2
 70
     0
  9
$USERI3
 70
     0
  9
$USERI4
 70
     0
  9
$USERI5
 70
     0
  9
$USERR1
 40
0.0
  9
$USERR2
 40
0.0
  9
$USERR3
 40
0.0
  9
$USERR4
 40
0.0
  9
$USERR5
 40
0.0
  9
$WORLDVIEW
 70
     1
  9
$SHADEDGE
 70
     3
  9
$SHADEDIF
 70
    70
  9
$TILEMODE
 70
     1
  9
$MAXACTVP
 70
    64
  9
$PLIMCHECK
 70
     0
  9
$PEXTMIN
 10
1.0000000000000000E+20
 20
1.0000000000000000E+20
 30
1.0000000000000000E+20
  9
$PEXTMAX
 10
-1.0000000000000000E+20
 20
-1.0000000000000000E+20
 30
-1.0000000000000000E+20
  9
$PLIMMIN
 10
0.0
 20
0.0
  9
$PLIMMAX
 10
12.0
 20
9.0
  9
$UNITMODE
 70
     0
  9
$VISRETAIN
 70
     1
  9
$PLINEGEN
 70
     0
  9
$PSLTSCALE
 70
     1
  0
ENDSEC
  0
SECTION
  2
TABLES
  0
TABLE
  2
VPORT
 70
     1
  0
VPORT
  2
*ACTIVE
 70
     0
 10
0.0
 20
0.0
 11
1.0
 21
1.0
 12
0.0
 22
0.0
 13
0.0
 23
0.0
 14
1.0
 24
1.0
 15
0.0
 25
0.0
 16
0.0
 26
0.0
 36
78.7901487399072806
 17
3466.812255859375
 27
188.0459060668945028
 37
0.0
 40
18.9785000842403093
 41
3.314341846758349
 42
50.0
 43
0.0
 44
0.0
 50
0.0
 51
0.0
 71
     0
 72
   100
 73
     1
 74
     1
 75
     0
 76
     0
 77
     0
 78
     0
  0
ENDTAB
  0
TABLE
  2
LTYPE
 70
     2
  0
LTYPE
  2
CONTINUOUS
 70
     0
  3
Solid line
 72
    65
 73
     0
 40
0.0
  0
LTYPE
  2
PHANTOM2
 70
     0
  3
___ _ _ ___ _ _ ___ _ _ ___ _ _
 72
    65
 73
     6
 40
1.25
 49
0.625
 49
-0.125
 49
0.125
 49
-0.125
 49
0.125
 49
-0.125
  0
ENDTAB
  0
TABLE
  2
LAYER
 70
     2
  0
LAYER
  2
0
 70
     0
 62
   255
  6
CONTINUOUS
  0
LAYER
  2
DEFPOINTS
 70
     0
 62
     7
  6
CONTINUOUS
  0
ENDTAB
  0
TABLE
  2
STYLE
 70
     1
  0
STYLE
  2
STANDARD
 70
     0
 40
0.0
 41
0.8
 50
0.0
 71
     0
 42
0.2
  3
txt
  4

  0
ENDTAB
  0
TABLE
  2
VIEW
 70
     0
  0
ENDTAB
  0
TABLE
  2
UCS
 70
     0
  0
ENDTAB
  0
TABLE
  2
APPID
 70
     9
  0
APPID
  2
ACAD
 70
     0
  0
APPID
  2
ACAD_MLEADERVER
 70
     0
  0
APPID
  2
ACAD_EXEMPT_FROM_CAD_STANDARDS
 70
     0
  0
APPID
  2
ACAD_NAV_VCDISPLAY
 70
     0
  0
APPID
  2
ACAECLAYERSTANDARD
 70
     0
  0
APPID
  2
ACCMTRANSPARENCY
 70
     0
  0
APPID
  2
ACAD_DSTYLE_DIMJAG
 70
     0
  0
APPID
  2
ACAD_DSTYLE_DIMTALN
 70
     0
  0
APPID
  2
ACDBATTR
 70
     0
  0
ENDTAB
  0
TABLE
  2
DIMSTYLE
 70
     1
  0
DIMSTYLE
  2
STANDARD
 70
     0
  3

  4

  5

  6

  7

 40
1.0
 41
0.1875
 42
0.0625
 43
0.38
 44
0.125
 45
0.0
 46
0.0
 47
0.01
 48
0.01
140
0.15625
141
0.09
142
0.0
143
25.3999999999999986
144
1.0
145
0.0
146
1.0
147
0.09
 71
     1
 72
     0
 73
     1
 74
     1
 75
     0
 76
     0
 77
     0
 78
     4
170
     0
171
     2
172
     0
173
     0
174
     0
175
     0
176
     0
177
     0
178
     0
  0
ENDTAB
  0
ENDSEC
  0
SECTION
  2
BLOCKS
  0
BLOCK
  8
0
  2
$MODEL_SPACE
 70
     0
 10
0.0
 20
0.0
 30
0.0
  3
$MODEL_SPACE
  1

  0
ENDBLK
  5
21
  8
0
  0
BLOCK
 67
     1
  8
0
  2
$PAPER_SPACE
 70
     0
 10
0.0
 20
0.0
 30
0.0
  3
$PAPER_SPACE
  1

  0
ENDBLK
  5
1D
 67
     1
  8
0
  0
BLOCK
  8
0
  2
_FILLED
 70
     0
 10
0.0
 20
0.0
 30
0.0
  3
_FILLED
  1

  0
SOLID
  5
6F59
  8
0
  6
BYBLOCK
 62
     0
 10
0.0
 20
0.0
 30
0.0
 11
-1.0
 21
0.1666666667
 31
0.0
 12
-1.0
 22
-0.1666666667
 32
0.0
 13
-1.0
 23
-0.1666666667
 33
0.0
  0
ENDBLK
  5
6F5A
  8
0
  6
BYBLOCK
 62
     0
  0
ENDSEC
  0
SECTION
  2
ENTITIES
  0
ATTDEF
  5
3930
  8
DEFPOINTS
 10
3476.0717902840210627
 20
188.77598396347571
 30
0.0
 40
0.001
  1
K-16346A
  3

  2
MODELNUMBER
 70
     0
1001
ACDBATTR
1070
     0
1070
     1
  0
ATTDEF
  5
3931
  8
DEFPOINTS
 10
3476.0717902840210627
 20
188.774317296808988
 30
0.0
 40
0.001
  1
MASTERSHOWER
  3

  2
TRADENAME
 70
     0
1001
ACDBATTR
1070
     0
1070
     1
  0
ATTDEF
  5
3932
  8
DEFPOINTS
 10
3476.0717902840210627
 20
188.7726506301422944
 30
0.0
 40
0.001
  1
SHOWER ARM
  3

  2
PRODUCT
 70
     0
1001
ACDBATTR
1070
     0
1070
     1
  0
LINE
  5
9899
  8
0
 10
3459.9727021160438198
 20
189.1512198430885974
 30
0.0
 11
3474.7640406986429298
 21
189.1512198430885974
 31
0.0
  0
LINE
  5
989A
  8
0
 10
3476.0829383364439309
 20
187.4838970085386052
 30
0.0
 11
3476.0829383364439309
 21
190.0705111817385955
 31
0.0
  0
LINE
  5
989B
  8
0
 10
3475.9451430608442024
 20
187.4917710242386022
 30
0.0
 11
3475.9451430608442024
 21
190.0626371660385985
 31
0.0
  0
LINE
  5
989C
  8
0
 10
3475.7876627458431358
 20
187.9171600422884865
 30
0.0
 11
3475.7876627458431358
 21
189.6372481478886982
 31
0.0
  0
LINE
  5
989D
  8
0
 10
3475.9530170766429364
 20
187.4838970085386052
 30
0.0
 11
3476.0829383364439309
 21
187.4838970085386052
 31
0.0
  0
ARC
  5
989E
  8
0
 10
3476.4845462215848784
 20
188.1865078178705915
 30
0.0
 40
0.7530167060350778
 50
203.544348050676092
 51
223.6511719240525053
  0
ARC
  5
989F
  8
0
 10
3475.9239948020072006
 20
187.6521306888566016
 30
0.0
 40
0.0214376341446222
 50
9.4247465013334235
 51
42.9081161856636086
  0
ARC
  5
98A0
  8
0
 10
3475.8663936982011364
 20
187.9171590932712093
 30
0.0
 40
0.0787309523628109
 50
179.9993093607241121
 51
203.5448516531828886
  0
ARC
  5
98A1
  8
0
 10
3475.9530170766429364
 20
187.4917710242386022
 30
0.0
 40
0.0078740157000041
 50
179.999999999947903
 51
269.9999999999739089
  0
LINE
  5
98A2
  8
0
 10
3474.7837257380429037
 20
188.3047631502386139
 30
0.0
 11
3475.4292330840430623
 21
188.3047631502386139
 31
0.0
  0
LINE
  5
98A3
  8
0
 10
3475.4292330840430623
 20
188.3047631501885917
 30
0.0
 11
3475.4292330840430623
 21
189.249645039988593
 31
0.0
  0
LINE
  5
98A4
  8
0
 10
3474.7640406986429298
 20
188.3244481896385878
 30
0.0
 11
3474.7640406986429298
 21
189.2299600006404035
 31
0.0
  0
ARC
  5
98A5
  8
0
 10
3474.7837257380419942
 20
188.3244481896367972
 30
0.0
 40
0.0196850393982011
 50
179.9999999947823994
 51
270.0000000052370979
  0
LINE
  5
98A6
  8
0
 10
3475.9530170766429364
 20
190.0705111817385955
 30
0.0
 11
3476.0829383364439309
 21
190.0705111817385955
 31
0.0
  0
ARC
  5
98A7
  8
0
 10
3476.4845556476220736
 20
189.3678927785844053
 30
0.0
 40
0.7530287679865117
 50
136.348905075523902
 51
156.4552001565091928
  0
ARC
  5
98A8
  8
0
 10
3475.9239948020072006
 20
189.9022775013206115
 30
0.0
 40
0.0214376341446222
 50
317.0918838143364269
 51
350.5752534986650062
  0
ARC
  5
98A9
  8
0
 10
3475.866402903342987
 20
189.6372481478886982
 30
0.0
 40
0.0787401574997444
 50
156.4551960423854098
 51
180.0
  0
ARC
  5
98AA
  8
0
 10
3475.9530170766429364
 20
190.0626371660385985
 30
0.0
 40
0.0078740157000041
 50
90.0000000000260485
 51
180.000000000052097
  0
LINE
  5
98AB
  8
0
 10
3475.4788818793599603
 20
189.3087001580886124
 30
0.0
 11
3475.7876627458431358
 21
189.3087001580886124
 31
0.0
  0
LINE
  5
98AC
  8
0
 10
3474.7837257380429037
 20
189.2496450400385868
 30
0.0
 11
3475.4292330840430623
 21
189.2496450400385868
 31
0.0
  0
ARC
  5
98AD
  8
0
 10
3474.7837257380419942
 20
189.2299600006404035
 30
0.0
 40
0.0196850393982011
 50
89.9999999947629163
 51
180.0000000052158953
  0
ARC
  5
98AE
  8
0
 10
3475.4292330841431067
 20
189.25751905568859
 30
0.0
 40
0.007874015700061
 50
269.9999992724372078
 51
324.999999999706688
  0
LINE
  5
98AF
  8
0
 10
3475.435683100201004
 20
189.2530027058236044
 30
0.0
 11
3475.4723452517428086
 21
189.305361684488588
 31
0.0
  0
ARC
  5
98B0
  8
0
 10
3475.4788727960408323
 20
189.3006494492227887
 30
0.0
 40
0.008050713989975
 50
89.9353552934821892
 51
144.1744761367197896
  0
ARC
  5
98B1
  8
0
 10
3476.133100002160063
 20
189.0371485217287102
 30
0.0
 40
0.6577676730673995
 50
156.500197857671111
 51
202.7902307574915994
  0
ARC
  5
98B2
  8
0
 10
3475.5147660812381218
 20
188.7772039777042892
 30
0.0
 40
0.0129848210384827
 50
336.6211438195961136
 51
23.3798925430726783
  0
LINE
  5
98B3
  8
0
 10
3475.527750902275784
 20
188.7772040951385861
 30
0.0
 11
3475.7876627458431358
 21
188.7772040951385861
 31
0.0
  0
ARC
  5
98B4
  8
0
 10
3475.5219094828198649
 20
189.3029755775226022
 30
0.0
 40
0.0087293217308665
 50
336.0405398648666733
 51
40.97939365085562
  0
LINE
  5
98B5
  8
0
 10
3475.4788818793599603
 20
188.2457080321885883
 30
0.0
 11
3475.7876627458431358
 21
188.2457080321885883
 31
0.0
  0
ARC
  5
98B6
  8
0
 10
3475.4292330841431067
 20
188.296889134588497
 30
0.0
 40
0.007874015700061
 50
35.0000000002932623
 51
90.0000007275627354
  0
LINE
  5
98B7
  8
0
 10
3475.435683100201004
 20
188.3014054844535963
 30
0.0
 11
3475.4723452517428086
 21
188.2490465057886126
 31
0.0
  0
ARC
  5
98B8
  8
0
 10
3475.4788727960408323
 20
188.253758741054412
 30
0.0
 40
0.008050713989975
 50
215.8255238632802104
 51
270.0646447065178108
  0
ARC
  5
98B9
  8
0
 10
3476.133099422730993
 20
188.5172595461552874
 30
0.0
 40
0.6577670928916488
 50
157.2097382667070065
 51
203.4998124908312889
  0
ARC
  5
98BA
  8
0
 10
3475.5219094828198649
 20
188.2514326127545985
 30
0.0
 40
0.0087293217308665
 50
319.0206063491443729
 51
23.9594601351332592
  0
LINE
  5
98BB
  8
0
 10
3459.9727021160438198
 20
188.4031883470885873
 30
0.0
 11
3474.7640406986429298
 21
188.4031883470885873
 31
0.0
  0
LINE
  5
98BC
  8
0
 10
3458.378213927042907
 20
186.8087001580886124
 30
0.0
 11
3458.378213927042907
 21
186.5724796856885916
 31
0.0
  0
LINE
  5
98BD
  8
0
 10
3458.466796604243882
 20
186.5646056698886071
 30
0.0
 11
3458.466796604243882
 21
186.414999370688605
 31
0.0
  0
LINE
  5
98BE
  8
0
 10
3458.4589225884437838
 20
186.5724796856885916
 30
0.0
 11
3457.5494737698850258
 21
186.5724796856885916
 31
0.0
  0
ARC
  5
98BF
  8
0
 10
3458.4589225882018582
 20
186.5646056696471931
 30
0.0
 40
0.0078740160414004
 50
0.0000017565536861
 51
89.9999982434169965
  0
LINE
  5
98C0
  8
0
 10
3458.466796604243882
 20
186.414999370688605
 30
0.0
 11
3457.5415997538439115
 21
186.414999370688605
 31
0.0
  0
LINE
  5
98C1
  8
0
 10
3457.5919498198431938
 20
186.0212985832885977
 30
0.0
 11
3458.3952781787438653
 21
186.0212985832885977
 31
0.0
  0
LINE
  5
98C2
  8
0
 10
3458.4163105075499516
 20
186.2960825876137108
 30
0.0
 11
3458.4147635993558652
 21
186.2968891344885947
 31
0.0
  0
LINE
  5
98C3
  8
0
 10
3458.4175840058428548
 20
186.2713378605602941
 30
0.0
 11
3458.4175975049438421
 21
186.2951353106367094
 31
0.0
  0
LINE
  5
98C4
  8
0
 10
3458.3724207475961521
 20
186.2475872928324065
 30
0.0
 11
3458.4170108674411495
 21
186.2707413791374904
 31
0.0
  0
ARC
  5
98C5
  8
0
 10
3458.4154439170051774
 20
186.29355729901161
 30
0.0
 40
0.0026698430097316
 50
36.2315791624311174
 51
71.0595759333589427
  0
ARC
  5
98C6
  8
0
 10
3458.6073946868559688
 20
186.0883817365321136
 30
0.0
 40
0.2636304950985489
 50
136.0534546634551134
 51
136.2332354861802912
  0
ARC
  5
98C7
  8
0
 10
3457.9584073422452093
 20
179.9325686317363022
 30
0.0
 40
6.3164013362624107
 50
91.0405697088483663
 51
93.082454188365702
  0
ARC
  5
98C8
  8
0
 10
3462.1571620989511757
 20
40.1664399346603531
 30
0.0
 40
146.1451580061882964
 50
91.5637717042160375
 51
91.6913260838993978
  0
ARC
  5
98C9
  8
0
 10
3457.8343777275931643
 20
197.3868840765638026
 30
0.0
 40
11.1347418134487892
 50
271.7217188236992911
 51
272.6905230185022901
  0
ARC
  5
98CA
  8
0
 10
3458.3547150130539194
 20
186.5530158074666076
 30
0.0
 40
0.2886086901460297
 50
270.4647860578950258
 51
282.5818873562893145
  0
ARC
  5
98CB
  8
0
 10
3458.0153485093378549
 20
179.2708822085052134
 30
0.0
 40
7.0039571735020729
 50
91.4073141844246067
 51
93.2529789229884329
  0
ARC
  5
98CC
  8
0
 10
3326.5994116936799401
 20
4836.1447737632570352
 30
0.0
 40
4651.7238762226143081
 50
271.6167599318876
 51
271.6207673441602992
  0
ARC
  5
98CD
  8
0
 10
3457.8987204644017766
 20
196.1256803649091012
 30
0.0
 40
9.8474603870099973
 50
271.5701905000460101
 51
272.6641270752842274
  0
ARC
  5
98CE
  8
0
 10
3458.3270758515691341
 20
187.0130488970206102
 30
0.0
 40
0.7247806206754678
 50
272.3219966658373892
 51
276.7394461431517243
  0
ARC
  5
98CF
  8
0
 10
3458.4117841340580526
 20
186.3032636059139975
 30
0.0
 40
0.009993220960478
 50
271.9954488327414879
 51
305.5724157389803963
  0
LINE
  5
98D0
  8
0
 10
3458.4147635993558652
 20
186.2968891344885947
 30
0.0
 11
3457.6097263206388561
 21
186.2968891344885947
 31
0.0
  0
LINE
  5
98D1
  8
0
 10
3457.5920858505360229
 20
186.2603817457163018
 30
0.0
 11
3457.6359151603178361
 21
186.2832340345256057
 31
0.0
  0
LINE
  5
98D2
  8
0
 10
3457.5908123522431197
 20
186.2356370186627998
 30
0.0
 11
3457.5907988531430419
 21
186.2594344687393004
 31
0.0
  0
LINE
  5
98D3
  8
0
 10
3457.6359756104911867
 20
186.2118864509349976
 30
0.0
 11
3457.591385490644825
 21
186.2350405372401099
 31
0.0
  0
ARC
  5
98D4
  8
0
 10
3457.5929524410807971
 20
186.2578564571140873
 30
0.0
 40
0.0026698430097316
 50
108.9404240666410004
 51
143.7684208375688115
  0
ARC
  5
98D5
  8
0
 10
3457.4010016712309152
 20
186.0526808946345909
 30
0.0
 40
0.2636304950985489
 50
43.7667645138197088
 51
43.9465453365448369
  0
ARC
  5
98D6
  8
0
 10
3457.6229388579990882
 20
186.1167824757451115
 30
0.0
 40
0.1231199201763574
 50
91.9472466161255255
 51
105.1256498981780965
  0
ARC
  5
98D7
  8
0
 10
3457.6214288490291437
 20
186.1491260020445111
 30
0.0
 40
0.1144821142033674
 50
91.7608383860448953
 51
105.5186885040145057
  0
LINE
  5
98D8
  8
0
 10
3458.4163105075499516
 20
186.2247034857348922
 30
0.0
 11
3458.3724207475961521
 21
186.2475872928324065
 31
0.0
  0
LINE
  5
98D9
  8
0
 10
3458.4175840058428548
 20
186.1999587586813902
 30
0.0
 11
3458.4175975049438421
 21
186.2237562087578908
 31
0.0
  0
LINE
  5
98DA
  8
0
 10
3458.3729943413432011
 20
186.1765060380814134
 30
0.0
 11
3458.4170108674411495
 21
186.1993622772587003
 31
0.0
  0
ARC
  5
98DB
  8
0
 10
3458.4154439170051774
 20
186.2221781971327914
 30
0.0
 40
0.0026698430097316
 50
36.2315791624311174
 51
71.0595759333589427
  0
ARC
  5
98DC
  8
0
 10
3458.6073946868559688
 20
186.017002634653295
 30
0.0
 40
0.2636304950985489
 50
136.0534546634551134
 51
136.2332354861802912
  0
ARC
  5
98DD
  8
0
 10
3457.9584073422452093
 20
179.8611895298575121
 30
0.0
 40
6.3164013362624107
 50
91.0405697088483663
 51
93.082454188365702
  0
ARC
  5
98DE
  8
0
 10
3462.1571620989511757
 20
40.095060832781563
 30
0.0
 40
146.1451580061882964
 50
91.5637717042160375
 51
91.6913260838993978
  0
ARC
  5
98DF
  8
0
 10
3457.8343777275931643
 20
197.3155049746850125
 30
0.0
 40
11.1347418134487892
 50
271.7217188236992911
 51
272.6905230185022901
  0
ARC
  5
98E0
  8
0
 10
3458.3547150130539194
 20
186.481636705587789
 30
0.0
 40
0.2886086901460297
 50
270.4647860578950258
 51
282.5818873562893145
  0
ARC
  5
98E1
  8
0
 10
3458.0153485093378549
 20
179.1995031066263948
 30
0.0
 40
7.0039571735020729
 50
91.4073141844246067
 51
93.2529789229884329
  0
ARC
  5
98E2
  8
0
 10
3326.5994116936799401
 20
4836.0733946613781882
 30
0.0
 40
4651.7238762226143081
 50
271.6167599318876
 51
271.6207673441602992
  0
ARC
  5
98E3
  8
0
 10
3457.8987204644017766
 20
196.054301263030311
 30
0.0
 40
9.8474603870099973
 50
271.5701905000460101
 51
272.6641270752842274
  0
ARC
  5
98E4
  8
0
 10
3458.3270758515691341
 20
186.9416697951417916
 30
0.0
 40
0.7247806206754678
 50
272.3219966658373892
 51
276.7394461431517243
  0
ARC
  5
98E5
  8
0
 10
3458.4117841340580526
 20
186.2318845040350936
 30
0.0
 40
0.009993220960478
 50
271.9954488327414879
 51
305.5724157389803963
  0
LINE
  5
98E6
  8
0
 10
3457.5920858505360229
 20
186.1890026438375116
 30
0.0
 11
3457.6359756104911867
 21
186.2118864509349976
 31
0.0
  0
LINE
  5
98E7
  8
0
 10
3457.5908123522431197
 20
186.1642579167840097
 30
0.0
 11
3457.5907988531430419
 21
186.1880553668605103
 31
0.0
  0
LINE
  5
98E8
  8
0
 10
3457.6359767833569094
 20
186.1405067400280871
 30
0.0
 11
3457.591385490644825
 21
186.1636614353612913
 31
0.0
  0
ARC
  5
98E9
  8
0
 10
3457.5929524410807971
 20
186.1864773552352972
 30
0.0
 40
0.0026698430097316
 50
108.9404240666410004
 51
143.7684208375688115
  0
ARC
  5
98EA
  8
0
 10
3457.4010016712309152
 20
185.9813017927558008
 30
0.0
 40
0.2636304950985489
 50
43.7667645138197088
 51
43.9465453365448369
  0
ARC
  5
98EB
  8
0
 10
3457.6229388579990882
 20
186.0454033738662929
 30
0.0
 40
0.1231199201763574
 50
91.9472466161255255
 51
105.1256498981780965
  0
ARC
  5
98EC
  8
0
 10
3457.6214288490291437
 20
186.0777469001656073
 30
0.0
 40
0.1144821142033674
 50
91.7608383860448953
 51
105.5186885040145057
  0
LINE
  5
98ED
  8
0
 10
3458.4168841012970006
 20
186.1536222309840127
 30
0.0
 11
3458.3729943413432011
 21
186.1765060380814134
 31
0.0
  0
LINE
  5
98EE
  8
0
 10
3458.4181575995908133
 20
186.1288775039305108
 30
0.0
 11
3458.4181710986908911
 21
186.1526749540070114
 31
0.0
  0
LINE
  5
98EF
  8
0
 10
3458.3735679350911596
 20
186.1054247833305055
 30
0.0
 11
3458.417584461189108
 21
186.1282810225077924
 31
0.0
  0
ARC
  5
98F0
  8
0
 10
3458.4160175107522264
 20
186.1510969423817983
 30
0.0
 40
0.0026698430097316
 50
36.2315791624311174
 51
71.0595759333589427
  0
ARC
  5
98F1
  8
0
 10
3458.6079682806030178
 20
185.9459213799023019
 30
0.0
 40
0.2636304950985489
 50
136.0534546634551134
 51
136.2332354861802912
  0
ARC
  5
98F2
  8
0
 10
3457.9589809359918036
 20
179.7901082751066042
 30
0.0
 40
6.3164013362624107
 50
91.0405697088483663
 51
93.082454188365702
  0
ARC
  5
98F3
  8
0
 10
3462.1577356926991342
 20
40.0239795780306267
 30
0.0
 40
146.1451580061882964
 50
91.5637717042160375
 51
91.6913260838993978
  0
ARC
  5
98F4
  8
0
 10
3457.8349513213402133
 20
197.2444237199341046
 30
0.0
 40
11.1347418134487892
 50
271.7217188236992911
 51
272.6905230185022901
  0
ARC
  5
98F5
  8
0
 10
3458.3552886068009684
 20
186.4105554508369096
 30
0.0
 40
0.2886086901460297
 50
270.4647860578950258
 51
282.5818873562893145
  0
ARC
  5
98F6
  8
0
 10
3458.0159221030849039
 20
179.1284218518754869
 30
0.0
 40
7.0039571735020729
 50
91.4073141844246067
 51
93.2529789229884329
  0
ARC
  5
98F7
  8
0
 10
3326.5999852874269891
 20
4836.002313406626854
 30
0.0
 40
4651.7238762226143081
 50
271.6167599318876
 51
271.6207673441602992
  0
ARC
  5
98F8
  8
0
 10
3457.8992940581488256
 20
195.9832200082794031
 30
0.0
 40
9.8474603870099973
 50
271.5701905000460101
 51
272.6641270752842274
  0
ARC
  5
98F9
  8
0
 10
3458.3276494453170926
 20
186.8705885403907985
 30
0.0
 40
0.7247806206754678
 50
272.3219966658373892
 51
276.7394461431517243
  0
ARC
  5
98FA
  8
0
 10
3458.4123577278051016
 20
186.1608032492842142
 30
0.0
 40
0.009993220960478
 50
271.9954488327414879
 51
305.5724157389803963
  0
LINE
  5
98FB
  8
0
 10
3457.5926594442839814
 20
186.1179213890866038
 30
0.0
 11
3457.6365492042377809
 21
186.1408051961840044
 31
0.0
  0
LINE
  5
98FC
  8
0
 10
3457.5913859459910782
 20
186.0931766620331018
 30
0.0
 11
3457.5913724468900909
 21
186.1169741121094887
 31
0.0
  0
LINE
  5
98FD
  8
0
 10
3457.6365503771039585
 20
186.0694254852770939
 30
0.0
 11
3457.5919590843918741
 21
186.0925801806102982
 31
0.0
  0
ARC
  5
98FE
  8
0
 10
3457.5935260348292104
 20
186.1153961004843893
 30
0.0
 40
0.0026698430097316
 50
108.9404240666410004
 51
143.7684208375688115
  0
ARC
  5
98FF
  8
0
 10
3457.4015752649779643
 20
185.9102205380048929
 30
0.0
 40
0.2636304950985489
 50
43.7667645138197088
 51
43.9465453365448369
  0
ARC
  5
9900
  8
0
 10
3457.6235124517461372
 20
185.9743221191154134
 30
0.0
 40
0.1231199201763574
 50
91.9472466161255255
 51
105.1256498981780965
  0
ARC
  5
9901
  8
0
 10
3457.6220024427748285
 20
186.0066656454146994
 30
0.0
 40
0.1144821142033674
 50
91.7608383860448953
 51
105.5186885040145057
  0
LINE
  5
9902
  8
0
 10
3458.4174576950449591
 20
186.0825409762331049
 30
0.0
 11
3458.3735679350911596
 21
186.1054247833305055
 31
0.0
  0
LINE
  5
9903
  8
0
 10
3458.4187311933378624
 20
186.0577962491796029
 30
0.0
 11
3458.4187446924379401
 21
186.0815936992559898
 31
0.0
  0
LINE
  5
9904
  8
0
 10
3458.3721977236491512
 20
186.0333341786771939
 30
0.0
 11
3458.418158054936157
 21
186.0571997677567992
 31
0.0
  0
ARC
  5
9905
  8
0
 10
3458.4165911045001849
 20
186.0800156876308904
 30
0.0
 40
0.0026698430097316
 50
36.2315791624311174
 51
71.0595759333589427
  0
ARC
  5
9906
  8
0
 10
3458.6085418743509763
 20
185.874840125151394
 30
0.0
 40
0.2636304950985489
 50
136.0534546634551134
 51
136.2332354861802912
  0
ARC
  5
9907
  8
0
 10
3462.1583092864461833
 20
39.9528983232796975
 30
0.0
 40
146.1451580061882964
 50
91.5637717042160375
 51
91.7905164352676053
  0
ARC
  5
9908
  8
0
 10
3457.8355249150868076
 20
197.1733424651831115
 30
0.0
 40
11.1347418134487892
 50
271.7217188236992911
 51
272.6905230185022901
  0
ARC
  5
9909
  8
0
 10
3458.3558622005480174
 20
186.3394741960860017
 30
0.0
 40
0.2886086901460297
 50
270.4647860578950258
 51
282.5818873562893145
  0
ARC
  5
990A
  8
0
 10
3458.0164956968342267
 20
179.0573405971246075
 30
0.0
 40
7.0039571735020729
 50
91.4073141844246067
 51
93.2529789229884329
  0
ARC
  5
990B
  8
0
 10
3326.6005588811749476
 20
4835.9312321518764293
 30
0.0
 40
4651.7238762226143081
 50
271.6167599318876
 51
271.6207673441602992
  0
ARC
  5
990C
  8
0
 10
3457.8998676518958746
 20
195.9121387535284953
 30
0.0
 40
9.8474603870099973
 50
271.5701905000460101
 51
272.6641270752842274
  0
ARC
  5
990D
  8
0
 10
3458.3282230390627774
 20
186.7995072856398906
 30
0.0
 40
0.7247806206754678
 50
272.3219966658373892
 51
276.7394461431517243
  0
ARC
  5
990E
  8
0
 10
3458.4129313215530601
 20
186.0897219945331926
 30
0.0
 40
0.009993220960478
 50
271.9954488327414879
 51
305.5724157389803963
  0
LINE
  5
990F
  8
0
 10
3457.5932330380310304
 20
186.0468401343356106
 30
0.0
 11
3457.6371227979861942
 21
186.0697239414330966
 31
0.0
  0
LINE
  5
9910
  8
0
 10
3457.5919599917369851
 20
186.0212985832885977
 30
0.0
 11
3457.5919460406380495
 21
186.0458928573586093
 31
0.0
  0
ARC
  5
9911
  8
0
 10
3457.5940996285758047
 20
186.0443148457335099
 30
0.0
 40
0.0026698430097316
 50
108.9404240666410004
 51
143.7684208375688115
  0
ARC
  5
9912
  8
0
 10
3457.622576036522787
 20
185.9355843906637915
 30
0.0
 40
0.1144821142033674
 50
91.7608383860448953
 51
105.5186885040145057
  0
LINE
  5
9913
  8
0
 10
3457.6371227979861942
 20
186.0697239414330966
 30
0.0
 11
3458.3735679350911596
 21
186.1054247833305055
 31
0.0
  0
LINE
  5
9914
  8
0
 10
3457.6365492042377809
 20
186.1408051961840044
 30
0.0
 11
3458.3729943413432011
 21
186.1765060380814134
 31
0.0
  0
LINE
  5
9915
  8
0
 10
3457.6359756104911867
 20
186.2118864509349976
 30
0.0
 11
3458.3724207475961521
 21
186.2475872928324065
 31
0.0
  0
LINE
  5
9916
  8
0
 10
3457.6359151603178361
 20
186.2832340345256057
 30
0.0
 11
3457.6097263206388561
 21
186.2968891344885947
 31
0.0
  0
LINE
  5
9917
  8
0
 10
3457.6359151603178361
 20
186.2832340345256057
 30
0.0
 11
3457.9321467812851552
 21
186.2968891344885947
 31
0.0
  0
LINE
  5
9918
  8
0
 10
3458.358528887743887
 20
186.2968891344885947
 30
0.0
 11
3458.358528887743887
 21
186.414999370688605
 31
0.0
  0
LINE
  5
9919
  8
0
 10
3457.630182431043977
 20
186.8087001580886124
 30
0.0
 11
3457.630182431043977
 21
186.5724796856885916
 31
0.0
  0
LINE
  5
991A
  8
0
 10
3457.5415997538439115
 20
186.5646056698886071
 30
0.0
 11
3457.5415997538439115
 21
186.414999370688605
 31
0.0
  0
ARC
  5
991B
  8
0
 10
3457.5494737698850258
 20
186.5646056696471931
 30
0.0
 40
0.0078740160414004
 50
90.0000017565830035
 51
179.9999982434447077
  0
LINE
  5
991C
  8
0
 10
3457.6498674703439065
 20
186.2968891344885947
 30
0.0
 11
3457.6498674703439065
 21
186.414999370688605
 31
0.0
  0
ARC
  5
991D
  8
0
 10
3459.9727021160438198
 20
186.8087001580886124
 30
0.0
 40
1.5944881890000051
 50
90.0
 51
180.0
  0
ARC
  5
991E
  8
0
 10
3459.9727021160438198
 20
186.8087001580886124
 30
0.0
 40
2.3425196849999992
 50
90.0
 51
180.0
  0
LINE
  5
9920
  8
0
 10
3458.3952781787438653
 20
186.0212985832885977
 30
0.0
 11
3458.3721977236491512
 21
186.0333341786771939
 31
0.0
  0
ENDSEC
  0
EOF
