  0
SECTION
  2
HEADER
  9
$ACADVER
  1
AC1009
  9
$INSBASE
 10
7026.122108424844555
 20
314.2929096455304148
 30
0.0
  9
$EXTMIN
 10
7024.8288013382443751
 20
295.7515710628304078
 30
0.0
  9
$EXTMAX
 10
7027.4154155114447349
 20
314.2986852497563177
 30
0.0
  9
$LIMMIN
 10
0.0
 20
0.0
  9
$LIMMAX
 10
11.6929133858000007
 20
8.2677165353999982
  9
$ORTHOMODE
 70
     0
  9
$REGENMODE
 70
     1
  9
$FILLMODE
 70
     1
  9
$QTEXTMODE
 70
     0
  9
$MIRRTEXT
 70
     0
  9
$DRAGMODE
 70
     2
  9
$LTSCALE
 40
0.6431102362
  9
$OSMODE
 70
  4095
  9
$ATTMODE
 70
     1
  9
$TEXTSIZE
 40
0.2
  9
$TRACEWID
 40
0.05
  9
$TEXTSTYLE
  7
STANDARD
  9
$CLAYER
  8
0
  9
$CELTYPE
  6
BYLAYER
  9
$CECOLOR
 62
   256
  9
$DIMSCALE
 40
1.0
  9
$DIMASZ
 40
0.1875
  9
$DIMEXO
 40
0.0625
  9
$DIMDLI
 40
0.4443307087
  9
$DIMRND
 40
0.0
  9
$DIMDLE
 40
0.0
  9
$DIMEXE
 40
0.125
  9
$DIMTP
 40
0.01
  9
$DIMTM
 40
0.01
  9
$DIMTXT
 40
2.0
  9
$DIMCEN
 40
0.1052362205
  9
$DIMTSZ
 40
0.0
  9
$DIMTOL
 70
     1
  9
$DIMLIM
 70
     0
  9
$DIMTIH
 70
     1
  9
$DIMTOH
 70
     1
  9
$DIMSE1
 70
     0
  9
$DIMSE2
 70
     0
  9
$DIMTAD
 70
     0
  9
$DIMZIN
 70
     0
  9
$DIMBLK
  1

  9
$DIMASO
 70
     1
  9
$DIMSHO
 70
     1
  9
$DIMPOST
  1
\X
  9
$DIMAPOST
  1

  9
$DIMALT
 70
     1
  9
$DIMALTD
 70
     2
  9
$DIMALTF
 40
25.3999999999999986
  9
$DIMLFAC
 40
1.0
  9
$DIMTOFL
 70
     0
  9
$DIMTVP
 40
0.0
  9
$DIMTIX
 70
     0
  9
$DIMSOXD
 70
     0
  9
$DIMSAH
 70
     0
  9
$DIMBLK1
  1

  9
$DIMBLK2
  1

  9
$DIMSTYLE
  2
STANDARD
  9
$DIMCLRD
 70
     0
  9
$DIMCLRE
 70
     0
  9
$DIMCLRT
 70
     0
  9
$DIMTFAC
 40
1.0
  9
$DIMGAP
 40
0.09
  9
$LUNITS
 70
     2
  9
$LUPREC
 70
     4
  9
$SKETCHINC
 40
0.1
  9
$FILLETRAD
 40
0.0
  9
$AUNITS
 70
     0
  9
$AUPREC
 70
     0
  9
$MENU
  1
.
  9
$ELEVATION
 40
0.0
  9
$PELEVATION
 40
0.0
  9
$THICKNESS
 40
0.0
  9
$LIMCHECK
 70
     0
  9
$BLIPMODE
 70
     0
  9
$CHAMFERA
 40
0.0
  9
$CHAMFERB
 40
0.0
  9
$SKPOLY
 70
     0
  9
$TDCREATE
 40
2458060.468368056230247
  9
$TDUPDATE
 40
2460485.7277777781710029
  9
$TDINDWG
 40
1.2451922454
  9
$TDUSRTIMER
 40
1.2451922454
  9
$USRTIMER
 70
     1
  9
$ANGBASE
 50
0.0
  9
$ANGDIR
 70
     0
  9
$PDMODE
 70
     0
  9
$PDSIZE
 40
0.3125
  9
$PLINEWID
 40
0.0
  9
$COORDS
 70
     1
  9
$SPLFRAME
 70
     0
  9
$SPLINETYPE
 70
     6
  9
$SPLINESEGS
 70
     8
  9
$ATTDIA
 70
     1
  9
$ATTREQ
 70
     1
  9
$HANDLING
 70
     1
  9
$HANDSEED
  5
342BD
  9
$SURFTAB1
 70
     6
  9
$SURFTAB2
 70
     6
  9
$SURFTYPE
 70
     6
  9
$SURFU
 70
     6
  9
$SURFV
 70
     6
  9
$UCSNAME
  2

  9
$UCSORG
 10
0.0
 20
0.0
 30
0.0
  9
$UCSXDIR
 10
1.0
 20
0.0
 30
0.0
  9
$UCSYDIR
 10
0.0
 20
1.0
 30
0.0
  9
$PUCSNAME
  2

  9
$PUCSORG
 10
0.0
 20
0.0
 30
0.0
  9
$PUCSXDIR
 10
1.0
 20
0.0
 30
0.0
  9
$PUCSYDIR
 10
0.0
 20
1.0
 30
0.0
  9
$USERI1
 70
     0
  9
$USERI2
 70
     0
  9
$USERI3
 70
     0
  9
$USERI4
 70
     0
  9
$USERI5
 70
     0
  9
$USERR1
 40
0.0
  9
$USERR2
 40
0.0
  9
$USERR3
 40
0.0
  9
$USERR4
 40
0.0
  9
$USERR5
 40
0.0
  9
$WORLDVIEW
 70
     1
  9
$SHADEDGE
 70
     3
  9
$SHADEDIF
 70
    70
  9
$TILEMODE
 70
     1
  9
$MAXACTVP
 70
    64
  9
$PLIMCHECK
 70
     0
  9
$PEXTMIN
 10
1.0000000000000000E+20
 20
1.0000000000000000E+20
 30
1.0000000000000000E+20
  9
$PEXTMAX
 10
-1.0000000000000000E+20
 20
-1.0000000000000000E+20
 30
-1.0000000000000000E+20
  9
$PLIMMIN
 10
0.0
 20
0.0
  9
$PLIMMAX
 10
12.0
 20
9.0
  9
$UNITMODE
 70
     0
  9
$VISRETAIN
 70
     1
  9
$PLINEGEN
 70
     0
  9
$PSLTSCALE
 70
     1
  0
ENDSEC
  0
SECTION
  2
TABLES
  0
TABLE
  2
VPORT
 70
     1
  0
VPORT
  2
*ACTIVE
 70
     0
 10
0.0
 20
0.0
 11
1.0
 21
1.0
 12
3114.7567519795329645
 22
172.4455230537543002
 13
0.0
 23
0.0
 14
1.0
 24
1.0
 15
0.0
 25
0.0
 16
0.0
 26
0.0
 36
60.4960186965801583
 17
3911.3653564453120453
 27
132.5796051025390057
 37
0.0
 40
18.7134560181987695
 41
2.8368263473053892
 42
50.0
 43
0.0
 44
0.0
 50
0.0
 51
0.0
 71
     0
 72
   100
 73
     1
 74
     1
 75
     0
 76
     0
 77
     0
 78
     0
  0
ENDTAB
  0
TABLE
  2
LTYPE
 70
     2
  0
LTYPE
  2
CONTINUOUS
 70
     0
  3
Solid line
 72
    65
 73
     0
 40
0.0
  0
LTYPE
  2
PHANTOM2
 70
     0
  3
___ _ _ ___ _ _ ___ _ _ ___ _ _
 72
    65
 73
     6
 40
1.25
 49
0.625
 49
-0.125
 49
0.125
 49
-0.125
 49
0.125
 49
-0.125
  0
ENDTAB
  0
TABLE
  2
LAYER
 70
     2
  0
LAYER
  2
0
 70
     0
 62
   255
  6
CONTINUOUS
  0
LAYER
  2
DEFPOINTS
 70
     0
 62
     7
  6
CONTINUOUS
  0
ENDTAB
  0
TABLE
  2
STYLE
 70
     1
  0
STYLE
  2
STANDARD
 70
     0
 40
0.0
 41
0.8
 50
0.0
 71
     0
 42
0.2
  3
txt
  4

  0
ENDTAB
  0
TABLE
  2
VIEW
 70
     0
  0
ENDTAB
  0
TABLE
  2
UCS
 70
     0
  0
ENDTAB
  0
TABLE
  2
APPID
 70
    11
  0
APPID
  2
ACAD
 70
     0
  0
APPID
  2
ACAD_MLEADERVER
 70
     0
  0
APPID
  2
ACAD_EXEMPT_FROM_CAD_STANDARDS
 70
     0
  0
APPID
  2
ACAD_NAV_VCDISPLAY
 70
     0
  0
APPID
  2
ACAECLAYERSTANDARD
 70
     0
  0
APPID
  2
ACCMTRANSPARENCY
 70
     0
  0
APPID
  2
ACAD_DSTYLE_DIMJAG
 70
     0
  0
APPID
  2
ACAD_DSTYLE_DIMTALN
 70
     0
  0
APPID
  2
ACDBATTR
 70
     0
  0
APPID
  2
ACADANNOTATIVE
 70
     0
  0
APPID
  2
DCO15
 70
     0
  0
ENDTAB
  0
TABLE
  2
DIMSTYLE
 70
     1
  0
DIMSTYLE
  2
STANDARD
 70
     0
  3

  4

  5

  6

  7

 40
1.0
 41
0.1875
 42
0.0625
 43
0.38
 44
0.125
 45
0.0
 46
0.0
 47
0.01
 48
0.01
140
0.15625
141
0.09
142
0.0
143
25.3999999999999986
144
1.0
145
0.0
146
1.0
147
0.09
 71
     1
 72
     0
 73
     1
 74
     1
 75
     0
 76
     0
 77
     0
 78
     4
170
     0
171
     2
172
     0
173
     0
174
     0
175
     0
176
     0
177
     0
178
     0
  0
ENDTAB
  0
ENDSEC
  0
SECTION
  2
BLOCKS
  0
BLOCK
  8
0
  2
$MODEL_SPACE
 70
     0
 10
0.0
 20
0.0
 30
0.0
  3
$MODEL_SPACE
  1

  0
ENDBLK
  5
21
  8
0
  0
BLOCK
 67
     1
  8
0
  2
$PAPER_SPACE
 70
     0
 10
0.0
 20
0.0
 30
0.0
  3
$PAPER_SPACE
  1

  0
ENDBLK
  5
1D
 67
     1
  8
0
  0
BLOCK
  8
0
  2
_FILLED
 70
     0
 10
0.0
 20
0.0
 30
0.0
  3
_FILLED
  1

  0
SOLID
  5
2EA00
  8
0
  6
BYBLOCK
 62
     0
 10
0.0
 20
0.0
 30
0.0
 11
-1.0
 21
0.1666666667
 31
0.0
 12
-1.0
 22
-0.1666666667
 32
0.0
 13
-1.0
 23
-0.1666666667
 33
0.0
  0
ENDBLK
  5
2EA01
  8
0
  6
BYBLOCK
 62
     0
  0
ENDSEC
  0
SECTION
  2
ENTITIES
  0
ATTDEF
  5
26A5B
  8
DEFPOINTS
 10
7026.1111525030046323
 20
314.2976852497563982
 30
0.0
 40
0.001
  1
K-16346IN
  3

  2
MODELNUMBER
 70
     0
1001
ACDBATTR
1070
     0
1070
     1
  0
ATTDEF
  5
26A5C
  8
DEFPOINTS
 10
7026.1110266933474122
 20
314.2960184093772114
 30
0.0
 40
0.001
  1
MASTERSHOWER
  3

  2
TRADENAME
 70
     0
1001
ACDBATTR
1070
     0
1070
     1
  0
ATTDEF
  5
26A5D
  8
DEFPOINTS
 10
7026.1111525030046323
 20
314.2943519164230111
 30
0.0
 40
0.001
  1
SHOWER ARM
  3

  2
PRODUCT
 70
     0
1001
ACDBATTR
1070
     0
1070
     1
  0
LINE
  5
3414F
  8
0
 10
7027.4154155114447349
 20
314.2929096455304148
 30
0.0
 11
7024.8288013382443751
 21
314.2929096455304148
 31
0.0
  0
LINE
  5
34150
  8
0
 10
7027.4075414957451358
 20
314.1551143699304021
 30
0.0
 11
7024.8366753539448837
 21
314.1551143699304021
 31
0.0
  0
LINE
  5
34151
  8
0
 10
7026.9821524776461956
 20
313.9976340549304155
 30
0.0
 11
7025.2620643720447333
 21
313.9976340549304155
 31
0.0
  0
LINE
  5
34152
  8
0
 10
7027.4154155114447349
 20
314.1629883857303867
 30
0.0
 11
7027.4154155114447349
 21
314.2929096455304148
 31
0.0
  0
ARC
  5
34153
  8
0
 10
7026.7127968003360365
 20
314.6945274203325198
 30
0.0
 40
0.7530293160499807
 50
293.5448072361464256
 51
313.6510875315311182
  0
ARC
  5
34154
  8
0
 10
7027.2471818310777962
 20
314.1339661110940256
 30
0.0
 40
0.0214376341446222
 50
99.4247465013297216
 51
132.9081161856568087
  0
ARC
  5
34155
  8
0
 10
7026.9821524776461956
 20
314.0763742124302098
 30
0.0
 40
0.0787401574997444
 50
270.0
 51
293.5448039576351107
  0
ARC
  5
34156
  8
0
 10
7027.4075414957451358
 20
314.1629883857303867
 30
0.0
 40
0.0078740157000041
 50
269.9999999999478746
 51
359.9999999999740226
  0
LINE
  5
34157
  8
0
 10
7026.7327819287438615
 20
313.74419377932918
 30
0.0
 11
7026.7327819287438615
 21
313.9976340549304155
 31
0.0
  0
LINE
  5
34158
  8
0
 10
7026.5945493697463462
 20
312.9936970471304107
 30
0.0
 11
7026.5945493697463462
 21
313.6392043931303988
 31
0.0
  0
LINE
  5
34159
  8
0
 10
7026.4961241728460664
 20
296.214169488030393
 30
0.0
 11
7026.4961241728460664
 21
312.97401200773038
 31
0.0
  0
LINE
  5
3415A
  8
0
 10
7026.5945493697463462
 20
313.6392043931303988
 30
0.0
 11
7025.6496674799445827
 21
313.6392043931303988
 31
0.0
  0
LINE
  5
3415B
  8
0
 10
7026.5748643303459176
 20
312.97401200773038
 30
0.0
 11
7025.6693525193431924
 21
312.97401200773038
 31
0.0
  0
ARC
  5
3415C
  8
0
 10
7026.5748643303459176
 20
312.9936970471285917
 30
0.0
 40
0.0196850393982011
 50
269.9999999947889933
 51
0.0000000052305621
  0
ARC
  5
3415D
  8
0
 10
7026.6025051222195543
 20
313.6391742479785876
 30
0.0
 40
0.0079558095854303
 50
125.460131043336105
 51
179.7829015280817089
  0
LINE
  5
3415E
  8
0
 10
7026.5978896681463084
 20
313.6456544092304171
 30
0.0
 11
7026.7294242364459933
 21
313.7377437446303929
 31
0.0
  0
ARC
  5
3415F
  8
0
 10
7026.7247861870046108
 20
313.7442571461007219
 30
0.0
 40
0.0079959928291714
 50
305.4538289753216986
 51
359.5459367479130037
  0
ARC
  5
34160
  8
0
 10
7026.579023833138308
 20
313.9441792431019849
 30
0.0
 40
0.2554131874605879
 50
234.3408928173190873
 51
306.0755396549109264
  0
ARC
  5
34161
  8
0
 10
7026.4249750748022052
 20
313.7247373903251741
 30
0.0
 40
0.0129848210384827
 50
66.6201074569482472
 51
113.3788561804068991
  0
LINE
  5
34162
  8
0
 10
7024.8288013382443751
 20
314.1629883857303867
 30
0.0
 11
7024.8288013382443751
 21
314.2929096455304148
 31
0.0
  0
ARC
  5
34163
  8
0
 10
7025.5314121476267246
 20
314.6945175306718738
 30
0.0
 40
0.7530167060350778
 50
226.348828075932488
 51
246.4556519493407905
  0
ARC
  5
34164
  8
0
 10
7024.9970350186131327
 20
314.1339661110940256
 30
0.0
 40
0.0214376341446222
 50
47.0918838143431984
 51
80.5752534986703353
  0
ARC
  5
34165
  8
0
 10
7025.2620634230270298
 20
314.0763650072842097
 30
0.0
 40
0.0787309523594714
 50
246.455148346702714
 51
270.0006906401911806
  0
ARC
  5
34166
  8
0
 10
7024.8366753539448837
 20
314.1629883857303867
 30
0.0
 40
0.0078740157000041
 50
180.0000000000260059
 51
270.0000000000521254
  0
LINE
  5
34167
  8
0
 10
7025.5114349209452485
 20
313.74419377932918
 30
0.0
 11
7025.5114349209452485
 21
313.9976340549304155
 31
0.0
  0
LINE
  5
34168
  8
0
 10
7025.6496674799445827
 20
312.9936970471304107
 30
0.0
 11
7025.6496674799445827
 21
313.6392043931303988
 31
0.0
  0
LINE
  5
34169
  8
0
 10
7025.7480926768448626
 20
296.214169488030393
 30
0.0
 11
7025.7480926768448626
 21
312.97401200773038
 31
0.0
  0
ARC
  5
3416A
  8
0
 10
7025.6693525193431924
 20
312.9936970471285917
 30
0.0
 40
0.0196850393982011
 50
179.9999999947661138
 51
270.0000000052110067
  0
ARC
  5
3416B
  8
0
 10
7025.6417117274695556
 20
313.6391742479785876
 30
0.0
 40
0.0079558095854303
 50
0.217098471921554
 51
54.5398689566638524
  0
LINE
  5
3416C
  8
0
 10
7025.6463271815446205
 20
313.6456544092304171
 30
0.0
 11
7025.5147926132449356
 21
313.7377437446303929
 31
0.0
  0
ARC
  5
3416D
  8
0
 10
7025.5194306626863181
 20
313.7442571461007219
 30
0.0
 40
0.0079959928291714
 50
180.454063252083813
 51
234.5461710246783014
  0
ARC
  5
3416E
  8
0
 10
7025.665193016552621
 20
313.9441792431019849
 30
0.0
 40
0.2554131874605879
 50
233.924460345089102
 51
305.6591071826808843
  0
ARC
  5
3416F
  8
0
 10
7025.8192417748869048
 20
313.7247373903251741
 30
0.0
 40
0.0129848210384827
 50
66.6211438195931152
 51
113.379892543051696
  0
ARC
  5
34170
  8
0
 10
7026.122108424846374
 20
296.214169488030393
 30
0.0
 40
0.3740157479999979
 50
180.0
 51
0.0
  0
ARC
  5
34171
  8
0
 10
7026.122108424846374
 20
296.214169488030393
 30
0.0
 40
0.4625984251999995
 50
143.9506709392034907
 51
36.0493290607965093
  0
ARC
  5
34172
  8
0
 10
7026.122108424846374
 20
314.5248853781213825
 30
0.0
 40
0.8425787788037983
 50
249.3084502508222897
 51
290.6915497491776819
  0
LINE
  5
34173
  8
0
 10
7026.4249751922379801
 20
313.7377222113631206
 30
0.0
 11
7026.4249751922379801
 21
313.9976340549304155
 31
0.0
  0
LINE
  5
34174
  8
0
 10
7025.8192416574529489
 20
313.7377222113631206
 30
0.0
 11
7025.8192416574529489
 21
313.9976340549304155
 31
0.0
  0
ENDSEC
  0
EOF
