  0
SECTION
  2
HEADER
  9
$ACADVER
  1
AC1009
  9
$INSBASE
 10
4471.7379598111419909
 20
271.8826990474717036
 30
0.0
  9
$EXTMIN
 10
4470.4446645789857939
 20
269.1267935356717089
 30
0.0
  9
$EXTMAX
 10
4473.0312550433982324
 20
273.1760061340717129
 30
0.0
  9
$LIMMIN
 10
0.0
 20
0.0
  9
$LIMMAX
 10
11.6929133858000007
 20
8.2677165353999982
  9
$ORTHOMODE
 70
     0
  9
$REGENMODE
 70
     1
  9
$FILLMODE
 70
     1
  9
$QTEXTMODE
 70
     0
  9
$MIRRTEXT
 70
     0
  9
$DRAGMODE
 70
     2
  9
$LTSCALE
 40
0.6431102362
  9
$OSMODE
 70
   695
  9
$ATTMODE
 70
     1
  9
$TEXTSIZE
 40
0.2
  9
$TRACEWID
 40
0.05
  9
$TEXTSTYLE
  7
STANDARD
  9
$CLAYER
  8
0
  9
$CELTYPE
  6
BYLAYER
  9
$CECOLOR
 62
   256
  9
$DIMSCALE
 40
1.0
  9
$DIMASZ
 40
0.1875
  9
$DIMEXO
 40
0.0625
  9
$DIMDLI
 40
0.4443307087
  9
$DIMRND
 40
0.0
  9
$DIMDLE
 40
0.0
  9
$DIMEXE
 40
0.125
  9
$DIMTP
 40
0.01
  9
$DIMTM
 40
0.01
  9
$DIMTXT
 40
2.0
  9
$DIMCEN
 40
0.1052362205
  9
$DIMTSZ
 40
0.0
  9
$DIMTOL
 70
     1
  9
$DIMLIM
 70
     0
  9
$DIMTIH
 70
     1
  9
$DIMTOH
 70
     1
  9
$DIMSE1
 70
     0
  9
$DIMSE2
 70
     0
  9
$DIMTAD
 70
     0
  9
$DIMZIN
 70
     0
  9
$DIMBLK
  1

  9
$DIMASO
 70
     1
  9
$DIMSHO
 70
     1
  9
$DIMPOST
  1
\X
  9
$DIMAPOST
  1

  9
$DIMALT
 70
     1
  9
$DIMALTD
 70
     2
  9
$DIMALTF
 40
25.3999999999999986
  9
$DIMLFAC
 40
1.0
  9
$DIMTOFL
 70
     0
  9
$DIMTVP
 40
0.0
  9
$DIMTIX
 70
     0
  9
$DIMSOXD
 70
     0
  9
$DIMSAH
 70
     0
  9
$DIMBLK1
  1

  9
$DIMBLK2
  1

  9
$DIMSTYLE
  2
STANDARD
  9
$DIMCLRD
 70
     0
  9
$DIMCLRE
 70
     0
  9
$DIMCLRT
 70
     0
  9
$DIMTFAC
 40
1.0
  9
$DIMGAP
 40
0.09
  9
$LUNITS
 70
     2
  9
$LUPREC
 70
     4
  9
$SKETCHINC
 40
0.1
  9
$FILLETRAD
 40
0.0
  9
$AUNITS
 70
     0
  9
$AUPREC
 70
     0
  9
$MENU
  1
.
  9
$ELEVATION
 40
0.0
  9
$PELEVATION
 40
0.0
  9
$THICKNESS
 40
0.0
  9
$LIMCHECK
 70
     0
  9
$BLIPMODE
 70
     0
  9
$CHAMFERA
 40
0.0
  9
$CHAMFERB
 40
0.0
  9
$SKPOLY
 70
     0
  9
$TDCREATE
 40
2458060.468368056230247
  9
$TDUPDATE
 40
2459345.8110648151487112
  9
$TDINDWG
 40
0.5180163194
  9
$TDUSRTIMER
 40
0.5180163194
  9
$USRTIMER
 70
     1
  9
$ANGBASE
 50
0.0
  9
$ANGDIR
 70
     0
  9
$PDMODE
 70
     0
  9
$PDSIZE
 40
0.3125
  9
$PLINEWID
 40
0.0
  9
$COORDS
 70
     1
  9
$SPLFRAME
 70
     0
  9
$SPLINETYPE
 70
     6
  9
$SPLINESEGS
 70
     8
  9
$ATTDIA
 70
     1
  9
$ATTREQ
 70
     1
  9
$HANDLING
 70
     1
  9
$HANDSEED
  5
20AEE
  9
$SURFTAB1
 70
     6
  9
$SURFTAB2
 70
     6
  9
$SURFTYPE
 70
     6
  9
$SURFU
 70
     6
  9
$SURFV
 70
     6
  9
$UCSNAME
  2

  9
$UCSORG
 10
0.0
 20
0.0
 30
0.0
  9
$UCSXDIR
 10
1.0
 20
0.0
 30
0.0
  9
$UCSYDIR
 10
0.0
 20
1.0
 30
0.0
  9
$PUCSNAME
  2

  9
$PUCSORG
 10
0.0
 20
0.0
 30
0.0
  9
$PUCSXDIR
 10
1.0
 20
0.0
 30
0.0
  9
$PUCSYDIR
 10
0.0
 20
1.0
 30
0.0
  9
$USERI1
 70
     0
  9
$USERI2
 70
     0
  9
$USERI3
 70
     0
  9
$USERI4
 70
     0
  9
$USERI5
 70
     0
  9
$USERR1
 40
0.0
  9
$USERR2
 40
0.0
  9
$USERR3
 40
0.0
  9
$USERR4
 40
0.0
  9
$USERR5
 40
0.0
  9
$WORLDVIEW
 70
     1
  9
$SHADEDGE
 70
     3
  9
$SHADEDIF
 70
    70
  9
$TILEMODE
 70
     1
  9
$MAXACTVP
 70
    64
  9
$PLIMCHECK
 70
     0
  9
$PEXTMIN
 10
1.0000000000000000E+20
 20
1.0000000000000000E+20
 30
1.0000000000000000E+20
  9
$PEXTMAX
 10
-1.0000000000000000E+20
 20
-1.0000000000000000E+20
 30
-1.0000000000000000E+20
  9
$PLIMMIN
 10
0.0
 20
0.0
  9
$PLIMMAX
 10
12.0
 20
9.0
  9
$UNITMODE
 70
     0
  9
$VISRETAIN
 70
     1
  9
$PLINEGEN
 70
     0
  9
$PSLTSCALE
 70
     1
  0
ENDSEC
  0
SECTION
  2
TABLES
  0
TABLE
  2
VPORT
 70
     1
  0
VPORT
  2
*ACTIVE
 70
     0
 10
0.0
 20
0.0
 11
1.0
 21
1.0
 12
561.0484486748400741
 22
139.3352496705238934
 13
0.0
 23
0.0
 14
1.0
 24
1.0
 15
0.0
 25
0.0
 16
0.0
 26
0.0
 36
60.4960186965801583
 17
3911.3653564453120453
 27
132.5796051025390057
 37
0.0
 40
5.7850617573250203
 41
2.404287901990811
 42
50.0
 43
0.0
 44
0.0
 50
0.0
 51
0.0
 71
     0
 72
   100
 73
     1
 74
     1
 75
     0
 76
     0
 77
     0
 78
     0
  0
ENDTAB
  0
TABLE
  2
LTYPE
 70
     2
  0
LTYPE
  2
CONTINUOUS
 70
     0
  3
Solid line
 72
    65
 73
     0
 40
0.0
  0
LTYPE
  2
PHANTOM2
 70
     0
  3
___ _ _ ___ _ _ ___ _ _ ___ _ _
 72
    65
 73
     6
 40
1.25
 49
0.625
 49
-0.125
 49
0.125
 49
-0.125
 49
0.125
 49
-0.125
  0
ENDTAB
  0
TABLE
  2
LAYER
 70
     2
  0
LAYER
  2
0
 70
     0
 62
   255
  6
CONTINUOUS
  0
LAYER
  2
DEFPOINTS
 70
     0
 62
     7
  6
CONTINUOUS
  0
ENDTAB
  0
TABLE
  2
STYLE
 70
     1
  0
STYLE
  2
STANDARD
 70
     0
 40
0.0
 41
0.8
 50
0.0
 71
     0
 42
0.2
  3
txt
  4

  0
ENDTAB
  0
TABLE
  2
VIEW
 70
     0
  0
ENDTAB
  0
TABLE
  2
UCS
 70
     0
  0
ENDTAB
  0
TABLE
  2
APPID
 70
    11
  0
APPID
  2
ACAD
 70
     0
  0
APPID
  2
ACAD_MLEADERVER
 70
     0
  0
APPID
  2
ACAD_EXEMPT_FROM_CAD_STANDARDS
 70
     0
  0
APPID
  2
ACAD_NAV_VCDISPLAY
 70
     0
  0
APPID
  2
ACAECLAYERSTANDARD
 70
     0
  0
APPID
  2
ACCMTRANSPARENCY
 70
     0
  0
APPID
  2
ACAD_DSTYLE_DIMJAG
 70
     0
  0
APPID
  2
ACAD_DSTYLE_DIMTALN
 70
     0
  0
APPID
  2
ACDBATTR
 70
     0
  0
APPID
  2
ACADANNOTATIVE
 70
     0
  0
APPID
  2
DCO15
 70
     0
  0
ENDTAB
  0
TABLE
  2
DIMSTYLE
 70
     1
  0
DIMSTYLE
  2
STANDARD
 70
     0
  3

  4

  5

  6

  7

 40
1.0
 41
0.1875
 42
0.0625
 43
0.38
 44
0.125
 45
0.0
 46
0.0
 47
0.01
 48
0.01
140
0.15625
141
0.09
142
0.0
143
25.3999999999999986
144
1.0
145
0.0
146
1.0
147
0.09
 71
     1
 72
     0
 73
     1
 74
     1
 75
     0
 76
     0
 77
     0
 78
     4
170
     0
171
     2
172
     0
173
     0
174
     0
175
     0
176
     0
177
     0
178
     0
  0
ENDTAB
  0
ENDSEC
  0
SECTION
  2
BLOCKS
  0
BLOCK
  8
0
  2
$MODEL_SPACE
 70
     0
 10
0.0
 20
0.0
 30
0.0
  3
$MODEL_SPACE
  1

  0
ENDBLK
  5
21
  8
0
  0
BLOCK
 67
     1
  8
0
  2
$PAPER_SPACE
 70
     0
 10
0.0
 20
0.0
 30
0.0
  3
$PAPER_SPACE
  1

  0
ENDBLK
  5
1D
 67
     1
  8
0
  0
ENDSEC
  0
SECTION
  2
ENTITIES
  0
ATTDEF
  5
20106
  8
DEFPOINTS
 10
4471.7380064652288638
 20
271.8816349329127888
 30
0.0
 40
0.001
  1
K-16346T
  3

  2
MODELNUMBER
 70
     0
1001
ACDBATTR
1070
     0
1070
     1
  0
ATTDEF
  5
20107
  8
DEFPOINTS
 10
4471.7378806555707342
 20
271.8799680925337157
 30
0.0
 40
0.001
  1
RAINSHOWER 
  3

  2
TRADENAME
 70
     0
1001
ACDBATTR
1070
     0
1070
     1
  0
ATTDEF
  5
20108
  8
DEFPOINTS
 10
4471.7380064652288638
 20
271.8783015995795154
 30
0.0
 40
0.001
  1
SHOWER ARM
  3

  2
PRODUCT
 70
     0
1001
ACDBATTR
1070
     0
1070
     1
  0
LINE
  5
20955
  8
0
 10
4471.3245739843923729
 20
269.1267935356717089
 30
0.0
 11
4472.1178744141916468
 21
269.1267935356717089
 31
0.0
  0
LINE
  5
20956
  8
0
 10
4471.3251416719922418
 20
269.1794513051717104
 30
0.0
 11
4471.373239007992197
 21
269.1543744846716777
 31
0.0
  0
LINE
  5
20957
  8
0
 10
4471.3245739843923729
 20
269.4023840868716775
 30
0.0
 11
4472.1061864902922025
 21
269.4023840868716775
 31
0.0
  0
LINE
  5
20958
  8
0
 10
4471.3251323014919762
 20
269.2504562080716823
 30
0.0
 11
4471.3732428327921298
 21
269.2253764386716739
 31
0.0
  0
LINE
  5
20959
  8
0
 10
4471.3251328821916104
 20
269.321455898971692
 30
0.0
 11
4471.3732431179150808
 21
269.2963817281597017
 31
0.0
  0
LINE
  5
2095A
  8
0
 10
4471.3251395258921548
 20
269.3924523820717241
 30
0.0
 11
4471.373257634404581
 21
269.3673772387655845
 31
0.0
  0
LINE
  5
2095B
  8
0
 10
4471.2753613859922552
 20
269.5204943230717163
 30
0.0
 11
4472.2005582363926806
 21
269.5204943230717163
 31
0.0
  0
LINE
  5
2095C
  8
0
 10
4471.3251416719922418
 20
269.1794513051717104
 30
0.0
 11
4471.3245739843923729
 21
269.1800435642717275
 31
0.0
  0
LINE
  5
2095D
  8
0
 10
4471.3251323014919762
 20
269.2504562080716823
 30
0.0
 11
4471.3245739843923729
 21
269.2510436513717877
 31
0.0
  0
LINE
  5
2095E
  8
0
 10
4471.2832354016927638
 20
269.6779746379717153
 30
0.0
 11
4472.1926827919924108
 21
269.6779746379717153
 31
0.0
  0
LINE
  5
2095F
  8
0
 10
4472.1507792420934493
 20
269.1661350008716909
 30
0.0
 11
4472.1026762776918986
 21
269.191214686071703
 31
0.0
  0
LINE
  5
20960
  8
0
 10
4472.1507784611922034
 20
269.2371258735716992
 30
0.0
 11
4472.1026699211915911
 21
269.262209687171719
 31
0.0
  0
LINE
  5
20961
  8
0
 10
4472.1507707197915806
 20
269.3081395612716733
 30
0.0
 11
4472.1026706108923463
 21
269.3332172099716786
 31
0.0
  0
LINE
  5
20962
  8
0
 10
4471.3251395258921548
 20
269.3924523820717241
 30
0.0
 11
4471.3245739843923729
 21
269.393043537771689
 31
0.0
  0
LINE
  5
20963
  8
0
 10
4471.3251328821916104
 20
269.321455898971692
 30
0.0
 11
4471.3245739843923729
 21
269.3220435383717017
 31
0.0
  0
LINE
  5
20964
  8
0
 10
4472.1507801585921698
 20
269.3791344544716821
 30
0.0
 11
4472.1061864902922025
 21
269.4023840868716775
 31
0.0
  0
LINE
  5
20965
  8
0
 10
4472.1507707197915806
 20
269.3081395612716733
 30
0.0
 11
4472.1513456378916089
 21
269.3075435511717046
 31
0.0
  0
LINE
  5
20966
  8
0
 10
4472.1507784611922034
 20
269.2371258735718129
 30
0.0
 11
4472.1513456378916089
 21
269.2365361556716721
 31
0.0
  0
LINE
  5
20967
  8
0
 10
4472.1507792420934493
 20
269.1661350008716909
 30
0.0
 11
4472.1513456378916089
 21
269.1655435231717206
 31
0.0
  0
LINE
  5
20968
  8
0
 10
4471.4254178324299573
 20
272.4043525868448796
 30
0.0
 11
4471.1299236083923461
 21
271.8925415773716736
 31
0.0
  0
LINE
  5
20969
  8
0
 10
4472.1507801585921698
 20
269.3791344544716821
 30
0.0
 11
4472.1513456378916089
 21
269.3785435268717947
 31
0.0
  0
LINE
  5
2096A
  8
0
 10
4471.2753613859922552
 20
269.6701006222717183
 30
0.0
 11
4471.2753613859922552
 21
269.5204943230717163
 31
0.0
  0
LINE
  5
2096B
  8
0
 10
4471.3245739843923729
 20
269.4023840868716775
 30
0.0
 11
4471.3245739843923729
 21
269.393043537771689
 31
0.0
  0
LINE
  5
2096C
  8
0
 10
4471.3245742928920663
 20
269.3430434958717115
 30
0.0
 11
4471.3245739843923729
 21
269.3220435383717017
 31
0.0
  0
LINE
  5
2096D
  8
0
 10
4471.3245739843923729
 20
269.2720433257716763
 30
0.0
 11
4471.3245739843923729
 21
269.2510436513717877
 31
0.0
  0
LINE
  5
2096E
  8
0
 10
4471.3245739843923729
 20
269.2010345710717161
 30
0.0
 11
4471.3245739843923729
 21
269.1800435642717275
 31
0.0
  0
LINE
  5
2096F
  8
0
 10
4471.3245739843923729
 20
269.1300435960716868
 30
0.0
 11
4471.3245739843923729
 21
269.1267935356717089
 31
0.0
  0
LINE
  5
20970
  8
0
 10
4471.3639440630913668
 20
269.6779746379717153
 30
0.0
 11
4471.3639440630913668
 21
271.8826990474717036
 31
0.0
  0
LINE
  5
20971
  8
0
 10
4471.383629102492705
 20
269.5204943230717163
 30
0.0
 11
4471.383629102492705
 21
269.4023840868716775
 31
0.0
  0
LINE
  5
20972
  8
0
 10
4471.1299235998922086
 20
271.8728565322717259
 30
0.0
 11
4471.3639440630913668
 21
271.4675211998717259
 31
0.0
  0
LINE
  5
20973
  8
0
 10
4472.111975559192615
 20
271.4675211998717259
 30
0.0
 11
4472.3459960138916358
 21
271.8728565174718028
 31
0.0
  0
LINE
  5
20974
  8
0
 10
4472.0305749009921783
 20
269.3874055763718047
 30
0.0
 11
4472.0305752928934453
 21
269.4023840868716775
 31
0.0
  0
LINE
  5
20975
  8
0
 10
4472.0922905197921864
 20
269.5204943230717163
 30
0.0
 11
4472.0922905197921864
 21
269.4023840868716775
 31
0.0
  0
LINE
  5
20976
  8
0
 10
4472.111975559192615
 20
269.6779746379717153
 30
0.0
 11
4472.111975559192615
 21
271.8826990474717036
 31
0.0
  0
LINE
  5
20977
  8
0
 10
4472.1513456378916089
 20
269.3785435268717947
 30
0.0
 11
4472.1513456378916089
 21
269.3575512236716918
 31
0.0
  0
LINE
  5
20978
  8
0
 10
4472.1513456378916089
 20
269.3075435511717046
 30
0.0
 11
4472.1513456378916089
 21
269.286545248771688
 31
0.0
  0
LINE
  5
20979
  8
0
 10
4472.1513456378916089
 20
269.2365361556716721
 30
0.0
 11
4472.1513456378916089
 21
269.215543564871723
 31
0.0
  0
LINE
  5
2097A
  8
0
 10
4472.1513456378916089
 20
269.1655435231717206
 30
0.0
 11
4472.1513456378916089
 21
269.1445435516718021
 31
0.0
  0
LINE
  5
2097B
  8
0
 10
4472.2005582363926806
 20
269.6701006222717183
 30
0.0
 11
4472.2005582363926806
 21
269.5204943230717163
 31
0.0
  0
LINE
  5
2097C
  8
0
 10
4472.3459960215996034
 20
271.892541564202304
 30
0.0
 11
4472.0505017869918447
 21
272.4043525916716817
 31
0.0
  0
LINE
  5
2097D
  8
0
 10
4471.3251345225926343
 20
269.2726286045717075
 30
0.0
 11
4471.3245739843923729
 21
269.2720433257716763
 31
0.0
  0
LINE
  5
2097E
  8
0
 10
4471.3251356486925943
 20
269.1306254978716765
 30
0.0
 11
4471.3245739843923729
 21
269.1300435960716868
 31
0.0
  0
LINE
  5
2097F
  8
0
 10
4471.3251508990933871
 20
269.2016405640717949
 30
0.0
 11
4471.3245739843923729
 21
269.2010345710717161
 31
0.0
  0
LINE
  5
20980
  8
0
 10
4472.0334541428301236
 20
272.4141951104714963
 30
0.0
 11
4471.4424655877919577
 21
272.4141951104717236
 31
0.0
  0
LINE
  5
20981
  8
0
 10
4471.3719744731870378
 20
269.3680459153284232
 30
0.0
 11
4471.3251476303921663
 21
269.3436302114716909
 31
0.0
  0
LINE
  5
20982
  8
0
 10
4472.1507880306926381
 20
269.285963585271702
 30
0.0
 11
4472.1513456378916089
 21
269.286545248771688
 31
0.0
  0
LINE
  5
20983
  8
0
 10
4472.1507839186915589
 20
269.3569543867718039
 30
0.0
 11
4472.1513456378916089
 21
269.3575512236716918
 31
0.0
  0
LINE
  5
20984
  8
0
 10
4471.3719637598205736
 20
269.2260433148887273
 30
0.0
 11
4471.3251508990933871
 21
269.2016405640717949
 31
0.0
  0
LINE
  5
20985
  8
0
 10
4471.3719679135310798
 20
269.2970463412524964
 30
0.0
 11
4471.3251345225926343
 21
269.2726286045717075
 31
0.0
  0
LINE
  5
20986
  8
0
 10
4471.3719622094677106
 20
269.1550401768731149
 30
0.0
 11
4471.3251356486925943
 21
269.1306254978716765
 31
0.0
  0
LINE
  5
20987
  8
0
 10
4472.1507841074917451
 20
269.2149545220717073
 30
0.0
 11
4472.1513456378916089
 21
269.215543564871723
 31
0.0
  0
LINE
  5
20988
  8
0
 10
4472.1507709002926276
 20
269.1439483880716921
 30
0.0
 11
4472.1513456378916089
 21
269.1445435516718021
 31
0.0
  0
LINE
  5
20989
  8
0
 10
4472.1039522788269096
 20
269.332548994889919
 30
0.0
 11
4472.1507839186915589
 21
269.3569543867718039
 31
0.0
  0
LINE
  5
2098A
  8
0
 10
4472.1039491082410677
 20
269.2615427184903751
 30
0.0
 11
4472.1507880306926381
 21
269.285963585271702
 31
0.0
  0
LINE
  5
2098B
  8
0
 10
4472.1039622093712751
 20
269.1905442333857081
 30
0.0
 11
4472.1507841074917451
 21
269.2149545220717073
 31
0.0
  0
LINE
  5
2098C
  8
0
 10
4472.1178744141916468
 20
269.1267935356717089
 30
0.0
 11
4472.1507709002926276
 21
269.1439483880716921
 31
0.0
  0
ARC
  5
2098D
  8
0
 10
4471.2832354016927638
 20
269.6701006222717183
 30
0.0
 40
0.0078740157
 50
90.0
 51
180.0
  0
ARC
  5
2098E
  8
0
 10
4471.1469713459491686
 20
271.8826990474605054
 30
0.0
 40
0.0196850387571873
 50
149.999964600911909
 51
209.9999859184950139
  0
ARC
  5
2098F
  8
0
 10
4471.4424655788916425
 20
272.3945100710716929
 30
0.0
 40
0.0196850394000044
 50
89.9999740954424396
 51
150.0000131975957061
  0
ARC
  5
20990
  8
0
 10
4472.1926842203711203
 20
269.6701006221800867
 30
0.0
 40
0.0078740159211685
 50
0.0000006666198346
 51
90.0103936898280068
  0
ARC
  5
20991
  8
0
 10
4471.7379598111920131
 20
271.8826990474717036
 30
0.0
 40
1.2933070866
 50
286.8096664109255016
 51
253.190333584447302
  0
ARC
  5
20992
  8
0
 10
4471.7379598111920131
 20
271.8826990474717036
 30
0.0
 40
1.1240836051
 50
289.434527510911721
 51
250.5654724836743128
  0
ARC
  5
20993
  8
0
 10
4471.7379598111920131
 20
271.8826990474717036
 30
0.0
 40
0.8914806783999999
 50
294.805828436340903
 51
245.1941715565934032
  0
ARC
  5
20994
  8
0
 10
4471.7379598111419909
 20
271.8826990474237277
 30
0.0
 40
0.3740157480499979
 50
0.0000000073507962
 51
179.999999992649208
  0
ARC
  5
20995
  8
0
 10
4472.0334540434569135
 20
272.3945100713150964
 30
0.0
 40
0.0196850391566465
 50
30.0000026158670394
 51
89.9997107640627974
  0
ARC
  5
20996
  8
0
 10
4472.3289482758482336
 20
271.8826990475134835
 30
0.0
 40
0.0196850392442372
 50
329.9999649806869115
 51
29.9999901414860197
  0
ARC
  5
20997
  8
0
 10
4471.7379598111920131
 20
271.8826990474717036
 30
0.0
 40
0.4724409448999892
 50
322.3415379846949804
 51
217.6584619954437869
  0
ARC
  5
20998
  8
0
 10
4472.0061614028372787
 20
268.1549864844927242
 30
0.0
 40
1.232660876689136
 50
83.2624031785999819
 51
88.8651526968569669
  0
ARC
  5
20999
  8
0
 10
4458.9582455037188993
 20
-33.1625694811352218
 30
0.0
 40
302.8076639096198051
 50
87.502875899934125
 51
87.659346032275792
  0
ARC
  5
2099A
  8
0
 10
8333.6394970019227912
 20
82731.8420155399071518
 30
0.0
 40
82552.8728995921555907
 50
267.3184171977453047
 51
267.3189240012974892
  0
ARC
  5
2099B
  8
0
 10
4471.3255946517419943
 20
269.3426198929371935
 30
0.0
 40
0.0011047948353068
 50
113.8672747970021959
 51
157.454172787879088
  0
ARC
  5
2099C
  8
0
 10
4484.3184304143496774
 20
567.1194463025167352
 30
0.0
 40
298.0597697868171281
 50
267.5014100802276857
 51
267.6603708417832195
  0
ARC
  5
2099D
  8
0
 10
4458.9757054820693156
 20
-32.7404512482623318
 30
0.0
 40
302.3142472767950153
 50
87.5021099107951841
 51
87.6588367570913363
  0
ARC
  5
2099E
  8
0
 10
928.7146087265841743
 20
-75359.1034057674987707
 30
0.0
 40
75711.328641208645422
 50
87.3175035648709041
 51
87.3180561759076568
  0
ARC
  5
2099F
  8
0
 10
4484.626055152835761
 20
574.2148752218411119
 30
0.0
 40
305.2327966095205056
 50
267.5023648681370787
 51
267.6575916371500057
  0
ARC
  5
209A0
  8
0
 10
4459.0090105403878624
 20
-32.0062454529625597
 30
0.0
 40
301.5083533683931023
 50
87.5017641274212536
 51
87.6589100112944664
  0
ARC
  5
209A1
  8
0
 10
1402.3618231948089488
 20
-65269.1624974883234245
 30
0.0
 40
65610.2058845052524703
 50
87.3182917771412974
 51
87.3189294716139131
  0
ARC
  5
209A2
  8
0
 10
4484.6135178397580603
 20
574.0036057116697066
 30
0.0
 40
305.0921228132747274
 50
267.503569237088584
 51
267.6588675838110021
  0
ARC
  5
209A3
  8
0
 10
4459.1111328574179424
 20
-29.6990856480975403
 30
0.0
 40
299.1280024715994728
 50
87.5014508661625996
 51
87.6598454273299552
  0
ARC
  5
209A4
  8
0
 10
4472.7455146333168159
 20
294.0179836071936847
 30
0.0
 40
24.9014497367005205
 50
266.8409287975500774
 51
268.3552237719875961
  0
ENDSEC
  0
EOF
