  0
SECTION
  2
HEADER
  9
$ACADVER
  1
AC1009
  9
$INSBASE
 10
4758.1509332204632301
 20
530.8665429273164591
 30
0.0
  9
$EXTMIN
 10
4756.8576261338630502
 20
520.8665429273163454
 30
0.0
  9
$EXTMAX
 10
4759.4442403070643195
 20
530.8708772295642575
 30
0.0
  9
$LIMMIN
 10
0.0
 20
0.0
  9
$LIMMAX
 10
11.6929133858000007
 20
8.2677165353999982
  9
$ORTHOMODE
 70
     0
  9
$REGENMODE
 70
     1
  9
$FILLMODE
 70
     1
  9
$QTEXTMODE
 70
     0
  9
$MIRRTEXT
 70
     0
  9
$DRAGMODE
 70
     2
  9
$LTSCALE
 40
0.6431102362
  9
$OSMODE
 70
     7
  9
$ATTMODE
 70
     1
  9
$TEXTSIZE
 40
0.2
  9
$TRACEWID
 40
0.05
  9
$TEXTSTYLE
  7
STANDARD
  9
$CLAYER
  8
0
  9
$CELTYPE
  6
BYLAYER
  9
$CECOLOR
 62
   256
  9
$DIMSCALE
 40
1.0
  9
$DIMASZ
 40
0.1875
  9
$DIMEXO
 40
0.0625
  9
$DIMDLI
 40
0.4443307087
  9
$DIMRND
 40
0.0
  9
$DIMDLE
 40
0.0
  9
$DIMEXE
 40
0.125
  9
$DIMTP
 40
0.01
  9
$DIMTM
 40
0.01
  9
$DIMTXT
 40
2.0
  9
$DIMCEN
 40
0.1052362205
  9
$DIMTSZ
 40
0.0
  9
$DIMTOL
 70
     1
  9
$DIMLIM
 70
     0
  9
$DIMTIH
 70
     1
  9
$DIMTOH
 70
     1
  9
$DIMSE1
 70
     0
  9
$DIMSE2
 70
     0
  9
$DIMTAD
 70
     0
  9
$DIMZIN
 70
     0
  9
$DIMBLK
  1

  9
$DIMASO
 70
     1
  9
$DIMSHO
 70
     1
  9
$DIMPOST
  1
\X
  9
$DIMAPOST
  1

  9
$DIMALT
 70
     1
  9
$DIMALTD
 70
     2
  9
$DIMALTF
 40
25.3999999999999986
  9
$DIMLFAC
 40
1.0
  9
$DIMTOFL
 70
     0
  9
$DIMTVP
 40
0.0
  9
$DIMTIX
 70
     0
  9
$DIMSOXD
 70
     0
  9
$DIMSAH
 70
     0
  9
$DIMBLK1
  1

  9
$DIMBLK2
  1

  9
$DIMSTYLE
  2
STANDARD
  9
$DIMCLRD
 70
     0
  9
$DIMCLRE
 70
     0
  9
$DIMCLRT
 70
     0
  9
$DIMTFAC
 40
1.0
  9
$DIMGAP
 40
0.09
  9
$LUNITS
 70
     2
  9
$LUPREC
 70
     4
  9
$SKETCHINC
 40
0.1
  9
$FILLETRAD
 40
0.0
  9
$AUNITS
 70
     0
  9
$AUPREC
 70
     0
  9
$MENU
  1
.
  9
$ELEVATION
 40
0.0
  9
$PELEVATION
 40
0.0
  9
$THICKNESS
 40
0.0
  9
$LIMCHECK
 70
     0
  9
$BLIPMODE
 70
     0
  9
$CHAMFERA
 40
0.0
  9
$CHAMFERB
 40
0.0
  9
$SKPOLY
 70
     0
  9
$TDCREATE
 40
2458060.468368056230247
  9
$TDUPDATE
 40
2459563.4128240738064051
  9
$TDINDWG
 40
1.572763125
  9
$TDUSRTIMER
 40
1.572763125
  9
$USRTIMER
 70
     1
  9
$ANGBASE
 50
0.0
  9
$ANGDIR
 70
     0
  9
$PDMODE
 70
     0
  9
$PDSIZE
 40
0.3125
  9
$PLINEWID
 40
0.0
  9
$COORDS
 70
     1
  9
$SPLFRAME
 70
     0
  9
$SPLINETYPE
 70
     6
  9
$SPLINESEGS
 70
     8
  9
$ATTDIA
 70
     1
  9
$ATTREQ
 70
     1
  9
$HANDLING
 70
     1
  9
$HANDSEED
  5
1DFDD
  9
$SURFTAB1
 70
     6
  9
$SURFTAB2
 70
     6
  9
$SURFTYPE
 70
     6
  9
$SURFU
 70
     6
  9
$SURFV
 70
     6
  9
$UCSNAME
  2

  9
$UCSORG
 10
0.0
 20
0.0
 30
0.0
  9
$UCSXDIR
 10
1.0
 20
0.0
 30
0.0
  9
$UCSYDIR
 10
0.0
 20
1.0
 30
0.0
  9
$PUCSNAME
  2

  9
$PUCSORG
 10
0.0
 20
0.0
 30
0.0
  9
$PUCSXDIR
 10
1.0
 20
0.0
 30
0.0
  9
$PUCSYDIR
 10
0.0
 20
1.0
 30
0.0
  9
$USERI1
 70
     0
  9
$USERI2
 70
     0
  9
$USERI3
 70
     0
  9
$USERI4
 70
     0
  9
$USERI5
 70
     0
  9
$USERR1
 40
0.0
  9
$USERR2
 40
0.0
  9
$USERR3
 40
0.0
  9
$USERR4
 40
0.0
  9
$USERR5
 40
0.0
  9
$WORLDVIEW
 70
     1
  9
$SHADEDGE
 70
     3
  9
$SHADEDIF
 70
    70
  9
$TILEMODE
 70
     1
  9
$MAXACTVP
 70
    64
  9
$PLIMCHECK
 70
     0
  9
$PEXTMIN
 10
1.0000000000000000E+20
 20
1.0000000000000000E+20
 30
1.0000000000000000E+20
  9
$PEXTMAX
 10
-1.0000000000000000E+20
 20
-1.0000000000000000E+20
 30
-1.0000000000000000E+20
  9
$PLIMMIN
 10
0.0
 20
0.0
  9
$PLIMMAX
 10
12.0
 20
9.0
  9
$UNITMODE
 70
     0
  9
$VISRETAIN
 70
     1
  9
$PLINEGEN
 70
     0
  9
$PSLTSCALE
 70
     1
  0
ENDSEC
  0
SECTION
  2
TABLES
  0
TABLE
  2
VPORT
 70
     1
  0
VPORT
  2
*ACTIVE
 70
     0
 10
0.0
 20
0.0
 11
1.0
 21
1.0
 12
846.7855767751506164
 22
394.9802358213457865
 13
0.0
 23
0.0
 14
1.0
 24
1.0
 15
0.0
 25
0.0
 16
0.0
 26
0.0
 36
60.4960186965801583
 17
3911.3653564453120453
 27
132.5796051025390057
 37
0.0
 40
13.4763687607006695
 41
1.8876941457586609
 42
50.0
 43
0.0
 44
0.0
 50
0.0
 51
0.0
 71
     0
 72
   100
 73
     1
 74
     1
 75
     0
 76
     0
 77
     0
 78
     0
  0
ENDTAB
  0
TABLE
  2
LTYPE
 70
     2
  0
LTYPE
  2
CONTINUOUS
 70
     0
  3
Solid line
 72
    65
 73
     0
 40
0.0
  0
LTYPE
  2
PHANTOM2
 70
     0
  3
___ _ _ ___ _ _ ___ _ _ ___ _ _
 72
    65
 73
     6
 40
1.25
 49
0.625
 49
-0.125
 49
0.125
 49
-0.125
 49
0.125
 49
-0.125
  0
ENDTAB
  0
TABLE
  2
LAYER
 70
     2
  0
LAYER
  2
0
 70
     0
 62
   255
  6
CONTINUOUS
  0
LAYER
  2
DEFPOINTS
 70
     0
 62
     7
  6
CONTINUOUS
  0
ENDTAB
  0
TABLE
  2
STYLE
 70
     1
  0
STYLE
  2
STANDARD
 70
     0
 40
0.0
 41
0.8
 50
0.0
 71
     0
 42
0.2
  3
txt
  4

  0
ENDTAB
  0
TABLE
  2
VIEW
 70
     0
  0
ENDTAB
  0
TABLE
  2
UCS
 70
     0
  0
ENDTAB
  0
TABLE
  2
APPID
 70
    11
  0
APPID
  2
ACAD
 70
     0
  0
APPID
  2
ACAD_MLEADERVER
 70
     0
  0
APPID
  2
ACAD_EXEMPT_FROM_CAD_STANDARDS
 70
     0
  0
APPID
  2
ACAD_NAV_VCDISPLAY
 70
     0
  0
APPID
  2
ACAECLAYERSTANDARD
 70
     0
  0
APPID
  2
ACCMTRANSPARENCY
 70
     0
  0
APPID
  2
ACAD_DSTYLE_DIMJAG
 70
     0
  0
APPID
  2
ACAD_DSTYLE_DIMTALN
 70
     0
  0
APPID
  2
ACDBATTR
 70
     0
  0
APPID
  2
ACADANNOTATIVE
 70
     0
  0
APPID
  2
DCO15
 70
     0
  0
ENDTAB
  0
TABLE
  2
DIMSTYLE
 70
     1
  0
DIMSTYLE
  2
STANDARD
 70
     0
  3

  4

  5

  6

  7

 40
1.0
 41
0.1875
 42
0.0625
 43
0.38
 44
0.125
 45
0.0
 46
0.0
 47
0.01
 48
0.01
140
0.15625
141
0.09
142
0.0
143
25.3999999999999986
144
1.0
145
0.0
146
1.0
147
0.09
 71
     1
 72
     0
 73
     1
 74
     1
 75
     0
 76
     0
 77
     0
 78
     4
170
     0
171
     2
172
     0
173
     0
174
     0
175
     0
176
     0
177
     0
178
     0
  0
ENDTAB
  0
ENDSEC
  0
SECTION
  2
BLOCKS
  0
BLOCK
  8
0
  2
$MODEL_SPACE
 70
     0
 10
0.0
 20
0.0
 30
0.0
  3
$MODEL_SPACE
  1

  0
ENDBLK
  5
21
  8
0
  0
BLOCK
 67
     1
  8
0
  2
$PAPER_SPACE
 70
     0
 10
0.0
 20
0.0
 30
0.0
  3
$PAPER_SPACE
  1

  0
ENDBLK
  5
1D
 67
     1
  8
0
  0
ENDSEC
  0
SECTION
  2
ENTITIES
  0
ATTDEF
  5
159BF
  8
DEFPOINTS
 10
4758.1509333626472653
 20
530.8698772295640538
 30
0.0
 40
0.001
  1
K-16347T
  3

  2
MODELNUMBER
 70
     0
1001
ACDBATTR
1070
     0
1070
     1
  0
ATTDEF
  5
159C0
  8
DEFPOINTS
 10
4758.1509333626472653
 20
530.8682103891849238
 30
0.0
 40
0.001
  1
RAINSHOWER
  3

  2
TRADENAME
 70
     0
1001
ACDBATTR
1070
     0
1070
     1
  0
ATTDEF
  5
159C1
  8
DEFPOINTS
 10
4758.1509333626472653
 20
530.8665438962306098
 30
0.0
 40
0.001
  1
SHOWER ARM
  3

  2
PRODUCT
 70
     0
1001
ACDBATTR
1070
     0
1070
     1
  0
LINE
  5
1DE2E
  8
0
 10
4759.4442403070643195
 20
530.8665429273164591
 30
0.0
 11
4756.8576261338630502
 21
530.8665429273164591
 31
0.0
  0
LINE
  5
1DE2F
  8
0
 10
4759.432431317960436
 20
530.7287476517166169
 30
0.0
 11
4756.8694351229669337
 21
530.7287476517166169
 31
0.0
  0
LINE
  5
1DE30
  8
0
 10
4756.8576261338630502
 20
530.7405586754405249
 30
0.0
 11
4756.8576261338630502
 21
530.8665429273164591
 31
0.0
  0
ARC
  5
1DE31
  8
0
 10
4756.8694371577621496
 20
530.7405586754405249
 30
0.0
 40
0.0118110238992308
 50
180.0000006013061977
 51
269.9901291187122183
  0
LINE
  5
1DE32
  8
0
 10
4759.0228095991551527
 20
530.5712673367165735
 30
0.0
 11
4757.2790568417713075
 21
530.5712673367165735
 31
0.0
  0
LINE
  5
1DE33
  8
0
 10
4758.6616271336642967
 20
530.1891221335165483
 30
0.0
 11
4757.640239307263073
 21
530.1891221335165483
 31
0.0
  0
LINE
  5
1DE34
  8
0
 10
4758.6312481810782629
 20
529.5476452895164812
 30
0.0
 11
4757.6706182598481973
 21
529.5476452895164812
 31
0.0
  0
LINE
  5
1DE35
  8
0
 10
4758.5052866962632834
 20
520.8665429273165728
 30
0.0
 11
4757.7630126720778208
 21
520.8665429273165728
 31
0.0
  0
LINE
  5
1DE36
  8
0
 10
4757.7572324330631091
 20
529.5476452895164812
 30
0.0
 11
4757.7572324330631091
 21
521.137233075140557
 31
0.0
  0
LINE
  5
1DE37
  8
0
 10
4757.7572324330631091
 20
521.077467024947623
 30
0.0
 11
4757.7572324330631091
 21
521.0658157690951384
 31
0.0
  0
LINE
  5
1DE38
  8
0
 10
4757.7572324330631091
 20
521.006049718901977
 30
0.0
 11
4757.7572324330631091
 21
520.9943984376243407
 31
0.0
  0
LINE
  5
1DE39
  8
0
 10
4757.7572324330631091
 20
520.934632387431293
 30
0.0
 11
4757.7572324330631091
 21
520.9229809995171081
 31
0.0
  0
LINE
  5
1DE3A
  8
0
 10
4757.6588072361637387
 20
530.1556964896786894
 30
0.0
 11
4757.6588072361637387
 21
529.5594563131515997
 31
0.0
  0
LINE
  5
1DE3B
  8
0
 10
4757.5603820393644128
 20
530.2388224151164877
 30
0.0
 11
4757.5603820393644128
 21
530.5712673367165735
 31
0.0
  0
ARC
  5
1DE3C
  8
0
 10
4757.542247209663401
 20
531.3082844590165905
 30
0.0
 40
0.787401574699987
 50
227.3927765391586888
 51
248.3251443862127132
  0
ARC
  5
1DE3D
  8
0
 10
4757.2790568417713075
 20
530.6460704869590472
 30
0.0
 40
0.0748031502425594
 50
248.3251443862127132
 51
269.999999840699104
  0
LINE
  5
1DE3E
  8
0
 10
4757.5603820393644128
 20
530.2388224151164877
 30
0.0
 11
4757.640239307263073
 21
530.1891221335165483
 31
0.0
  0
ARC
  5
1DE3F
  8
0
 10
4757.6194371573155877
 20
530.1556964896786894
 30
0.0
 40
0.0393700788464457
 50
0.0000000552107653
 51
58.1043007700401404
  0
LINE
  5
1DE40
  8
0
 10
4757.5997521180634067
 20
530.5712673367165735
 30
0.0
 11
4757.5997521180634067
 21
530.2822618102164824
 31
0.0
  0
LINE
  5
1DE41
  8
0
 10
4758.1115631416632823
 20
530.5712673367165735
 30
0.0
 11
4758.1115631416632823
 21
530.2822618102164824
 31
0.0
  0
ARC
  5
1DE42
  8
0
 10
4757.5650810608422034
 20
530.2823650528285953
 30
0.0
 40
0.0047001555175332
 50
117.1044230013048946
 51
181.2586480825779915
  0
ARC
  5
1DE43
  8
0
 10
4757.5693526896320691
 20
530.2740191470103355
 30
0.0
 40
0.0140757065122574
 50
87.5810007812789451
 51
117.1044230013077936
  0
ARC
  5
1DE44
  8
0
 10
4757.5656762045337018
 20
530.1869906335090263
 30
0.0
 40
0.1011818412268817
 50
70.3192490939402433
 51
87.5810007812789451
  0
ARC
  5
1DE45
  8
0
 10
4757.8556576298633445
 20
531.0143173730639319
 30
0.0
 40
0.7754953114399848
 50
250.7318460258690038
 51
289.2681539741309962
  0
ARC
  5
1DE46
  8
0
 10
4757.6706182597636143
 20
529.5594563131165842
 30
0.0
 40
0.0118110235999947
 50
179.9999999999739089
 51
270.0000004113057912
  0
LINE
  5
1DE47
  8
0
 10
4759.4442403070643195
 20
530.7405586754405249
 30
0.0
 11
4759.4442403070643195
 21
530.8665429273164591
 31
0.0
  0
LINE
  5
1DE48
  8
0
 10
4758.5446340078633511
 20
529.5476452895164812
 30
0.0
 11
4758.5446340078633511
 21
521.1726017163931601
 31
0.0
  0
LINE
  5
1DE49
  8
0
 10
4758.5446340078633511
 20
521.1131494134617697
 30
0.0
 11
4758.5446340078633511
 21
521.1014980255478122
 31
0.0
  0
LINE
  5
1DE4A
  8
0
 10
4758.5446340078633511
 20
521.0417319753546508
 30
0.0
 11
4758.5446340078633511
 21
521.0300806940770144
 31
0.0
  0
LINE
  5
1DE4B
  8
0
 10
4758.5446340078633511
 20
520.970314643883853
 30
0.0
 11
4758.5446340078633511
 21
520.9586633880323916
 31
0.0
  0
LINE
  5
1DE4C
  8
0
 10
4758.5446340078633511
 20
520.8988973378384344
 30
0.0
 11
4758.5446340078633511
 21
520.8873748905608636
 31
0.0
  0
LINE
  5
1DE4D
  8
0
 10
4758.6430592047627215
 20
530.1556964896786894
 30
0.0
 11
4758.6430592047627215
 21
529.5594563131515997
 31
0.0
  0
LINE
  5
1DE4E
  8
0
 10
4758.7414844015629569
 20
530.2388224151164877
 30
0.0
 11
4758.7414844015629569
 21
530.5712673367165735
 31
0.0
  0
ARC
  5
1DE4F
  8
0
 10
4758.0374058956058434
 20
518.1368988162038249
 30
0.0
 40
3.0133872692476951
 50
91.5912402308022138
 51
95.3348521677044829
  0
LINE
  5
1DE50
  8
0
 10
4757.7572324330631091
 20
521.137233075140557
 30
0.0
 11
4757.7982486061628151
 21
521.115556686316495
 31
0.0
  0
ARC
  5
1DE51
  8
0
 10
4757.7935039723788577
 20
521.1073623107711228
 30
0.0
 40
0.0094688616169083
 50
300.259721761026924
 51
59.928685597708899
  0
LINE
  5
1DE52
  8
0
 10
4757.7982755262637511
 20
521.0991835814165825
 30
0.0
 11
4757.7578466062632288
 21
521.0781010461165579
 31
0.0
  0
ARC
  5
1DE53
  8
0
 10
4758.0374058956058434
 20
518.0771327660106635
 30
0.0
 40
3.0133872692476951
 50
91.5912402308022138
 51
95.3348521677044829
  0
ARC
  5
1DE54
  8
0
 10
4757.758398268370911
 20
521.0769521698665585
 30
0.0
 40
0.001274459775153
 50
115.6491728588604957
 51
156.172833464978595
  0
ARC
  5
1DE55
  8
0
 10
4758.0374058956058434
 20
518.0654815101582926
 30
0.0
 40
3.0133872692476951
 50
91.5912402308022138
 51
95.3348521677044829
  0
LINE
  5
1DE56
  8
0
 10
4757.7572324330631091
 20
521.0658157690951384
 30
0.0
 11
4757.7982486061628151
 21
521.0441393802709626
 31
0.0
  0
ARC
  5
1DE57
  8
0
 10
4757.7935039723788577
 20
521.0359450047255905
 30
0.0
 40
0.0094688616169083
 50
300.259721761026924
 51
59.928685597708899
  0
LINE
  5
1DE58
  8
0
 10
4757.7982755262637511
 20
521.0277662753710501
 30
0.0
 11
4757.7578466062632288
 21
521.0066837400709119
 31
0.0
  0
ARC
  5
1DE59
  8
0
 10
4758.0374058956058434
 20
518.0057154599652449
 30
0.0
 40
3.0133872692476951
 50
91.5912402308022138
 51
95.3348521677044829
  0
ARC
  5
1DE5A
  8
0
 10
4757.758398268370911
 20
521.0055348638211399
 30
0.0
 40
0.001274459775153
 50
115.6491728588604957
 51
156.172833464978595
  0
ARC
  5
1DE5B
  8
0
 10
4758.0374058956058434
 20
517.9940641786874949
 30
0.0
 40
3.0133872692476951
 50
91.5912402308022138
 51
95.3348521677044829
  0
LINE
  5
1DE5C
  8
0
 10
4757.7572324330631091
 20
520.9943984376243407
 30
0.0
 11
4757.7982486061628151
 21
520.9727220488001649
 31
0.0
  0
ARC
  5
1DE5D
  8
0
 10
4757.7935039723788577
 20
520.9645276732547927
 30
0.0
 40
0.0094688616169083
 50
300.259721761026924
 51
59.928685597708899
  0
LINE
  5
1DE5E
  8
0
 10
4757.7982755262637511
 20
520.9563489439002524
 30
0.0
 11
4757.7578466062632288
 21
520.9352664086002278
 31
0.0
  0
ARC
  5
1DE5F
  8
0
 10
4758.0374058956058434
 20
517.9342981284944472
 30
0.0
 40
3.0133872692476951
 50
91.5912402308022138
 51
95.3348521677044829
  0
ARC
  5
1DE60
  8
0
 10
4757.758398268370911
 20
520.9341175323502284
 30
0.0
 40
0.001274459775153
 50
115.6491728588604957
 51
156.172833464978595
  0
ARC
  5
1DE61
  8
0
 10
4758.0374058956058434
 20
517.9226467405801486
 30
0.0
 40
3.0133872692476951
 50
91.5912402308022138
 51
95.3348521677044829
  0
LINE
  5
1DE62
  8
0
 10
4757.7572324330631091
 20
520.9229809995171081
 30
0.0
 11
4757.7982486061628151
 21
520.901304610693046
 31
0.0
  0
ARC
  5
1DE63
  8
0
 10
4757.7935039723788577
 20
520.8931102351476738
 30
0.0
 40
0.0094688616169083
 50
300.259721761026924
 51
59.928685597708899
  0
LINE
  5
1DE64
  8
0
 10
4757.7982755262637511
 20
520.8849315057931335
 30
0.0
 11
4757.7630126720778208
 21
520.8665429273165728
 31
0.0
  0
ARC
  5
1DE65
  8
0
 10
4758.0374058956058434
 20
517.8628806903873283
 30
0.0
 40
3.0133872692476951
 50
91.5912402308022138
 51
94.6043947543792854
  0
ARC
  5
1DE66
  8
0
 10
4758.2644605453187978
 20
523.8992315967751665
 30
0.0
 40
3.0133872692476951
 50
271.5912402308022138
 51
275.3348521677045255
  0
LINE
  5
1DE67
  8
0
 10
4758.5446340078633511
 20
520.8988973378384344
 30
0.0
 11
4758.5036178347627356
 21
520.9205737266624965
 31
0.0
  0
ARC
  5
1DE68
  8
0
 10
4758.5083624685457835
 20
520.9287681022079823
 30
0.0
 40
0.0094688616169083
 50
120.2597217610268956
 51
239.9286855977088919
  0
LINE
  5
1DE69
  8
0
 10
4758.5035909146636186
 20
520.9369468315625227
 30
0.0
 11
4758.5440198346632314
 21
520.9580293668625472
 31
0.0
  0
ARC
  5
1DE6A
  8
0
 10
4758.2644605453187978
 20
523.9589976469683279
 30
0.0
 40
3.0133872692476951
 50
271.5912402308022138
 51
275.3348521677045255
  0
ARC
  5
1DE6B
  8
0
 10
4758.5434681725555492
 20
520.9591782431125466
 30
0.0
 40
0.001274459775153
 50
295.6491728588604815
 51
336.1728334649786234
  0
ARC
  5
1DE6C
  8
0
 10
4758.2644605453187978
 20
523.9706489028208125
 30
0.0
 40
3.0133872692476951
 50
271.5912402308022138
 51
275.3348521677045255
  0
LINE
  5
1DE6D
  8
0
 10
4758.5446340078633511
 20
520.970314643883853
 30
0.0
 11
4758.5036178347627356
 21
520.9919910327080288
 31
0.0
  0
ARC
  5
1DE6E
  8
0
 10
4758.5083624685457835
 20
521.0001854082535147
 30
0.0
 40
0.0094688616169083
 50
120.2597217610268956
 51
239.9286855977088919
  0
LINE
  5
1DE6F
  8
0
 10
4758.5035909146636186
 20
521.008364137608055
 30
0.0
 11
4758.5440198346632314
 21
521.0294466729079659
 31
0.0
  0
ARC
  5
1DE70
  8
0
 10
4758.2644605453187978
 20
524.0304149530137465
 30
0.0
 40
3.0133872692476951
 50
271.5912402308022138
 51
275.3348521677045255
  0
ARC
  5
1DE71
  8
0
 10
4758.5434681725555492
 20
521.0305955491579653
 30
0.0
 40
0.001274459775153
 50
295.6491728588604815
 51
336.1728334649786234
  0
ARC
  5
1DE72
  8
0
 10
4758.2644605453187978
 20
524.042066234291724
 30
0.0
 40
3.0133872692476951
 50
271.5912402308022138
 51
275.3348521677045255
  0
LINE
  5
1DE73
  8
0
 10
4758.5446340078633511
 20
521.0417319753546508
 30
0.0
 11
4758.5036178347627356
 21
521.0634083641789402
 31
0.0
  0
ARC
  5
1DE74
  8
0
 10
4758.5083624685457835
 20
521.0716027397243124
 30
0.0
 40
0.0094688616169083
 50
120.2597217610268956
 51
239.9286855977088919
  0
LINE
  5
1DE75
  8
0
 10
4758.5035909146636186
 20
521.0797814690788528
 30
0.0
 11
4758.5440198346632314
 21
521.1008640043788773
 31
0.0
  0
ARC
  5
1DE76
  8
0
 10
4758.2644605453187978
 20
524.1018322844845443
 30
0.0
 40
3.0133872692476951
 50
271.5912402308022138
 51
275.3348521677045255
  0
ARC
  5
1DE77
  8
0
 10
4758.5434681725555492
 20
521.102012880628763
 30
0.0
 40
0.001274459775153
 50
295.6491728588604815
 51
336.1728334649786234
  0
ARC
  5
1DE78
  8
0
 10
4758.2644605453187978
 20
524.1134836723988428
 30
0.0
 40
3.0133872692476951
 50
271.5912402308022138
 51
275.3348521677045255
  0
LINE
  5
1DE79
  8
0
 10
4758.5446340078633511
 20
521.1131494134617697
 30
0.0
 11
4758.5036178347627356
 21
521.1348258022859454
 31
0.0
  0
ARC
  5
1DE7A
  8
0
 10
4758.5083624685457835
 20
521.1430201778314313
 30
0.0
 40
0.0094688616169083
 50
120.2597217610268956
 51
239.9286855977088919
  0
LINE
  5
1DE7B
  8
0
 10
4758.5035909146636186
 20
521.1511989071858579
 30
0.0
 11
4758.5446340078633511
 21
521.1726017163931601
 31
0.0
  0
ARC
  5
1DE7C
  8
0
 10
4758.2644605453187978
 20
524.1732497225917768
 30
0.0
 40
3.0133872692476951
 50
271.5912402308022138
 51
275.3348521677045255
  0
LINE
  5
1DE7D
  8
0
 10
4757.9537277134795659
 20
521.1491240395725981
 30
0.0
 11
4758.3481387274468943
 21
521.1610508096747481
 31
0.0
  0
LINE
  5
1DE7E
  8
0
 10
4757.9537277134795659
 20
521.0893579893795504
 30
0.0
 11
4758.3481387274468943
 21
521.1012584490298423
 31
0.0
  0
LINE
  5
1DE7F
  8
0
 10
4757.9537277134795659
 20
521.0777067335270658
 30
0.0
 11
4758.3481387274468943
 21
521.0896070540647997
 31
0.0
  0
LINE
  5
1DE80
  8
0
 10
4757.9537277134795659
 20
521.0179406805457347
 30
0.0
 11
4758.3481387274468943
 21
521.0298410109227234
 31
0.0
  0
LINE
  5
1DE81
  8
0
 10
4757.9537277134795659
 20
521.006289402056268
 30
0.0
 11
4758.3481387274468943
 21
521.0181897324332567
 31
0.0
  0
LINE
  5
1DE82
  8
0
 10
4757.9537277134795659
 20
520.946523358914078
 30
0.0
 11
4758.3481387274468943
 21
520.9584236794519256
 31
0.0
  0
LINE
  5
1DE83
  8
0
 10
4758.3481387274468943
 20
520.946772423599441
 30
0.0
 11
4757.9537277134795659
 21
520.9348719639491492
 31
0.0
  0
LINE
  5
1DE84
  8
0
 10
4757.9537277134795659
 20
520.8750796033042434
 30
0.0
 11
4758.3481387274468943
 21
520.8870063734063933
 31
0.0
  0
LINE
  5
1DE85
  8
0
 10
4758.544101215063165
 20
520.8867902636166036
 30
0.0
 11
4758.5052866962632834
 21
520.8665429273165728
 31
0.0
  0
ARC
  5
1DE86
  8
0
 10
4758.5435208195503947
 20
520.8878542908091731
 30
0.0
 40
0.0012120283898049
 50
298.6111670047058055
 51
336.7006243504129088
  0
ARC
  5
1DE87
  8
0
 10
4759.4324292831643106
 20
530.7405586754405249
 30
0.0
 40
0.0118110238992308
 50
270.0098708812877817
 51
359.9999993986937739
  0
ARC
  5
1DE88
  8
0
 10
4758.7596192312630592
 20
531.3082844590165905
 30
0.0
 40
0.787401574699987
 50
291.6748556137873152
 51
312.6072234608412259
  0
ARC
  5
1DE89
  8
0
 10
4759.0228095991551527
 20
530.6460704869590472
 30
0.0
 40
0.0748031502425594
 50
270.000000159300896
 51
291.6748556137873152
  0
LINE
  5
1DE8A
  8
0
 10
4758.7414844015629569
 20
530.2388224151164877
 30
0.0
 11
4758.6616271336642967
 21
530.1891221335165483
 31
0.0
  0
ARC
  5
1DE8B
  8
0
 10
4758.6824292836090535
 20
530.1556964896786894
 30
0.0
 40
0.0393700788464457
 50
121.8956992299599023
 51
179.9999999447892094
  0
LINE
  5
1DE8C
  8
0
 10
4758.7021143228630535
 20
530.5712673367165735
 30
0.0
 11
4758.7021143228630535
 21
530.2822618102164824
 31
0.0
  0
LINE
  5
1DE8D
  8
0
 10
4758.1903032992631779
 20
530.5712673367165735
 30
0.0
 11
4758.1903032992631779
 21
530.2822618102164824
 31
0.0
  0
ARC
  5
1DE8E
  8
0
 10
4758.7367853800851663
 20
530.2823650528285953
 30
0.0
 40
0.004700155517533
 50
358.7413519174219232
 51
62.895576998744481
  0
ARC
  5
1DE8F
  8
0
 10
4758.7325137512943911
 20
530.2740191470103355
 30
0.0
 40
0.0140757065122574
 50
62.8955769986921567
 51
92.4189992187210692
  0
ARC
  5
1DE90
  8
0
 10
4758.7361902363909394
 20
530.1869906335090263
 30
0.0
 40
0.1011818412268817
 50
92.4189992187210692
 51
109.6807509060596999
  0
ARC
  5
1DE91
  8
0
 10
4758.4462088110631157
 20
531.0143173730639319
 30
0.0
 40
0.7754953114399848
 50
250.7318460258690038
 51
289.2681539741309962
  0
ARC
  5
1DE92
  8
0
 10
4758.6312481811628459
 20
529.5594563131165842
 30
0.0
 40
0.0118110235999947
 50
269.9999995148539824
 51
0.0000000000260551
  0
ARC
  5
1DE94
  8
0
 10
4758.1509332204132079
 20
530.1523400530694516
 30
0.0
 40
0.135755906247091
 50
73.1416620971934464
 51
106.8583379028064968
  0
ENDSEC
  0
EOF
