  0
SECTION
  2
HEADER
  9
$ACADVER
  1
AC1009
  9
$INSBASE
 10
4541.05128118981429
 20
460.471411109217172
 30
0.0
  9
$EXTMIN
 10
4532.227877414534305
 20
455.7601133093796193
 30
0.0
  9
$EXTMAX
 10
4545.9361035727388298
 20
464.9085725235092923
 30
0.0
  9
$LIMMIN
 10
0.0
 20
0.0
  9
$LIMMAX
 10
11.6929133858000007
 20
8.2677165353999982
  9
$ORTHOMODE
 70
     0
  9
$REGENMODE
 70
     1
  9
$FILLMODE
 70
     1
  9
$QTEXTMODE
 70
     0
  9
$MIRRTEXT
 70
     0
  9
$DRAGMODE
 70
     2
  9
$LTSCALE
 40
0.6431102362
  9
$OSMODE
 70
  2039
  9
$ATTMODE
 70
     1
  9
$TEXTSIZE
 40
0.2
  9
$TRACEWID
 40
0.05
  9
$TEXTSTYLE
  7
STANDARD
  9
$CLAYER
  8
0
  9
$CELTYPE
  6
BYLAYER
  9
$CECOLOR
 62
   256
  9
$DIMSCALE
 40
1.0
  9
$DIMASZ
 40
0.1875
  9
$DIMEXO
 40
0.0625
  9
$DIMDLI
 40
0.4443307087
  9
$DIMRND
 40
0.0
  9
$DIMDLE
 40
0.0
  9
$DIMEXE
 40
0.125
  9
$DIMTP
 40
0.01
  9
$DIMTM
 40
0.01
  9
$DIMTXT
 40
2.0
  9
$DIMCEN
 40
0.1052362205
  9
$DIMTSZ
 40
0.0
  9
$DIMTOL
 70
     1
  9
$DIMLIM
 70
     0
  9
$DIMTIH
 70
     1
  9
$DIMTOH
 70
     1
  9
$DIMSE1
 70
     0
  9
$DIMSE2
 70
     0
  9
$DIMTAD
 70
     0
  9
$DIMZIN
 70
     0
  9
$DIMBLK
  1

  9
$DIMASO
 70
     1
  9
$DIMSHO
 70
     1
  9
$DIMPOST
  1
\X
  9
$DIMAPOST
  1

  9
$DIMALT
 70
     1
  9
$DIMALTD
 70
     2
  9
$DIMALTF
 40
25.3999999999999986
  9
$DIMLFAC
 40
1.0
  9
$DIMTOFL
 70
     0
  9
$DIMTVP
 40
0.0
  9
$DIMTIX
 70
     0
  9
$DIMSOXD
 70
     0
  9
$DIMSAH
 70
     0
  9
$DIMBLK1
  1

  9
$DIMBLK2
  1

  9
$DIMSTYLE
  2
STANDARD
  9
$DIMCLRD
 70
     0
  9
$DIMCLRE
 70
     0
  9
$DIMCLRT
 70
     0
  9
$DIMTFAC
 40
1.0
  9
$DIMGAP
 40
0.09
  9
$LUNITS
 70
     2
  9
$LUPREC
 70
     4
  9
$SKETCHINC
 40
0.1
  9
$FILLETRAD
 40
0.0
  9
$AUNITS
 70
     0
  9
$AUPREC
 70
     0
  9
$MENU
  1
.
  9
$ELEVATION
 40
0.0
  9
$PELEVATION
 40
0.0
  9
$THICKNESS
 40
0.0
  9
$LIMCHECK
 70
     0
  9
$BLIPMODE
 70
     0
  9
$CHAMFERA
 40
0.0
  9
$CHAMFERB
 40
0.0
  9
$SKPOLY
 70
     0
  9
$TDCREATE
 40
2458060.468368056230247
  9
$TDUPDATE
 40
2459667.4640740738250315
  9
$TDINDWG
 40
1.5305351852
  9
$TDUSRTIMER
 40
1.5305351852
  9
$USRTIMER
 70
     1
  9
$ANGBASE
 50
0.0
  9
$ANGDIR
 70
     0
  9
$PDMODE
 70
     0
  9
$PDSIZE
 40
0.3125
  9
$PLINEWID
 40
0.0
  9
$COORDS
 70
     1
  9
$SPLFRAME
 70
     0
  9
$SPLINETYPE
 70
     6
  9
$SPLINESEGS
 70
     8
  9
$ATTDIA
 70
     1
  9
$ATTREQ
 70
     1
  9
$HANDLING
 70
     1
  9
$HANDSEED
  5
1E58C
  9
$SURFTAB1
 70
     6
  9
$SURFTAB2
 70
     6
  9
$SURFTYPE
 70
     6
  9
$SURFU
 70
     6
  9
$SURFV
 70
     6
  9
$UCSNAME
  2

  9
$UCSORG
 10
0.0
 20
0.0
 30
0.0
  9
$UCSXDIR
 10
1.0
 20
0.0
 30
0.0
  9
$UCSYDIR
 10
0.0
 20
1.0
 30
0.0
  9
$PUCSNAME
  2

  9
$PUCSORG
 10
0.0
 20
0.0
 30
0.0
  9
$PUCSXDIR
 10
1.0
 20
0.0
 30
0.0
  9
$PUCSYDIR
 10
0.0
 20
1.0
 30
0.0
  9
$USERI1
 70
     0
  9
$USERI2
 70
     0
  9
$USERI3
 70
     0
  9
$USERI4
 70
     0
  9
$USERI5
 70
     0
  9
$USERR1
 40
0.0
  9
$USERR2
 40
0.0
  9
$USERR3
 40
0.0
  9
$USERR4
 40
0.0
  9
$USERR5
 40
0.0
  9
$WORLDVIEW
 70
     1
  9
$SHADEDGE
 70
     3
  9
$SHADEDIF
 70
    70
  9
$TILEMODE
 70
     1
  9
$MAXACTVP
 70
    64
  9
$PLIMCHECK
 70
     0
  9
$PEXTMIN
 10
1.0000000000000000E+20
 20
1.0000000000000000E+20
 30
1.0000000000000000E+20
  9
$PEXTMAX
 10
-1.0000000000000000E+20
 20
-1.0000000000000000E+20
 30
-1.0000000000000000E+20
  9
$PLIMMIN
 10
0.0
 20
0.0
  9
$PLIMMAX
 10
12.0
 20
9.0
  9
$UNITMODE
 70
     0
  9
$VISRETAIN
 70
     1
  9
$PLINEGEN
 70
     0
  9
$PSLTSCALE
 70
     1
  0
ENDSEC
  0
SECTION
  2
TABLES
  0
TABLE
  2
VPORT
 70
     1
  0
VPORT
  2
*ACTIVE
 70
     0
 10
0.0
 20
0.0
 11
1.0
 21
1.0
 12
639.4806163487819504
 22
329.1478724965957099
 13
0.0
 23
0.0
 14
1.0
 24
1.0
 15
0.0
 25
0.0
 16
0.0
 26
0.0
 36
60.4960186965801583
 17
3911.3653564453120453
 27
132.5796051025390057
 37
0.0
 40
24.2744832978979908
 41
2.5410052910052912
 42
50.0
 43
0.0
 44
0.0
 50
0.0
 51
0.0
 71
     0
 72
   100
 73
     1
 74
     1
 75
     0
 76
     0
 77
     0
 78
     0
  0
ENDTAB
  0
TABLE
  2
LTYPE
 70
     2
  0
LTYPE
  2
CONTINUOUS
 70
     0
  3
Solid line
 72
    65
 73
     0
 40
0.0
  0
LTYPE
  2
PHANTOM2
 70
     0
  3
___ _ _ ___ _ _ ___ _ _ ___ _ _
 72
    65
 73
     6
 40
1.25
 49
0.625
 49
-0.125
 49
0.125
 49
-0.125
 49
0.125
 49
-0.125
  0
ENDTAB
  0
TABLE
  2
LAYER
 70
     2
  0
LAYER
  2
0
 70
     0
 62
   255
  6
CONTINUOUS
  0
LAYER
  2
DEFPOINTS
 70
     0
 62
     7
  6
CONTINUOUS
  0
ENDTAB
  0
TABLE
  2
STYLE
 70
     1
  0
STYLE
  2
STANDARD
 70
     0
 40
0.0
 41
0.8
 50
0.0
 71
     0
 42
0.2
  3
txt
  4

  0
ENDTAB
  0
TABLE
  2
VIEW
 70
     0
  0
ENDTAB
  0
TABLE
  2
UCS
 70
     0
  0
ENDTAB
  0
TABLE
  2
APPID
 70
    11
  0
APPID
  2
ACAD
 70
     0
  0
APPID
  2
ACAD_MLEADERVER
 70
     0
  0
APPID
  2
ACAD_EXEMPT_FROM_CAD_STANDARDS
 70
     0
  0
APPID
  2
ACAD_NAV_VCDISPLAY
 70
     0
  0
APPID
  2
ACAECLAYERSTANDARD
 70
     0
  0
APPID
  2
ACCMTRANSPARENCY
 70
     0
  0
APPID
  2
ACAD_DSTYLE_DIMJAG
 70
     0
  0
APPID
  2
ACAD_DSTYLE_DIMTALN
 70
     0
  0
APPID
  2
ACDBATTR
 70
     0
  0
APPID
  2
ACADANNOTATIVE
 70
     0
  0
APPID
  2
DCO15
 70
     0
  0
ENDTAB
  0
TABLE
  2
DIMSTYLE
 70
     1
  0
DIMSTYLE
  2
STANDARD
 70
     0
  3

  4

  5

  6

  7

 40
1.0
 41
0.1875
 42
0.0625
 43
0.38
 44
0.125
 45
0.0
 46
0.0
 47
0.01
 48
0.01
140
0.15625
141
0.09
142
0.0
143
25.3999999999999986
144
1.0
145
0.0
146
1.0
147
0.09
 71
     1
 72
     0
 73
     1
 74
     1
 75
     0
 76
     0
 77
     0
 78
     4
170
     0
171
     2
172
     0
173
     0
174
     0
175
     0
176
     0
177
     0
178
     0
  0
ENDTAB
  0
ENDSEC
  0
SECTION
  2
BLOCKS
  0
BLOCK
  8
0
  2
$MODEL_SPACE
 70
     0
 10
0.0
 20
0.0
 30
0.0
  3
$MODEL_SPACE
  1

  0
ENDBLK
  5
21
  8
0
  0
BLOCK
 67
     1
  8
0
  2
$PAPER_SPACE
 70
     0
 10
0.0
 20
0.0
 30
0.0
  3
$PAPER_SPACE
  1

  0
ENDBLK
  5
1D
 67
     1
  8
0
  0
BLOCK
  8
0
  2
_FILLED
 70
     0
 10
0.0
 20
0.0
 30
0.0
  3
_FILLED
  1

  0
SOLID
  5
1B77F
  8
0
  6
BYBLOCK
 62
     0
 10
0.0
 20
0.0
 30
0.0
 11
-1.0
 21
0.1666666667
 31
0.0
 12
-1.0
 22
-0.1666666667
 32
0.0
 13
-1.0
 23
-0.1666666667
 33
0.0
  0
ENDBLK
  5
1B780
  8
0
  6
BYBLOCK
 62
     0
  0
ENDSEC
  0
SECTION
  2
ENTITIES
  0
ATTDEF
  5
159BF
  8
DEFPOINTS
 10
4541.0532436561943541
 20
460.4759220738202998
 30
0.0
 40
0.001
  1
K-16356IN-A
  3

  2
MODELNUMBER
 70
     0
1001
ACDBATTR
1070
     0
1070
     1
  0
ATTDEF
  5
159C0
  8
DEFPOINTS
 10
4541.0532436561943541
 20
460.4742552334409993
 30
0.0
 40
0.001
  1

  3

  2
TRADENAME
 70
     0
1001
ACDBATTR
1070
     0
1070
     1
  0
ATTDEF
  5
159C1
  8
DEFPOINTS
 10
4541.0532436561943541
 20
460.472588740486799
 30
0.0
 40
0.001
  1
SHOWERHEAD
  3

  2
PRODUCT
 70
     0
1001
ACDBATTR
1070
     0
1070
     1
  0
ARC
  5
1DD0B
  8
0
 10
4541.057898922304048
 20
456.086001452205096
 30
0.0
 40
2.6240600173007809
 50
90.1444969021243452
 51
102.849812335244394
  0
ARC
  5
1DD0C
  8
0
 10
4540.9751140915868746
 20
456.4740829141318272
 30
0.0
 40
2.2272935212821832
 50
102.9937724638097052
 51
117.9285846471762937
  0
ARC
  5
1DD0D
  8
0
 10
4540.6677054137626328
 20
457.0194895736366902
 30
0.0
 40
1.6015095011428231
 50
117.3506852429722045
 51
147.6030610423736107
  0
ARC
  5
1DD0E
  8
0
 10
4540.3055810915629991
 20
457.2779124686643968
 30
0.0
 40
1.1575418108059541
 50
148.8000785384022038
 51
173.1061245801232928
  0
ARC
  5
1DD0F
  8
0
 10
4541.045847428335037
 20
458.1962203746892897
 30
0.0
 40
2.4361070653096211
 50
250.3489774876236993
 51
270.1277989224342946
  0
ARC
  5
1DD10
  8
0
 10
4540.3867629752548964
 20
457.2977965580112141
 30
0.0
 40
1.2361017601290141
 50
174.4729265204219928
 51
204.4266423458927022
  0
ARC
  5
1DD11
  8
0
 10
4540.6809133654633115
 20
457.3691559111359197
 30
0.0
 40
1.5344789611642831
 50
202.3102657629081023
 51
223.1083799877555123
  0
ARC
  5
1DD12
  8
0
 10
4540.8076455629716293
 20
457.56564514422098
 30
0.0
 40
1.7621953179631189
 50
224.9568884572929903
 51
250.7479984256353021
  0
ARC
  5
1DD13
  8
0
 10
4541.0447151776306782
 20
455.8846172788606168
 30
0.0
 40
2.4266206720478918
 50
89.8445847729055203
 51
111.954519069611905
  0
ARC
  5
1DD14
  8
0
 10
4540.6323054435388258
 20
456.7631523791503128
 30
0.0
 40
1.4586098486467201
 50
109.8311331967379942
 51
151.0424760440716057
  0
ARC
  5
1DD15
  8
0
 10
4540.2329613457841333
 20
457.0492106802142871
 30
0.0
 40
0.9841271503822532
 50
181.6705304220299979
 51
214.0043159001068034
  0
ARC
  5
1DD16
  8
0
 10
4540.2059178663575949
 20
457.0300053054766067
 30
0.0
 40
0.9567124129832034
 50
152.6626915947026077
 51
180.5679903430911111
  0
ARC
  5
1DD17
  8
0
 10
9281.1189379609750176
 20
340.0862990818541789
 30
0.0
 40
4743.231304779022139
 50
178.5853412476749895
 51
178.5870335432016134
  0
ARC
  5
1DD18
  8
0
 10
4540.2548340687144446
 20
457.0197999593801796
 30
0.0
 40
0.9365270785533933
 50
149.2350053382070882
 51
169.7200869521954019
  0
ARC
  5
1DD19
  8
0
 10
4541.0495635336346822
 20
455.8471607745336769
 30
0.0
 40
2.4063554923149022
 50
89.9591022779644618
 51
104.2465306412508994
  0
ARC
  5
1DD1A
  8
0
 10
4540.4647203029362572
 20
456.8977463174849731
 30
0.0
 40
1.179311810030738
 50
134.6204649793646126
 51
149.3556511497851886
  0
ARC
  5
1DD1B
  8
0
 10
4540.7248163043886962
 20
456.6299442812658071
 30
0.0
 40
1.5526228498149199
 50
117.8418819816708947
 51
134.5106344118088941
  0
ARC
  5
1DD1C
  8
0
 10
4540.9478863867907421
 20
456.2276652208589098
 30
0.0
 40
2.0125369433549412
 50
104.1067439553538065
 51
118.1086358881750016
  0
ARC
  5
1DD1D
  8
0
 10
4540.2381080960649342
 20
457.028128380812916
 30
0.0
 40
0.9084189479203665
 50
178.8179309505059109
 51
208.1355771440582885
  0
ARC
  5
1DD1E
  8
0
 10
4541.0499911866427283
 20
458.191685015305211
 30
0.0
 40
2.389475329904263
 50
258.1940991341127187
 51
270.0309322050732135
  0
ARC
  5
1DD1F
  8
0
 10
4540.4605523411382819
 20
457.1415886804683737
 30
0.0
 40
1.158091307594969
 50
207.8959955909267023
 51
224.2079465280075112
  0
ARC
  5
1DD20
  8
0
 10
4540.7444375853438032
 20
457.4296240583515214
 30
0.0
 40
1.5624443058863451
 50
224.5205523308615057
 51
243.9560021686814935
  0
ARC
  5
1DD21
  8
0
 10
4540.9808789076860194
 20
457.888434437414503
 30
0.0
 40
2.0785070219335808
 50
243.6531471193736991
 51
258.348638428786785
  0
ARC
  5
1DD22
  8
0
 10
4540.2061989720778001
 20
457.0244159748675088
 30
0.0
 40
0.8766029462545406
 50
164.968372896345187
 51
178.5315812367880994
  0
ARC
  5
1DD23
  8
0
 10
4541.0495746074757335
 20
455.8499370360581224
 30
0.0
 40
2.3930806279683789
 50
89.9591405435420768
 51
101.7777469729436035
  0
ARC
  5
1DD24
  8
0
 10
4541.0077370930666802
 20
456.0542353776870073
 30
0.0
 40
2.1845438592663728
 50
101.7972560630508951
 51
109.9321546057502985
  0
ARC
  5
1DD25
  8
0
 10
4540.3800297076677452
 20
456.9632698325623892
 30
0.0
 40
1.060436098890025
 50
134.4645751426012907
 51
164.2135188767599914
  0
ARC
  5
1DD26
  8
0
 10
4540.8188507003405903
 20
456.5122715487610208
 30
0.0
 40
1.6896885413325879
 50
109.205677271077306
 51
134.3719845816054885
  0
ARC
  5
1DD27
  8
0
 10
4540.9565609570781817
 20
458.8829032141010771
 30
0.0
 40
0.4714766312659549
 50
103.3264033943307965
 51
147.2023759844371114
  0
ARC
  5
1DD28
  8
0
 10
4540.551170396624002
 20
459.1048191081168852
 30
0.0
 40
0.0071461975280972
 50
103.5604967738955935
 51
171.8836054423663882
  0
ARC
  5
1DD29
  8
0
 10
4540.5371894951176728
 20
459.0687131854293739
 30
0.0
 40
0.0065842619924563
 50
107.5874479195499021
 51
174.373786710839795
  0
ARC
  5
1DD2A
  8
0
 10
4540.5287480597180547
 20
459.0316189303921988
 30
0.0
 40
0.0062621197848315
 50
113.2032599286984009
 51
175.5090753073797032
  0
ARC
  5
1DD2B
  8
0
 10
4540.5256330068996249
 20
458.9941421190792994
 30
0.0
 40
0.0058569388508268
 50
122.3687031485339958
 51
176.8129213231102028
  0
ARC
  5
1DD2C
  8
0
 10
4541.0502969787712573
 20
457.9353037747210919
 30
0.0
 40
0.930049113859699
 50
89.93936755742439
 51
108.4203420794796955
  0
ARC
  5
1DD2D
  8
0
 10
4541.0482670553456046
 20
458.3495030491988018
 30
0.0
 40
0.551712781336501
 50
89.6869783538332257
 51
121.9374760886835958
  0
ARC
  5
1DD2E
  8
0
 10
4540.9995895773872689
 20
458.0935159183406995
 30
0.0
 40
0.7639226436791288
 50
108.5616053093247046
 51
124.0240895911113057
  0
ARC
  5
1DD2F
  8
0
 10
4540.9453703537528781
 20
458.1837970698611002
 30
0.0
 40
0.6587831321385446
 50
124.5093148156148999
 51
135.645993732246211
  0
ARC
  5
1DD30
  8
0
 10
4540.9667697592458353
 20
458.4731541223919749
 30
0.0
 40
0.4879231309536386
 50
104.1021682127302057
 51
146.426611139496913
  0
ARC
  5
1DD31
  8
0
 10
4540.9454832347037154
 20
458.9557200663077765
 30
0.0
 40
0.0116249966536225
 50
62.6495276184861112
 51
134.0127204918790085
  0
ARC
  5
1DD32
  8
0
 10
4540.9717004236326829
 20
458.9686724708606107
 30
0.0
 40
0.0119354532368922
 50
243.2964479876513053
 51
309.1622577477583036
  0
ARC
  5
1DD33
  8
0
 10
4540.9981244135024099
 20
458.9611253356885072
 30
0.0
 40
0.0119320990271487
 50
59.2045361591142623
 51
129.0832387008204023
  0
ARC
  5
1DD34
  8
0
 10
4541.0510605918880174
 20
458.9637053365175916
 30
0.0
 40
0.0112773698766429
 50
88.8791591908858578
 51
126.0136260290428964
  0
ARC
  5
1DD35
  8
0
 10
4541.0246580299763082
 20
458.9726675061812102
 30
0.0
 40
0.0120864563384882
 50
239.4084777155391066
 51
304.7300114059452767
  0
ARC
  5
1DD36
  8
0
 10
4540.9196019281707777
 20
458.9607497813908026
 30
0.0
 40
0.0116558564224282
 50
247.0213267000038968
 51
313.888196945571508
  0
ARC
  5
1DD37
  8
0
 10
4540.8939226533484543
 20
458.9465178443248874
 30
0.0
 40
0.0113257622017535
 50
66.3757278645595079
 51
138.8361431389625977
  0
ARC
  5
1DD38
  8
0
 10
4540.8688480251421424
 20
458.9492193129477187
 30
0.0
 40
0.0114633473643951
 50
244.5525583267015008
 51
318.3551750110336229
  0
ARC
  5
1DD39
  8
0
 10
4540.8688548606460245
 20
459.3444972411559206
 30
0.0
 40
0.0114358395011101
 50
244.4490053370481064
 51
318.4587285730253825
  0
ARC
  5
1DD3A
  8
0
 10
4540.8938729347182743
 20
459.3420518295041006
 30
0.0
 40
0.011142811615221
 50
65.6833791897539641
 51
139.5284918105679139
  0
ARC
  5
1DD3B
  8
0
 10
4540.9196101964353147
 20
459.356016637509299
 30
0.0
 40
0.0116178579840376
 50
246.897515561149703
 51
314.01200778868008
  0
ARC
  5
1DD3C
  8
0
 10
4540.9454809451526671
 20
459.3510473657639182
 30
0.0
 40
0.0116121654727817
 50
62.6040519122837935
 51
134.0581960031865094
  0
ARC
  5
1DD3D
  8
0
 10
4540.9716926875053105
 20
459.3640550106429146
 30
0.0
 40
0.0119953548874933
 50
243.4815867288990887
 51
308.9771181950231949
  0
ARC
  5
1DD3E
  8
0
 10
4540.9981217071190258
 20
459.3564743544686166
 30
0.0
 40
0.0119014170389226
 50
59.1012764496054928
 51
129.1864975413637069
  0
ARC
  5
1DD3F
  8
0
 10
4541.0246580298817207
 20
459.3679791715794067
 30
0.0
 40
0.0120864566368918
 50
239.4084790677943033
 51
304.7300109658270912
  0
ARC
  5
1DD40
  8
0
 10
4541.0510857759891223
 20
459.3589368664938775
 30
0.0
 40
0.0113570285341786
 50
89.0140959878098101
 51
125.8786892321638931
  0
ARC
  5
1DD41
  8
0
 10
4540.5520938335066603
 20
458.7077843996227102
 30
0.0
 40
0.0090512013923965
 50
106.6871900313763035
 51
135.5637537603066107
  0
ARC
  5
1DD42
  8
0
 10
4540.549305785551951
 20
458.7106236504309891
 30
0.0
 40
0.005211109427209
 50
181.1795645108238944
 51
220.6526221887156964
  0
ARC
  5
1DD43
  8
0
 10
4540.549439151014667
 20
458.7103701480039035
 30
0.0
 40
0.0053453710671087
 50
135.4321076448943018
 51
178.4324265092471933
  0
ARC
  5
1DD44
  8
0
 10
4540.5444861169717115
 20
458.7089198130545924
 30
0.0
 40
0.0348067332064383
 50
39.6301527565814169
 51
45.4637697491550412
  0
ARC
  5
1DD45
  8
0
 10
4540.5672963010156309
 20
458.7279643407255776
 30
0.0
 40
0.0050930615341517
 50
0.8124597694542355
 51
38.295085890954681
  0
LINE
  5
1DD46
  8
0
 10
4540.5721432190039195
 20
458.726656831749608
 30
0.0
 11
4540.5723888505162904
 21
458.7280365584172159
 31
0.0
  0
LINE
  5
1DD47
  8
0
 10
4540.5688981722078097
 20
458.7337302994590118
 30
0.0
 11
4540.5602428556139785
 21
458.7429778766170898
 31
0.0
  0
LINE
  5
1DD48
  8
0
 10
4540.5602428556139785
 20
458.7429778766170898
 30
0.0
 11
4540.5602428556139785
 21
459.1382895416172119
 31
0.0
  0
LINE
  5
1DD49
  8
0
 10
4540.5602428556139785
 20
459.1152335285171944
 30
0.0
 11
4540.5494948139148619
 21
459.1117660903171895
 31
0.0
  0
LINE
  5
1DD4A
  8
0
 10
4540.5440957804148638
 20
459.1058280405172241
 30
0.0
 11
4540.5440957804148638
 21
458.7105163754702062
 31
0.0
  0
LINE
  5
1DD4B
  8
0
 10
4540.5440957804148638
 20
459.0786764116172094
 30
0.0
 11
4540.5351999875147158
 21
459.0749896785172268
 31
0.0
  0
LINE
  5
1DD4C
  8
0
 10
4540.5306369518148131
 20
459.0693586947172093
 30
0.0
 11
4540.5306369518148131
 21
458.6956480447618105
 31
0.0
  0
LINE
  5
1DD4D
  8
0
 10
4540.5306369518148131
 20
459.0396309717172016
 30
0.0
 11
4540.5262808208162824
 21
459.0373745256171105
 31
0.0
  0
LINE
  5
1DD4E
  8
0
 10
4540.5225051662137048
 20
459.0321092618171974
 30
0.0
 11
4540.5225051662137048
 21
458.6889507577208178
 31
0.0
  0
LINE
  5
1DD4F
  8
0
 10
4540.5197851268139857
 20
458.9944677434170899
 30
0.0
 11
4540.5197851268139857
 21
458.6866612958723977
 31
0.0
  0
LINE
  5
1DD50
  8
0
 10
4540.5494948139148619
 20
458.7164544252170799
 30
0.0
 11
4540.5643381129493719
 21
458.7212430392124816
 31
0.0
  0
LINE
  5
1DD51
  8
0
 10
4540.5669898170153829
 20
458.7357692383171752
 30
0.0
 11
4540.5669898170153829
 21
458.723100679232175
 31
0.0
  0
LINE
  5
1DD52
  8
0
 10
4540.8639224201151592
 20
458.9388681416170925
 30
0.0
 11
4540.8478864521148353
 21
458.9463726142171822
 31
0.0
  0
LINE
  5
1DD53
  8
0
 10
4540.8478864521148353
 20
458.9463726142171822
 30
0.0
 11
4540.8478864521148353
 21
459.3416842793171782
 31
0.0
  0
LINE
  5
1DD54
  8
0
 10
4540.8478864521148353
 20
459.3416842793171782
 30
0.0
 11
4540.8639224199141609
 21
459.3341798067111768
 31
0.0
  0
LINE
  5
1DD55
  8
0
 10
4540.8774143375139829
 20
459.3369134570854158
 30
0.0
 11
4540.8853962767152552
 21
459.3492842924172237
 31
0.0
  0
LINE
  5
1DD56
  8
0
 10
4540.8984613075162997
 20
459.3522060939171752
 30
0.0
 11
4540.9150516161589621
 21
459.3453304796402108
 31
0.0
  0
LINE
  5
1DD57
  8
0
 10
4540.9374059770361782
 20
459.3593922610216964
 30
0.0
 11
4540.9276823900136151
 21
459.3476611414167792
 31
0.0
  0
LINE
  5
1DD58
  8
0
 10
4540.9508241321145761
 20
459.3613572028170893
 30
0.0
 11
4540.9663369368527128
 21
459.3533216759460061
 31
0.0
  0
LINE
  5
1DD59
  8
0
 10
4540.9906018365136333
 20
459.3656990644171856
 30
0.0
 11
4540.9792378854153867
 21
459.3547298551172275
 31
0.0
  0
LINE
  5
1DD5A
  8
0
 10
4541.0444297506137445
 20
459.3681390088170815
 30
0.0
 11
4541.0315438060151791
 21
459.3580459686172048
 31
0.0
  0
LINE
  5
1DD5B
  8
0
 10
4541.0042333482151662
 20
459.3666866789171763
 30
0.0
 11
4541.0185070625138906
 21
459.3575749401172175
 31
0.0
  0
LINE
  5
1DD5C
  8
0
 10
4540.8853962766734185
 20
458.9539726273692963
 30
0.0
 11
4540.8774143375139829
 21
458.9416017920170816
 31
0.0
  0
LINE
  5
1DD5D
  8
0
 10
4540.8984613075317611
 20
458.9568944289098908
 30
0.0
 11
4540.9150516162162603
 21
458.9500188145171933
 31
0.0
  0
LINE
  5
1DD5E
  8
0
 10
4540.9374059771153043
 20
458.9640805960170837
 30
0.0
 11
4540.9276823900490854
 21
458.9523494763581084
 31
0.0
  0
LINE
  5
1DD5F
  8
0
 10
4540.9508241321145761
 20
458.9660455378170809
 30
0.0
 11
4540.9663369367153791
 21
458.9580100109171781
 31
0.0
  0
LINE
  5
1DD60
  8
0
 10
4540.9906018365136333
 20
458.9703873993171896
 30
0.0
 11
4540.9792378855217976
 21
458.9594181901246088
 31
0.0
  0
LINE
  5
1DD61
  8
0
 10
4541.0185070625138906
 20
458.9622632750172215
 30
0.0
 11
4541.0042333482151662
 21
458.9713750138171804
 31
0.0
  0
LINE
  5
1DD62
  8
0
 10
4541.0444297506137445
 20
458.9728273437171993
 30
0.0
 11
4541.0315438060151791
 21
458.9627343035170952
 31
0.0
  0
LINE
  5
1DD63
  8
0
 10
4540.6452811895223931
 20
459.2370149480781834
 30
0.0
 11
4540.6452811898152504
 21
460.471411109217172
 31
0.0
  0
ARC
  5
1DD64
  8
0
 10
4541.05128118981429
 20
460.471411109217172
 30
0.0
 40
0.4059999999999997
 50
90.0
 51
180.0
  0
ARC
  5
1DD65
  8
0
 10
4541.05128118981429
 20
460.471411109217172
 30
0.0
 40
0.4507107875000003
 50
90.0
 51
205.736657478390697
  0
LINE
  5
1DD66
  8
0
 10
4540.9217183628643397
 20
459.344591653551106
 30
0.0
 11
4540.921716989792003
 21
458.949287429831088
 31
0.0
  0
LINE
  5
1DD67
  8
0
 10
4540.8853962767152552
 20
459.3492842924172237
 30
0.0
 11
4540.8853962767152552
 21
458.9539726274491045
 31
0.0
  0
LINE
  5
1DD68
  8
0
 10
4540.8984613076090682
 20
458.9568944288782859
 30
0.0
 11
4540.8984613075162997
 21
459.3522060939171752
 31
0.0
  0
LINE
  5
1DD69
  8
0
 10
4540.8711257766217386
 20
459.333289147396215
 30
0.0
 11
4540.8711244035421259
 21
458.9379842591350211
 31
0.0
  0
LINE
  5
1DD6A
  8
0
 10
4540.9374059770361782
 20
459.3593922610216964
 30
0.0
 11
4540.9374059771162138
 21
458.9640805960190164
 31
0.0
  0
LINE
  5
1DD6B
  8
0
 10
4540.950755341880722
 20
458.9660808304245734
 30
0.0
 11
4540.9508241092707976
 21
459.3613572146501838
 31
0.0
  0
LINE
  5
1DD6C
  8
0
 10
4540.9906018365136333
 20
459.3656990644171856
 30
0.0
 11
4540.9906018365136333
 21
458.9703873993171896
 31
0.0
  0
LINE
  5
1DD6D
  8
0
 10
4541.004233345762259
 20
458.9713750153836145
 30
0.0
 11
4541.0042333482151662
 21
459.3666866789171763
 31
0.0
  0
LINE
  5
1DD6E
  8
0
 10
4540.9729942871763342
 20
459.3521304822592128
 30
0.0
 11
4540.9729955235407033
 21
458.9568074904477726
 31
0.0
  0
LINE
  5
1DD6F
  8
0
 10
4541.0250944390545556
 20
459.3559005962879951
 30
0.0
 11
4541.0250944390418226
 21
458.9605889311845885
 31
0.0
  0
LINE
  5
1DD70
  8
0
 10
4541.0444297506137445
 20
459.3681390088171952
 30
0.0
 11
4541.0444297506137445
 21
458.9728273437171993
 31
0.0
  0
ARC
  5
1DD71
  8
0
 10
4540.6511772153917263
 20
457.8681391554026732
 30
0.0
 40
0.0183488800954237
 50
83.2604377277543932
 51
159.4902283223840982
  0
ARC
  5
1DD72
  8
0
 10
4540.6533818003763372
 20
457.8653112697442111
 30
0.0
 40
0.021050034615198
 50
27.8614140404665811
 51
90.1394284469116798
  0
ARC
  5
1DD73
  8
0
 10
4540.6467995521752528
 20
457.8712699675651834
 30
0.0
 40
0.013225925883269
 50
165.5602880264486032
 51
230.7664450275212005
  0
ARC
  5
1DD74
  8
0
 10
4540.6534717264494248
 20
457.8784613105265748
 30
0.0
 40
0.0230245325582532
 50
229.2241767290819041
 51
273.2916143882728761
  0
ARC
  5
1DD75
  8
0
 10
4540.6547750962990904
 20
457.8755525687502086
 30
0.0
 40
0.020077814279551
 50
270.0532233792778811
 51
318.1826404330525975
  0
ARC
  5
1DD76
  8
0
 10
4540.6602372040597402
 20
457.8705015209428097
 30
0.0
 40
0.0126398129162412
 50
318.7379775787114795
 51
21.571391758270309
  0
ARC
  5
1DD77
  8
0
 10
4540.6460724024191222
 20
457.8692747588784755
 30
0.0
 40
0.0636819151784016
 50
100.0405808855071967
 51
140.328729984127591
  0
ARC
  5
1DD78
  8
0
 10
4540.6515046042850372
 20
457.8517175387640918
 30
0.0
 40
0.0819472914912455
 50
60.692268683519778
 51
101.640135612801302
  0
ARC
  5
1DD79
  8
0
 10
4540.6667686850769314
 20
457.8774361091960259
 30
0.0
 40
0.0520538403412452
 50
20.7809806490015099
 51
61.4859932741573516
  0
ARC
  5
1DD7A
  8
0
 10
4540.6785156424948582
 20
457.8829251925753852
 30
0.0
 40
0.0391354701457199
 50
343.7257358882268932
 51
19.3692103594052405
  0
ARC
  5
1DD7B
  8
0
 10
4540.6282504460641576
 20
457.885061282922095
 30
0.0
 40
0.039893680271318
 50
141.4404055309271087
 51
187.9016422865462062
  0
ARC
  5
1DD7C
  8
0
 10
4540.654363618113166
 20
457.9051788170136206
 30
0.0
 40
0.0749434054705893
 50
243.6658588920807915
 51
281.6479708350951796
  0
ARC
  5
1DD7D
  8
0
 10
4540.6414134531642048
 20
457.8883981067234004
 30
0.0
 40
0.0534113777044157
 50
189.5062052637129
 51
218.5275692905129858
  0
ARC
  5
1DD7E
  8
0
 10
4540.6490549398331495
 20
457.8951353888888889
 30
0.0
 40
0.0635880230355003
 50
218.9878460079447109
 51
243.9383703466664883
  0
ARC
  5
1DD7F
  8
0
 10
4540.6657876877607123
 20
457.8860684136882924
 30
0.0
 40
0.0522371649301908
 50
305.6568184257657776
 51
344.3285143152996284
  0
ARC
  5
1DD80
  8
0
 10
4540.656333070567598
 20
457.8976048876489244
 30
0.0
 40
0.0671290110594136
 50
281.3067893527671117
 51
306.4737897945444729
  0
ARC
  5
1DD81
  8
0
 10
4540.6435799381433753
 20
457.9160841801360107
 30
0.0
 40
0.059639013839682
 50
162.5849750971750041
 51
188.6632335253154054
  0
ARC
  5
1DD82
  8
0
 10
4540.6585003956006403
 20
457.9070326883710891
 30
0.0
 40
0.062462543104048
 50
351.8561338661262994
 51
27.3560003374236587
  0
ARC
  5
1DD83
  8
0
 10
4540.6421427448030954
 20
457.9163126167964037
 30
0.0
 40
0.0581997164572345
 50
128.9250348492201965
 51
162.3760965339305926
  0
ARC
  5
1DD84
  8
0
 10
4540.6470974374888101
 20
457.9092940804389968
 30
0.0
 40
0.0667752744001085
 50
85.4887836481062777
 51
128.4486702446405957
  0
ARC
  5
1DD85
  8
0
 10
4540.6478054465233072
 20
457.9014951085595158
 30
0.0
 40
0.0745060772178573
 50
27.3589102553699703
 51
86.5033413423418125
  0
LINE
  5
1DD86
  8
0
 10
4540.5846213609138431
 20
457.9071009656171896
 30
0.0
 11
4540.5887355354152533
 21
457.8795769815171752
 31
0.0
  0
LINE
  5
1DD87
  8
0
 10
4540.7203329871135793
 20
457.8981840090172
 30
0.0
 11
4540.7174265529447439
 21
457.878738777470403
 31
0.0
  0
ARC
  5
1DD88
  8
0
 10
4540.7048106260062923
 20
457.4027601778295207
 30
0.0
 40
0.0183488800954237
 50
83.2604377277543932
 51
159.4902283223840982
  0
ARC
  5
1DD89
  8
0
 10
4540.7070152109899936
 20
457.3999322921708881
 30
0.0
 40
0.021050034615198
 50
27.8614140404665811
 51
90.1394284469116798
  0
ARC
  5
1DD8A
  8
0
 10
4540.7004329627889092
 20
457.4058909899919172
 30
0.0
 40
0.013225925883269
 50
165.5602880264486032
 51
230.7664450275212005
  0
ARC
  5
1DD8B
  8
0
 10
4540.7071051370639907
 20
457.4130823329534223
 30
0.0
 40
0.0230245325582532
 50
229.2241767290819041
 51
273.2916143882728761
  0
ARC
  5
1DD8C
  8
0
 10
4540.7084085069136563
 20
457.4101735911769993
 30
0.0
 40
0.020077814279551
 50
270.0532233792778811
 51
318.1826404330525975
  0
ARC
  5
1DD8D
  8
0
 10
4540.7138706146743061
 20
457.4051225433694867
 30
0.0
 40
0.0126398129162412
 50
318.7379775787114795
 51
21.571391758270309
  0
ARC
  5
1DD8E
  8
0
 10
4540.6997058130336882
 20
457.4038957813052093
 30
0.0
 40
0.0636819151784016
 50
100.0405808855071967
 51
140.328729984127591
  0
ARC
  5
1DD8F
  8
0
 10
4540.7051380148986937
 20
457.3863385611908825
 30
0.0
 40
0.0819472914912455
 50
60.692268683519778
 51
101.640135612801302
  0
ARC
  5
1DD90
  8
0
 10
4540.7204020956924069
 20
457.4120571316227029
 30
0.0
 40
0.0520538403412452
 50
20.7809806490015099
 51
61.4859932741573516
  0
ARC
  5
1DD91
  8
0
 10
4540.7321490531094241
 20
457.4175462150021758
 30
0.0
 40
0.0391354701457199
 50
343.7257358882268932
 51
19.3692103594052405
  0
ARC
  5
1DD92
  8
0
 10
4540.681883856679633
 20
457.4196823053488856
 30
0.0
 40
0.039893680271318
 50
141.4404055309271087
 51
187.9016422865462062
  0
ARC
  5
1DD93
  8
0
 10
4540.707997028727732
 20
457.4397998394402975
 30
0.0
 40
0.0749434054705893
 50
243.6658588920807915
 51
281.6479708350951796
  0
ARC
  5
1DD94
  8
0
 10
4540.6950468637778613
 20
457.423019129150191
 30
0.0
 40
0.0534113777044157
 50
189.5062052637129
 51
218.5275692905129858
  0
ARC
  5
1DD95
  8
0
 10
4540.702688350446806
 20
457.4297564113156227
 30
0.0
 40
0.0635880230355003
 50
218.9878460079447109
 51
243.9383703466664883
  0
ARC
  5
1DD96
  8
0
 10
4540.7194210983752782
 20
457.420689436115083
 30
0.0
 40
0.0522371649301908
 50
305.6568184257657776
 51
344.3285143152996284
  0
ARC
  5
1DD97
  8
0
 10
4540.709966481182164
 20
457.4322259100756014
 30
0.0
 40
0.0671290110594136
 50
281.3067893527671117
 51
306.4737897945444729
  0
ARC
  5
1DD98
  8
0
 10
4540.6972133487570318
 20
457.4507052025626876
 30
0.0
 40
0.059639013839682
 50
162.5849750971750041
 51
188.6632335253154054
  0
ARC
  5
1DD99
  8
0
 10
4540.7121338062152063
 20
457.4416537107978797
 30
0.0
 40
0.062462543104048
 50
351.8561338661262994
 51
27.3560003374236587
  0
ARC
  5
1DD9A
  8
0
 10
4540.6957761554158424
 20
457.4509336392230807
 30
0.0
 40
0.0581997164572345
 50
128.9250348492201965
 51
162.3760965339305926
  0
ARC
  5
1DD9B
  8
0
 10
4540.700730848103376
 20
457.4439151028657875
 30
0.0
 40
0.0667752744001085
 50
85.4887836481062777
 51
128.4486702446405957
  0
ARC
  5
1DD9C
  8
0
 10
4540.7014388571369636
 20
457.4361161309864201
 30
0.0
 40
0.0745060772178573
 50
27.3589102553699703
 51
86.5033413423418125
  0
LINE
  5
1DD9D
  8
0
 10
4540.6382547715293185
 20
457.4417219880439234
 30
0.0
 11
4540.6423689460289097
 21
457.414198003943909
 31
0.0
  0
LINE
  5
1DD9E
  8
0
 10
4540.7739663977281452
 20
457.4328050314439906
 30
0.0
 11
4540.7710599635593098
 21
457.4133597998970799
 31
0.0
  0
ARC
  5
1DD9F
  8
0
 10
4540.3006195212710736
 20
457.6851084688518085
 30
0.0
 40
0.0183488800954237
 50
83.2604377277543932
 51
159.4902283223840982
  0
ARC
  5
1DDA0
  8
0
 10
4540.3028241062556845
 20
457.682280583193176
 30
0.0
 40
0.021050034615198
 50
27.8614140404665811
 51
90.1394284469116798
  0
ARC
  5
1DDA1
  8
0
 10
4540.2962418580546
 20
457.6882392810142051
 30
0.0
 40
0.013225925883269
 50
165.5602880264486032
 51
230.7664450275212005
  0
ARC
  5
1DDA2
  8
0
 10
4540.3029140323296815
 20
457.6954306239757102
 30
0.0
 40
0.0230245325582532
 50
229.2241767290819041
 51
273.2916143882728761
  0
ARC
  5
1DDA3
  8
0
 10
4540.3042174021802566
 20
457.6925218821992871
 30
0.0
 40
0.020077814279551
 50
270.0532233792778811
 51
318.1826404330525975
  0
ARC
  5
1DDA4
  8
0
 10
4540.3096795099399969
 20
457.6874708343917746
 30
0.0
 40
0.0126398129162412
 50
318.7379775787114795
 51
21.571391758270309
  0
ARC
  5
1DDA5
  8
0
 10
4540.2955147083002885
 20
457.6862440723274972
 30
0.0
 40
0.0636819151784016
 50
100.0405808855071967
 51
140.328729984127591
  0
ARC
  5
1DDA6
  8
0
 10
4540.3009469101643845
 20
457.6686868522132272
 30
0.0
 40
0.0819472914912455
 50
60.692268683519778
 51
101.640135612801302
  0
ARC
  5
1DDA7
  8
0
 10
4540.3162109909571882
 20
457.6944054226451044
 30
0.0
 40
0.0520538403412452
 50
20.7809806490015099
 51
61.4859932741573516
  0
ARC
  5
1DDA8
  8
0
 10
4540.3279579483751149
 20
457.6998945060245205
 30
0.0
 40
0.0391354701457199
 50
343.7257358882268932
 51
19.3692103594052405
  0
ARC
  5
1DDA9
  8
0
 10
4540.2776927519453238
 20
457.7020305963711735
 30
0.0
 40
0.039893680271318
 50
141.4404055309271087
 51
187.9016422865462062
  0
ARC
  5
1DDAA
  8
0
 10
4540.3038059239934228
 20
457.7221481304626991
 30
0.0
 40
0.0749434054705893
 50
243.6658588920807915
 51
281.6479708350951796
  0
ARC
  5
1DDAB
  8
0
 10
4540.2908557590435521
 20
457.7053674201724789
 30
0.0
 40
0.0534113777044157
 50
189.5062052637129
 51
218.5275692905129858
  0
ARC
  5
1DDAC
  8
0
 10
4540.2984972457115873
 20
457.7121047023380243
 30
0.0
 40
0.0635880230355003
 50
218.9878460079447109
 51
243.9383703466664883
  0
ARC
  5
1DDAD
  8
0
 10
4540.3152299936418785
 20
457.7030377271374277
 30
0.0
 40
0.0522371649301908
 50
305.6568184257657776
 51
344.3285143152996284
  0
ARC
  5
1DDAE
  8
0
 10
4540.3057753764478548
 20
457.714574201098003
 30
0.0
 40
0.0671290110594136
 50
281.3067893527671117
 51
306.4737897945444729
  0
ARC
  5
1DDAF
  8
0
 10
4540.2930222440218131
 20
457.7330534935850892
 30
0.0
 40
0.059639013839682
 50
162.5849750971750041
 51
188.6632335253154054
  0
ARC
  5
1DDB0
  8
0
 10
4540.3079427014808971
 20
457.7240020018202245
 30
0.0
 40
0.062462543104048
 50
351.8561338661262994
 51
27.3560003374236587
  0
ARC
  5
1DDB1
  8
0
 10
4540.2915850506824427
 20
457.7332819302454254
 30
0.0
 40
0.0581997164572345
 50
128.9250348492201965
 51
162.3760965339305926
  0
ARC
  5
1DDB2
  8
0
 10
4540.2965397433699763
 20
457.7262633938880754
 30
0.0
 40
0.0667752744001085
 50
85.4887836481062777
 51
128.4486702446405957
  0
ARC
  5
1DDB3
  8
0
 10
4540.2972477524035639
 20
457.7184644220085943
 30
0.0
 40
0.0745060772178573
 50
27.3589102553699703
 51
86.5033413423418125
  0
LINE
  5
1DDB4
  8
0
 10
4540.2340636667950093
 20
457.7240702790663249
 30
0.0
 11
4540.2381778412946005
 21
457.6965462949661969
 31
0.0
  0
LINE
  5
1DDB5
  8
0
 10
4540.3697752929947455
 20
457.7151533224662785
 30
0.0
 11
4540.3668688588259101
 21
457.6957080909194815
 31
0.0
  0
ARC
  5
1DDB6
  8
0
 10
4540.5057444547892374
 20
457.553855806834008
 30
0.0
 40
0.0183488800954237
 50
83.2604377277543932
 51
159.4902283223840982
  0
ARC
  5
1DDB7
  8
0
 10
4540.5079490397729387
 20
457.5510279211753755
 30
0.0
 40
0.021050034615198
 50
27.8614140404665811
 51
90.1394284469116798
  0
ARC
  5
1DDB8
  8
0
 10
4540.5013667915718543
 20
457.5569866189964046
 30
0.0
 40
0.013225925883269
 50
165.5602880264486032
 51
230.7664450275212005
  0
ARC
  5
1DDB9
  8
0
 10
4540.5080389658451168
 20
457.5641779619579097
 30
0.0
 40
0.0230245325582532
 50
229.2241767290819041
 51
273.2916143882728761
  0
ARC
  5
1DDBA
  8
0
 10
4540.5093423356956919
 20
457.5612692201813729
 30
0.0
 40
0.020077814279551
 50
270.0532233792778811
 51
318.1826404330525975
  0
ARC
  5
1DDBB
  8
0
 10
4540.5148044434572512
 20
457.5562181723739741
 30
0.0
 40
0.0126398129162412
 50
318.7379775787114795
 51
21.571391758270309
  0
ARC
  5
1DDBC
  8
0
 10
4540.5006396418157237
 20
457.5549914103096967
 30
0.0
 40
0.0636819151784016
 50
100.0405808855071967
 51
140.328729984127591
  0
ARC
  5
1DDBD
  8
0
 10
4540.5060718436807292
 20
457.5374341901954267
 30
0.0
 40
0.0819472914912455
 50
60.692268683519778
 51
101.640135612801302
  0
ARC
  5
1DDBE
  8
0
 10
4540.5213359244744424
 20
457.5631527606271902
 30
0.0
 40
0.0520538403412452
 50
20.7809806490015099
 51
61.4859932741573516
  0
ARC
  5
1DDBF
  8
0
 10
4540.5330828818923692
 20
457.56864184400672
 30
0.0
 40
0.0391354701457199
 50
343.7257358882268932
 51
19.3692103594052405
  0
ARC
  5
1DDC0
  8
0
 10
4540.4828176854607591
 20
457.570777934353373
 30
0.0
 40
0.039893680271318
 50
141.4404055309271087
 51
187.9016422865462062
  0
ARC
  5
1DDC1
  8
0
 10
4540.5089308575097675
 20
457.5908954684447849
 30
0.0
 40
0.0749434054705893
 50
243.6658588920807915
 51
281.6479708350951796
  0
ARC
  5
1DDC2
  8
0
 10
4540.4959806925598969
 20
457.5741147581546784
 30
0.0
 40
0.0534113777044157
 50
189.5062052637129
 51
218.5275692905129858
  0
ARC
  5
1DDC3
  8
0
 10
4540.5036221792297511
 20
457.5808520403201101
 30
0.0
 40
0.0635880230355003
 50
218.9878460079447109
 51
243.9383703466664883
  0
ARC
  5
1DDC4
  8
0
 10
4540.5203549271582233
 20
457.5717850651196272
 30
0.0
 40
0.0522371649301908
 50
305.6568184257657776
 51
344.3285143152996284
  0
ARC
  5
1DDC5
  8
0
 10
4540.510900309965109
 20
457.5833215390800888
 30
0.0
 40
0.0671290110594136
 50
281.3067893527671117
 51
306.4737897945444729
  0
ARC
  5
1DDC6
  8
0
 10
4540.4981471775390673
 20
457.601800831567175
 30
0.0
 40
0.059639013839682
 50
162.5849750971750041
 51
188.6632335253154054
  0
ARC
  5
1DDC7
  8
0
 10
4540.5130676349981513
 20
457.5927493398024239
 30
0.0
 40
0.062462543104048
 50
351.8561338661262994
 51
27.3560003374236587
  0
ARC
  5
1DDC8
  8
0
 10
4540.4967099841987874
 20
457.6020292682276818
 30
0.0
 40
0.0581997164572345
 50
128.9250348492201965
 51
162.3760965339305926
  0
ARC
  5
1DDC9
  8
0
 10
4540.5016646768863211
 20
457.5950107318702749
 30
0.0
 40
0.0667752744001085
 50
85.4887836481062777
 51
128.4486702446405957
  0
ARC
  5
1DDCA
  8
0
 10
4540.5023726859199087
 20
457.5872117599907938
 30
0.0
 40
0.0745060772178573
 50
27.3589102553699703
 51
86.5033413423418125
  0
LINE
  5
1DDCB
  8
0
 10
4540.4391886003113541
 20
457.5928176170484107
 30
0.0
 11
4540.4433027748118548
 21
457.5652936329483964
 31
0.0
  0
LINE
  5
1DDCC
  8
0
 10
4540.5749002265119998
 20
457.583900660448478
 30
0.0
 11
4540.5719937923422549
 21
457.5644554289016241
 31
0.0
  0
ARC
  5
1DDCD
  8
0
 10
4540.8370783400732762
 20
457.6647469825813914
 30
0.0
 40
0.0183488800954237
 50
83.2604377277543932
 51
159.4902283223840982
  0
ARC
  5
1DDCE
  8
0
 10
4540.839282925057887
 20
457.661919096922702
 30
0.0
 40
0.021050034615198
 50
27.8614140404665811
 51
90.1394284469116798
  0
ARC
  5
1DDCF
  8
0
 10
4540.8327006768558931
 20
457.6678777947437879
 30
0.0
 40
0.013225925883269
 50
165.5602880264486032
 51
230.7664450275212005
  0
ARC
  5
1DDD0
  8
0
 10
4540.8393728511309746
 20
457.6750691377052931
 30
0.0
 40
0.0230245325582532
 50
229.2241767290819041
 51
273.2916143882728761
  0
ARC
  5
1DDD1
  8
0
 10
4540.8406762209806402
 20
457.6721603959288132
 30
0.0
 40
0.020077814279551
 50
270.0532233792778811
 51
318.1826404330525975
  0
ARC
  5
1DDD2
  8
0
 10
4540.84613832874129
 20
457.6671093481214143
 30
0.0
 40
0.0126398129162412
 50
318.7379775787114795
 51
21.571391758270309
  0
ARC
  5
1DDD3
  8
0
 10
4540.8319735271006721
 20
457.6658825860570801
 30
0.0
 40
0.0636819151784016
 50
100.0405808855071967
 51
140.328729984127591
  0
ARC
  5
1DDD4
  8
0
 10
4540.8374057289647681
 20
457.6483253659426964
 30
0.0
 40
0.0819472914912455
 50
60.692268683519778
 51
101.640135612801302
  0
ARC
  5
1DDD5
  8
0
 10
4540.8526698097575718
 20
457.6740439363745168
 30
0.0
 40
0.0520538403412452
 50
20.7809806490015099
 51
61.4859932741573516
  0
ARC
  5
1DDD6
  8
0
 10
4540.8644167671773175
 20
457.6795330197539897
 30
0.0
 40
0.0391354701457199
 50
343.7257358882268932
 51
19.3692103594052405
  0
ARC
  5
1DDD7
  8
0
 10
4540.8141515707466169
 20
457.6816691101006995
 30
0.0
 40
0.039893680271318
 50
141.4404055309271087
 51
187.9016422865462062
  0
ARC
  5
1DDD8
  8
0
 10
4540.8402647427938064
 20
457.7017866441922251
 30
0.0
 40
0.0749434054705893
 50
243.6658588920807915
 51
281.6479708350951796
  0
ARC
  5
1DDD9
  8
0
 10
4540.8273145778448452
 20
457.6850059339021186
 30
0.0
 40
0.0534113777044157
 50
189.5062052637129
 51
218.5275692905129858
  0
ARC
  5
1DDDA
  8
0
 10
4540.8349560645137899
 20
457.6917432160674934
 30
0.0
 40
0.0635880230355003
 50
218.9878460079447109
 51
243.9383703466664883
  0
ARC
  5
1DDDB
  8
0
 10
4540.8516888124431716
 20
457.6826762408670106
 30
0.0
 40
0.0522371649301908
 50
305.6568184257657776
 51
344.3285143152996284
  0
ARC
  5
1DDDC
  8
0
 10
4540.8422341952491479
 20
457.6942127148274153
 30
0.0
 40
0.0671290110594136
 50
281.3067893527671117
 51
306.4737897945444729
  0
ARC
  5
1DDDD
  8
0
 10
4540.8294810628231062
 20
457.7126920073146721
 30
0.0
 40
0.059639013839682
 50
162.5849750971750041
 51
188.6632335253154054
  0
ARC
  5
1DDDE
  8
0
 10
4540.8444015202830997
 20
457.7036405155496936
 30
0.0
 40
0.062462543104048
 50
351.8561338661262994
 51
27.3560003374236587
  0
ARC
  5
1DDDF
  8
0
 10
4540.8280438694837358
 20
457.7129204439748946
 30
0.0
 40
0.0581997164572345
 50
128.9250348492201965
 51
162.3760965339305926
  0
ARC
  5
1DDE0
  8
0
 10
4540.8329985621712694
 20
457.7059019076177151
 30
0.0
 40
0.0667752744001085
 50
85.4887836481062777
 51
128.4486702446405957
  0
ARC
  5
1DDE1
  8
0
 10
4540.833706571204857
 20
457.6981029357381772
 30
0.0
 40
0.0745060772178573
 50
27.3589102553699703
 51
86.5033413423418125
  0
LINE
  5
1DDE2
  8
0
 10
4540.7705224855972119
 20
457.7037087927957941
 30
0.0
 11
4540.7746366600958936
 21
457.6761848086957798
 31
0.0
  0
LINE
  5
1DDE3
  8
0
 10
4540.9062341117960386
 20
457.6947918361958045
 30
0.0
 11
4540.9033276776272032
 21
457.6753466046488938
 31
0.0
  0
ARC
  5
1DDE4
  8
0
 10
4540.706484081583767
 20
457.1930867216183856
 30
0.0
 40
0.0183488800954237
 50
83.2604377277543932
 51
159.4902283223840982
  0
ARC
  5
1DDE5
  8
0
 10
4540.7086886665665588
 20
457.1902588359598099
 30
0.0
 40
0.021050034615198
 50
27.8614140404665811
 51
90.1394284469116798
  0
ARC
  5
1DDE6
  8
0
 10
4540.7021064183672934
 20
457.1962175337807821
 30
0.0
 40
0.013225925883269
 50
165.5602880264486032
 51
230.7664450275212005
  0
ARC
  5
1DDE7
  8
0
 10
4540.7087785926396464
 20
457.2034088767422872
 30
0.0
 40
0.0230245325582532
 50
229.2241767290819041
 51
273.2916143882728761
  0
ARC
  5
1DDE8
  8
0
 10
4540.710081962491131
 20
457.2005001349658073
 30
0.0
 40
0.020077814279551
 50
270.0532233792778811
 51
318.1826404330525975
  0
ARC
  5
1DDE9
  8
0
 10
4540.7155440702508713
 20
457.1954490871582948
 30
0.0
 40
0.0126398129162412
 50
318.7379775787114795
 51
21.571391758270309
  0
ARC
  5
1DDEA
  8
0
 10
4540.7013792686111628
 20
457.1942223250940742
 30
0.0
 40
0.0636819151784016
 50
100.0405808855071967
 51
140.328729984127591
  0
ARC
  5
1DDEB
  8
0
 10
4540.7068114704761683
 20
457.1766651049796906
 30
0.0
 40
0.0819472914912455
 50
60.692268683519778
 51
101.640135612801302
  0
ARC
  5
1DDEC
  8
0
 10
4540.7220755512680626
 20
457.2023836754116246
 30
0.0
 40
0.0520538403412452
 50
20.7809806490015099
 51
61.4859932741573516
  0
ARC
  5
1DDED
  8
0
 10
4540.7338225086859893
 20
457.2078727587909839
 30
0.0
 40
0.0391354701457199
 50
343.7257358882268932
 51
19.3692103594052405
  0
ARC
  5
1DDEE
  8
0
 10
4540.6835573122561982
 20
457.2100088491376937
 30
0.0
 40
0.039893680271318
 50
141.4404055309271087
 51
187.9016422865462062
  0
ARC
  5
1DDEF
  8
0
 10
4540.7096704843042971
 20
457.2301263832292761
 30
0.0
 40
0.0749434054705893
 50
243.6658588920807915
 51
281.6479708350951796
  0
ARC
  5
1DDF0
  8
0
 10
4540.696720319355336
 20
457.2133456729391128
 30
0.0
 40
0.0534113777044157
 50
189.5062052637129
 51
218.5275692905129858
  0
ARC
  5
1DDF1
  8
0
 10
4540.7043618060242807
 20
457.2200829551044876
 30
0.0
 40
0.0635880230355003
 50
218.9878460079447109
 51
243.9383703466664883
  0
ARC
  5
1DDF2
  8
0
 10
4540.7210945539518434
 20
457.2110159799040048
 30
0.0
 40
0.0522371649301908
 50
305.6568184257657776
 51
344.3285143152996284
  0
ARC
  5
1DDF3
  8
0
 10
4540.7116399367587292
 20
457.2225524538644095
 30
0.0
 40
0.0671290110594136
 50
281.3067893527671117
 51
306.4737897945444729
  0
ARC
  5
1DDF4
  8
0
 10
4540.6988868043326875
 20
457.2410317463516094
 30
0.0
 40
0.059639013839682
 50
162.5849750971750041
 51
188.6632335253154054
  0
ARC
  5
1DDF5
  8
0
 10
4540.7138072617917715
 20
457.2319802545866878
 30
0.0
 40
0.062462543104048
 50
351.8561338661262994
 51
27.3560003374236587
  0
ARC
  5
1DDF6
  8
0
 10
4540.6974496109942265
 20
457.2412601830118888
 30
0.0
 40
0.0581997164572345
 50
128.9250348492201965
 51
162.3760965339305926
  0
ARC
  5
1DDF7
  8
0
 10
4540.7024043036799412
 20
457.2342416466547093
 30
0.0
 40
0.0667752744001085
 50
85.4887836481062777
 51
128.4486702446405957
  0
ARC
  5
1DDF8
  8
0
 10
4540.7031123127153478
 20
457.2264426747752282
 30
0.0
 40
0.0745060772178573
 50
27.3589102553699703
 51
86.5033413423418125
  0
LINE
  5
1DDF9
  8
0
 10
4540.6399282271058837
 20
457.2320485318327883
 30
0.0
 11
4540.6440424016063844
 21
457.204524547732774
 31
0.0
  0
LINE
  5
1DDFA
  8
0
 10
4540.7756398533074389
 20
457.223131575232685
 30
0.0
 11
4540.7727334191367845
 21
457.2036863436860017
 31
0.0
  0
ARC
  5
1DDFB
  8
0
 10
4540.806256032951751
 20
456.9766780343870778
 30
0.0
 40
0.0183488800954237
 50
83.2604377277543932
 51
159.4902283223840982
  0
ARC
  5
1DDFC
  8
0
 10
4540.8084606179363618
 20
456.9738501487285021
 30
0.0
 40
0.021050034615198
 50
27.8614140404665811
 51
90.1394284469116798
  0
ARC
  5
1DDFD
  8
0
 10
4540.8018783697352774
 20
456.9798088465494743
 30
0.0
 40
0.013225925883269
 50
165.5602880264486032
 51
230.7664450275212005
  0
ARC
  5
1DDFE
  8
0
 10
4540.8085505440094494
 20
456.9870001895109795
 30
0.0
 40
0.0230245325582532
 50
229.2241767290819041
 51
273.2916143882728761
  0
ARC
  5
1DDFF
  8
0
 10
4540.809853913859115
 20
456.9840914477346132
 30
0.0
 40
0.020077814279551
 50
270.0532233792778811
 51
318.1826404330525975
  0
ARC
  5
1DE00
  8
0
 10
4540.8153160216197648
 20
456.979040399926987
 30
0.0
 40
0.0126398129162412
 50
318.7379775787114795
 51
21.571391758270309
  0
ARC
  5
1DE01
  8
0
 10
4540.8011512199809658
 20
456.9778136378628233
 30
0.0
 40
0.0636819151784016
 50
100.0405808855071967
 51
140.328729984127591
  0
ARC
  5
1DE02
  8
0
 10
4540.8065834218450618
 20
456.9602564177483828
 30
0.0
 40
0.0819472914912455
 50
60.692268683519778
 51
101.640135612801302
  0
ARC
  5
1DE03
  8
0
 10
4540.8218475026378655
 20
456.9859749881803168
 30
0.0
 40
0.0520538403412452
 50
20.7809806490015099
 51
61.4859932741573516
  0
ARC
  5
1DE04
  8
0
 10
4540.8335944600557923
 20
456.9914640715596761
 30
0.0
 40
0.0391354701457199
 50
343.7257358882268932
 51
19.3692103594052405
  0
ARC
  5
1DE05
  8
0
 10
4540.7795729401232165
 20
456.9933300219415173
 30
0.0
 40
0.0372124262374156
 50
137.5069969716743969
 51
185.886325842864494
  0
ARC
  5
1DE06
  8
0
 10
4540.8094424356731906
 20
457.0137176959979115
 30
0.0
 40
0.0749434054705893
 50
243.6658588920807915
 51
281.6479708350951796
  0
ARC
  5
1DE07
  8
0
 10
4540.7921337879406565
 20
456.9970424204561255
 30
0.0
 40
0.0501454589013152
 50
188.6349067828321893
 51
221.7254496911500041
  0
ARC
  5
1DE08
  8
0
 10
4540.8041337573931742
 20
457.0036742678731798
 30
0.0
 40
0.0635880230355003
 50
218.9878460079447109
 51
243.9383703466664883
  0
ARC
  5
1DE09
  8
0
 10
4540.8208665053216464
 20
456.994607292672697
 30
0.0
 40
0.0522371649301908
 50
305.6568184257657776
 51
344.3285143152996284
  0
ARC
  5
1DE0A
  8
0
 10
4540.8114118881276227
 20
457.0061437666332154
 30
0.0
 40
0.0671290110594136
 50
281.3067893527671117
 51
306.4737897945444729
  0
ARC
  5
1DE0B
  8
0
 10
4540.7772462292887212
 20
457.026238533343701
 30
0.0
 40
0.0397372116848125
 50
155.4315344243545098
 51
188.8700731734801934
  0
ARC
  5
1DE0C
  8
0
 10
4540.8381221770787306
 20
457.0208828171167283
 30
0.0
 40
0.0387825835369923
 50
352.2193188532284012
 51
37.0952587815906725
  0
ARC
  5
1DE0D
  8
0
 10
4540.787372083513219
 20
457.0213412648307099
 30
0.0
 40
0.0509830930910215
 50
118.5570265614361034
 51
155.1575867498783055
  0
ARC
  5
1DE0E
  8
0
 10
4540.8029884403713368
 20
456.9945752901693936
 30
0.0
 40
0.0819630836418835
 50
87.1046720541176143
 51
119.2011904375840032
  0
ARC
  5
1DE0F
  8
0
 10
4540.8074169247638565
 20
457.0012835933476936
 30
0.0
 40
0.0751507063047371
 50
34.8939222474749471
 51
90.2198846256878255
  0
LINE
  5
1DE10
  8
0
 10
4540.7379842532136536
 20
457.0201112805171988
 30
0.0
 11
4540.742556723058442
 21
456.9895136963954769
 31
0.0
  0
LINE
  5
1DE11
  8
0
 10
4540.8765477045471926
 20
457.0156323259657825
 30
0.0
 11
4540.8725053705047685
 21
456.9872776564546939
 31
0.0
  0
ARC
  5
1DE12
  8
0
 10
4539.9200123219461602
 20
457.5168108019723832
 30
0.0
 40
0.0183488800954237
 50
83.2604377277543932
 51
159.4902283223840982
  0
ARC
  5
1DE13
  8
0
 10
4539.9222169069307711
 20
457.5139829163138074
 30
0.0
 40
0.021050034615198
 50
27.8614140404665811
 51
90.1394284469116798
  0
ARC
  5
1DE14
  8
0
 10
4539.9156346587287771
 20
457.5199416141348934
 30
0.0
 40
0.013225925883269
 50
165.5602880264486032
 51
230.7664450275212005
  0
ARC
  5
1DE15
  8
0
 10
4539.9223068330038586
 20
457.5271329570962848
 30
0.0
 40
0.0230245325582532
 50
229.2241767290819041
 51
273.2916143882728761
  0
ARC
  5
1DE16
  8
0
 10
4539.9236102028544337
 20
457.5242242153199186
 30
0.0
 40
0.020077814279551
 50
270.0532233792778811
 51
318.1826404330525975
  0
ARC
  5
1DE17
  8
0
 10
4539.9290723106141741
 20
457.5191731675124061
 30
0.0
 40
0.0126398129162412
 50
318.7379775787114795
 51
21.571391758270309
  0
ARC
  5
1DE18
  8
0
 10
4539.9149075089753751
 20
457.5179464054480718
 30
0.0
 40
0.0636819151784016
 50
100.0405808855071967
 51
140.328729984127591
  0
ARC
  5
1DE19
  8
0
 10
4539.9203397108385616
 20
457.5003891853338018
 30
0.0
 40
0.0819472914912455
 50
60.692268683519778
 51
101.640135612801302
  0
ARC
  5
1DE1A
  8
0
 10
4539.9356037916313653
 20
457.5261077557656222
 30
0.0
 40
0.0520538403412452
 50
20.7809806490015099
 51
61.4859932741573516
  0
ARC
  5
1DE1B
  8
0
 10
4539.9473507490492921
 20
457.5315968391450951
 30
0.0
 40
0.0391354701457199
 50
343.7257358882268932
 51
19.3692103594052405
  0
ARC
  5
1DE1C
  8
0
 10
4539.8970855526185915
 20
457.5337329294916913
 30
0.0
 40
0.039893680271318
 50
141.4404055309271087
 51
187.9016422865462062
  0
ARC
  5
1DE1D
  8
0
 10
4539.9231987246666904
 20
457.5538504635832737
 30
0.0
 40
0.0749434054705893
 50
243.6658588920807915
 51
281.6479708350951796
  0
ARC
  5
1DE1E
  8
0
 10
4539.9102485597186387
 20
457.5370697532931104
 30
0.0
 40
0.0534113777044157
 50
189.5062052637129
 51
218.5275692905129858
  0
ARC
  5
1DE1F
  8
0
 10
4539.9178900463866739
 20
457.5438070354584852
 30
0.0
 40
0.0635880230355003
 50
218.9878460079447109
 51
243.9383703466664883
  0
ARC
  5
1DE20
  8
0
 10
4539.9346227943160557
 20
457.5347400602580024
 30
0.0
 40
0.0522371649301908
 50
305.6568184257657776
 51
344.3285143152996284
  0
ARC
  5
1DE21
  8
0
 10
4539.9251681771229414
 20
457.5462765342185207
 30
0.0
 40
0.0671290110594136
 50
281.3067893527671117
 51
306.4737897945444729
  0
ARC
  5
1DE22
  8
0
 10
4539.9124150446968997
 20
457.5647558267057207
 30
0.0
 40
0.059639013839682
 50
162.5849750971750041
 51
188.6632335253154054
  0
ARC
  5
1DE23
  8
0
 10
4539.9273355021559837
 20
457.5557043349407991
 30
0.0
 40
0.062462543104048
 50
351.8561338661262994
 51
27.3560003374236587
  0
ARC
  5
1DE24
  8
0
 10
4539.9109778513566198
 20
457.5649842633660001
 30
0.0
 40
0.0581997164572345
 50
128.9250348492201965
 51
162.3760965339305926
  0
ARC
  5
1DE25
  8
0
 10
4539.9159325440441535
 20
457.5579657270087068
 30
0.0
 40
0.0667752744001085
 50
85.4887836481062777
 51
128.4486702446405957
  0
ARC
  5
1DE26
  8
0
 10
4539.9166405530768316
 20
457.5501667551292257
 30
0.0
 40
0.0745060772178573
 50
27.3589102553699703
 51
86.5033413423418125
  0
LINE
  5
1DE27
  8
0
 10
4539.8534564674691865
 20
457.5557726121867859
 30
0.0
 11
4539.8575706419687776
 21
457.5282486280868284
 31
0.0
  0
LINE
  5
1DE28
  8
0
 10
4539.9891680936689227
 20
457.5468556555867963
 30
0.0
 11
4539.9862616595000873
 21
457.5274104240399993
 31
0.0
  0
ARC
  5
1DE29
  8
0
 10
4540.192007867571192
 20
457.4187705276044085
 30
0.0
 40
0.0183488800954237
 50
83.2604377277543932
 51
159.4902283223840982
  0
ARC
  5
1DE2A
  8
0
 10
4540.1942124525539839
 20
457.4159426419457759
 30
0.0
 40
0.021050034615198
 50
27.8614140404665811
 51
90.1394284469116798
  0
ARC
  5
1DE2B
  8
0
 10
4540.1876302043538089
 20
457.4219013397669187
 30
0.0
 40
0.013225925883269
 50
165.5602880264486032
 51
230.7664450275212005
  0
ARC
  5
1DE2C
  8
0
 10
4540.1943023786279809
 20
457.4290926827283101
 30
0.0
 40
0.0230245325582532
 50
229.2241767290819041
 51
273.2916143882728761
  0
ARC
  5
1DE2D
  8
0
 10
4540.1956057484776466
 20
457.4261839409518871
 30
0.0
 40
0.020077814279551
 50
270.0532233792778811
 51
318.1826404330525975
  0
ARC
  5
1DE2E
  8
0
 10
4540.2010678562392059
 20
457.4211328931443745
 30
0.0
 40
0.0126398129162412
 50
318.7379775787114795
 51
21.571391758270309
  0
ARC
  5
1DE2F
  8
0
 10
4540.1869030545985879
 20
457.4199061310800971
 30
0.0
 40
0.0636819151784016
 50
100.0405808855071967
 51
140.328729984127591
  0
ARC
  5
1DE30
  8
0
 10
4540.1923352564626839
 20
457.4023489109658271
 30
0.0
 40
0.0819472914912455
 50
60.692268683519778
 51
101.640135612801302
  0
ARC
  5
1DE31
  8
0
 10
4540.2075993372563971
 20
457.4280674813975907
 30
0.0
 40
0.0520538403412452
 50
20.7809806490015099
 51
61.4859932741573516
  0
ARC
  5
1DE32
  8
0
 10
4540.2193462946734144
 20
457.4335565647770068
 30
0.0
 40
0.0391354701457199
 50
343.7257358882268932
 51
19.3692103594052405
  0
ARC
  5
1DE33
  8
0
 10
4540.1690810982436233
 20
457.4356926551237734
 30
0.0
 40
0.039893680271318
 50
141.4404055309271087
 51
187.9016422865462062
  0
ARC
  5
1DE34
  8
0
 10
4540.1951942702917222
 20
457.455810189215299
 30
0.0
 40
0.0749434054705893
 50
243.6658588920807915
 51
281.6479708350951796
  0
ARC
  5
1DE35
  8
0
 10
4540.1822441053418515
 20
457.4390294789250788
 30
0.0
 40
0.0534113777044157
 50
189.5062052637129
 51
218.5275692905129858
  0
ARC
  5
1DE36
  8
0
 10
4540.1898855920107962
 20
457.4457667610905105
 30
0.0
 40
0.0635880230355003
 50
218.9878460079447109
 51
243.9383703466664883
  0
ARC
  5
1DE37
  8
0
 10
4540.206618339940178
 20
457.4366997858900277
 30
0.0
 40
0.0522371649301908
 50
305.6568184257657776
 51
344.3285143152996284
  0
ARC
  5
1DE38
  8
0
 10
4540.1971637227470637
 20
457.4482362598504892
 30
0.0
 40
0.0671290110594136
 50
281.3067893527671117
 51
306.4737897945444729
  0
ARC
  5
1DE39
  8
0
 10
4540.1844105903201125
 20
457.4667155523376891
 30
0.0
 40
0.059639013839682
 50
162.5849750971750041
 51
188.6632335253154054
  0
ARC
  5
1DE3A
  8
0
 10
4540.1993310477791965
 20
457.4576640605727107
 30
0.0
 40
0.062462543104048
 50
351.8561338661262994
 51
27.3560003374236587
  0
ARC
  5
1DE3B
  8
0
 10
4540.1829733969816516
 20
457.4669439889980254
 30
0.0
 40
0.0581997164572345
 50
128.9250348492201965
 51
162.3760965339305926
  0
ARC
  5
1DE3C
  8
0
 10
4540.1879280896682758
 20
457.459925452640789
 30
0.0
 40
0.0667752744001085
 50
85.4887836481062777
 51
128.4486702446405957
  0
ARC
  5
1DE3D
  8
0
 10
4540.1886360987018634
 20
457.4521264807613079
 30
0.0
 40
0.0745060772178573
 50
27.3589102553699703
 51
86.5033413423418125
  0
LINE
  5
1DE3E
  8
0
 10
4540.1254520130933088
 20
457.4577323378188112
 30
0.0
 11
4540.1295661875938094
 21
457.4302083537189105
 31
0.0
  0
LINE
  5
1DE3F
  8
0
 10
4540.2611636392939545
 20
457.4488153812188784
 30
0.0
 11
4540.2582572051242096
 21
457.4293701496720246
 31
0.0
  0
ARC
  5
1DE40
  8
0
 10
4539.7657228823491096
 20
457.2173620585543858
 30
0.0
 40
0.0183488800954237
 50
83.2604377277543932
 51
159.4902283223840982
  0
ARC
  5
1DE41
  8
0
 10
4539.7679274673328109
 20
457.2145341728959238
 30
0.0
 40
0.021050034615198
 50
27.8614140404665811
 51
90.1394284469116798
  0
ARC
  5
1DE42
  8
0
 10
4539.7613452191317265
 20
457.220492870716896
 30
0.0
 40
0.013225925883269
 50
165.5602880264486032
 51
230.7664450275212005
  0
ARC
  5
1DE43
  8
0
 10
4539.768017393406808
 20
457.2276842136782875
 30
0.0
 40
0.0230245325582532
 50
229.2241767290819041
 51
273.2916143882728761
  0
ARC
  5
1DE44
  8
0
 10
4539.7693207632582926
 20
457.2247754719019213
 30
0.0
 40
0.020077814279551
 50
270.0532233792778811
 51
318.1826404330525975
  0
ARC
  5
1DE45
  8
0
 10
4539.7747828710171234
 20
457.2197244240944087
 30
0.0
 40
0.0126398129162412
 50
318.7379775787114795
 51
21.571391758270309
  0
ARC
  5
1DE46
  8
0
 10
4539.7606180693783244
 20
457.2184976620301882
 30
0.0
 40
0.0636819151784016
 50
100.0405808855071967
 51
140.328729984127591
  0
ARC
  5
1DE47
  8
0
 10
4539.7660502712424204
 20
457.2009404419159182
 30
0.0
 40
0.0819472914912455
 50
60.692268683519778
 51
101.640135612801302
  0
ARC
  5
1DE48
  8
0
 10
4539.7813143520343147
 20
457.2266590123476817
 30
0.0
 40
0.0520538403412452
 50
20.7809806490015099
 51
61.4859932741573516
  0
ARC
  5
1DE49
  8
0
 10
4539.7930613094522414
 20
457.2321480957270978
 30
0.0
 40
0.0391354701457199
 50
343.7257358882268932
 51
19.3692103594052405
  0
ARC
  5
1DE4A
  8
0
 10
4539.7427961130233598
 20
457.2342841860738076
 30
0.0
 40
0.039893680271318
 50
141.4404055309271087
 51
187.9016422865462062
  0
ARC
  5
1DE4B
  8
0
 10
4539.7689092850696397
 20
457.2544017201653901
 30
0.0
 40
0.0749434054705893
 50
243.6658588920807915
 51
281.6479708350951796
  0
ARC
  5
1DE4C
  8
0
 10
4539.7559591201206786
 20
457.237621009875113
 30
0.0
 40
0.0534113777044157
 50
189.5062052637129
 51
218.5275692905129858
  0
ARC
  5
1DE4D
  8
0
 10
4539.7636006067896233
 20
457.2443582920406016
 30
0.0
 40
0.0635880230355003
 50
218.9878460079447109
 51
243.9383703466664883
  0
ARC
  5
1DE4E
  8
0
 10
4539.780333354719005
 20
457.235291316840005
 30
0.0
 40
0.0522371649301908
 50
305.6568184257657776
 51
344.3285143152996284
  0
ARC
  5
1DE4F
  8
0
 10
4539.7708787375258908
 20
457.2468277908005803
 30
0.0
 40
0.0671290110594136
 50
281.3067893527671117
 51
306.4737897945444729
  0
ARC
  5
1DE50
  8
0
 10
4539.7581256050989396
 20
457.2653070832877802
 30
0.0
 40
0.059639013839682
 50
162.5849750971750041
 51
188.6632335253154054
  0
ARC
  5
1DE51
  8
0
 10
4539.773046062558933
 20
457.2562555915228018
 30
0.0
 40
0.062462543104048
 50
351.8561338661262994
 51
27.3560003374236587
  0
ARC
  5
1DE52
  8
0
 10
4539.7566884117613881
 20
457.2655355199481164
 30
0.0
 40
0.0581997164572345
 50
128.9250348492201965
 51
162.3760965339305926
  0
ARC
  5
1DE53
  8
0
 10
4539.7616431044471028
 20
457.2585169835908232
 30
0.0
 40
0.0667752744001085
 50
85.4887836481062777
 51
128.4486702446405957
  0
ARC
  5
1DE54
  8
0
 10
4539.7623511134806904
 20
457.2507180117112853
 30
0.0
 40
0.0745060772178573
 50
27.3589102553699703
 51
86.5033413423418125
  0
LINE
  5
1DE55
  8
0
 10
4539.6991670278721358
 20
457.2563238687687885
 30
0.0
 11
4539.703281202371727
 21
457.2287998846688879
 31
0.0
  0
LINE
  5
1DE56
  8
0
 10
4539.834878654071872
 20
457.2474069121689126
 30
0.0
 11
4539.8319722199030366
 21
457.2279616806221156
 31
0.0
  0
ARC
  5
1DE57
  8
0
 10
4540.4551133899685738
 20
457.3116440506124718
 30
0.0
 40
0.0183488800954237
 50
83.2604377277543932
 51
159.4902283223840982
  0
ARC
  5
1DE58
  8
0
 10
4540.4573179749531846
 20
457.3088161649540098
 30
0.0
 40
0.021050034615198
 50
27.8614140404665811
 51
90.1394284469116798
  0
ARC
  5
1DE59
  8
0
 10
4540.4507357267530097
 20
457.314774862774982
 30
0.0
 40
0.013225925883269
 50
165.5602880264486032
 51
230.7664450275212005
  0
ARC
  5
1DE5A
  8
0
 10
4540.4574079010271817
 20
457.3219662057364872
 30
0.0
 40
0.0230245325582532
 50
229.2241767290819041
 51
273.2916143882728761
  0
ARC
  5
1DE5B
  8
0
 10
4540.4587112708768473
 20
457.3190574639601209
 30
0.0
 40
0.020077814279551
 50
270.0532233792778811
 51
318.1826404330525975
  0
ARC
  5
1DE5C
  8
0
 10
4540.4641733786384066
 20
457.3140064161526084
 30
0.0
 40
0.0126398129162412
 50
318.7379775787114795
 51
21.571391758270309
  0
ARC
  5
1DE5D
  8
0
 10
4540.4500085769977886
 20
457.3127796540882741
 30
0.0
 40
0.0636819151784016
 50
100.0405808855071967
 51
140.328729984127591
  0
ARC
  5
1DE5E
  8
0
 10
4540.4554407788618846
 20
457.2952224339740042
 30
0.0
 40
0.0819472914912455
 50
60.692268683519778
 51
101.640135612801302
  0
ARC
  5
1DE5F
  8
0
 10
4540.4707048596546883
 20
457.3209410044058245
 30
0.0
 40
0.0520538403412452
 50
20.7809806490015099
 51
61.4859932741573516
  0
ARC
  5
1DE60
  8
0
 10
4540.4824518170717056
 20
457.3264300877852975
 30
0.0
 40
0.0391354701457199
 50
343.7257358882268932
 51
19.3692103594052405
  0
ARC
  5
1DE61
  8
0
 10
4540.432186620642824
 20
457.3285661781318936
 30
0.0
 40
0.039893680271318
 50
141.4404055309271087
 51
187.9016422865462062
  0
ARC
  5
1DE62
  8
0
 10
4540.4582997926909229
 20
457.3486837122234192
 30
0.0
 40
0.0749434054705893
 50
243.6658588920807915
 51
281.6479708350951796
  0
ARC
  5
1DE63
  8
0
 10
4540.4453496277410522
 20
457.3319030019333127
 30
0.0
 40
0.0534113777044157
 50
189.5062052637129
 51
218.5275692905129858
  0
ARC
  5
1DE64
  8
0
 10
4540.4529911144109064
 20
457.3386402840986875
 30
0.0
 40
0.0635880230355003
 50
218.9878460079447109
 51
243.9383703466664883
  0
ARC
  5
1DE65
  8
0
 10
4540.4697238623393787
 20
457.3295733088982047
 30
0.0
 40
0.0522371649301908
 50
305.6568184257657776
 51
344.3285143152996284
  0
ARC
  5
1DE66
  8
0
 10
4540.4602692451462644
 20
457.3411097828587231
 30
0.0
 40
0.0671290110594136
 50
281.3067893527671117
 51
306.4737897945444729
  0
ARC
  5
1DE67
  8
0
 10
4540.4475161127202227
 20
457.3595890753458093
 30
0.0
 40
0.059639013839682
 50
162.5849750971750041
 51
188.6632335253154054
  0
ARC
  5
1DE68
  8
0
 10
4540.4624365701793067
 20
457.3505375835810014
 30
0.0
 40
0.062462543104048
 50
351.8561338661262994
 51
27.3560003374236587
  0
ARC
  5
1DE69
  8
0
 10
4540.4460789193808523
 20
457.3598175120062024
 30
0.0
 40
0.0581997164572345
 50
128.9250348492201965
 51
162.3760965339305926
  0
ARC
  5
1DE6A
  8
0
 10
4540.451033612066567
 20
457.3527989756489092
 30
0.0
 40
0.0667752744001085
 50
85.4887836481062777
 51
128.4486702446405957
  0
ARC
  5
1DE6B
  8
0
 10
4540.4517416211010641
 20
457.3450000037694281
 30
0.0
 40
0.0745060772178573
 50
27.3589102553699703
 51
86.5033413423418125
  0
LINE
  5
1DE6C
  8
0
 10
4540.3885575354916
 20
457.3506058608269882
 30
0.0
 11
4540.3926717099930102
 21
457.3230818767269739
 31
0.0
  0
LINE
  5
1DE6D
  8
0
 10
4540.5242691616931552
 20
457.3416889042269986
 30
0.0
 11
4540.5213627275234103
 21
457.3222436726800879
 31
0.0
  0
ARC
  5
1DE6E
  8
0
 10
4540.2673247766742861
 20
457.1435954553132888
 30
0.0
 40
0.0183488800954237
 50
83.2604377277543932
 51
159.4902283223840982
  0
ARC
  5
1DE6F
  8
0
 10
4540.2695293616579875
 20
457.140767569654713
 30
0.0
 40
0.021050034615198
 50
27.8614140404665811
 51
90.1394284469116798
  0
ARC
  5
1DE70
  8
0
 10
4540.2629471134578125
 20
457.1467262674756853
 30
0.0
 40
0.013225925883269
 50
165.5602880264486032
 51
230.7664450275212005
  0
ARC
  5
1DE71
  8
0
 10
4540.2696192877319845
 20
457.1539176104371904
 30
0.0
 40
0.0230245325582532
 50
229.2241767290819041
 51
273.2916143882728761
  0
ARC
  5
1DE72
  8
0
 10
4540.2709226575816501
 20
457.1510088686608242
 30
0.0
 40
0.020077814279551
 50
270.0532233792778811
 51
318.1826404330525975
  0
ARC
  5
1DE73
  8
0
 10
4540.2763847653422999
 20
457.1459578208533117
 30
0.0
 40
0.0126398129162412
 50
318.7379775787114795
 51
21.571391758270309
  0
ARC
  5
1DE74
  8
0
 10
4540.2622199637025915
 20
457.1447310587889774
 30
0.0
 40
0.0636819151784016
 50
100.0405808855071967
 51
140.328729984127591
  0
ARC
  5
1DE75
  8
0
 10
4540.267652165565778
 20
457.1271738386747074
 30
0.0
 40
0.0819472914912455
 50
60.692268683519778
 51
101.640135612801302
  0
ARC
  5
1DE76
  8
0
 10
4540.2829162463604007
 20
457.1528924091065278
 30
0.0
 40
0.0520538403412452
 50
20.7809806490015099
 51
61.4859932741573516
  0
ARC
  5
1DE77
  8
0
 10
4540.2946632037774179
 20
457.1583814924860008
 30
0.0
 40
0.0391354701457199
 50
343.7257358882268932
 51
19.3692103594052405
  0
ARC
  5
1DE78
  8
0
 10
4540.2443980073476268
 20
457.1605175828325969
 30
0.0
 40
0.039893680271318
 50
141.4404055309271087
 51
187.9016422865462062
  0
ARC
  5
1DE79
  8
0
 10
4540.2705111793957258
 20
457.1806351169241225
 30
0.0
 40
0.0749434054705893
 50
243.6658588920807915
 51
281.6479708350951796
  0
ARC
  5
1DE7A
  8
0
 10
4540.2575610144458551
 20
457.163854406634016
 30
0.0
 40
0.0534113777044157
 50
189.5062052637129
 51
218.5275692905129858
  0
ARC
  5
1DE7B
  8
0
 10
4540.2652025011147998
 20
457.1705916887993908
 30
0.0
 40
0.0635880230355003
 50
218.9878460079447109
 51
243.9383703466664883
  0
ARC
  5
1DE7C
  8
0
 10
4540.2819352490432721
 20
457.161524713598908
 30
0.0
 40
0.0522371649301908
 50
305.6568184257657776
 51
344.3285143152996284
  0
ARC
  5
1DE7D
  8
0
 10
4540.2724806318510673
 20
457.1730611875594263
 30
0.0
 40
0.0671290110594136
 50
281.3067893527671117
 51
306.4737897945444729
  0
ARC
  5
1DE7E
  8
0
 10
4540.2597274994241161
 20
457.1915404800466263
 30
0.0
 40
0.059639013839682
 50
162.5849750971750041
 51
188.6632335253154054
  0
ARC
  5
1DE7F
  8
0
 10
4540.2746479568832001
 20
457.1824889882817047
 30
0.0
 40
0.062462543104048
 50
351.8561338661262994
 51
27.3560003374236587
  0
ARC
  5
1DE80
  8
0
 10
4540.2582903060838362
 20
457.1917689167070193
 30
0.0
 40
0.0581997164572345
 50
128.9250348492201965
 51
162.3760965339305926
  0
ARC
  5
1DE81
  8
0
 10
4540.2632449987713699
 20
457.1847503803496124
 30
0.0
 40
0.0667752744001085
 50
85.4887836481062777
 51
128.4486702446405957
  0
ARC
  5
1DE82
  8
0
 10
4540.2639530078058669
 20
457.1769514084700745
 30
0.0
 40
0.0745060772178573
 50
27.3589102553699703
 51
86.5033413423418125
  0
LINE
  5
1DE83
  8
0
 10
4540.2007689221973123
 20
457.1825572655276915
 30
0.0
 11
4540.2048830966969035
 21
457.1550332814276771
 31
0.0
  0
LINE
  5
1DE84
  8
0
 10
4540.3364805483970486
 20
457.1736403089277019
 30
0.0
 11
4540.3335741142282131
 21
457.1541950773807912
 31
0.0
  0
ARC
  5
1DE85
  8
0
 10
4540.4160290082199936
 20
456.9685363865640966
 30
0.0
 40
0.0183488800954237
 50
83.2604377277543932
 51
159.4902283223840982
  0
ARC
  5
1DE86
  8
0
 10
4540.4182335932046044
 20
456.9657085009055209
 30
0.0
 40
0.021050034615198
 50
27.8614140404665811
 51
90.1394284469116798
  0
ARC
  5
1DE87
  8
0
 10
4540.411651345001701
 20
456.9716671987264931
 30
0.0
 40
0.013225925883269
 50
165.5602880264486032
 51
230.7664450275212005
  0
ARC
  5
1DE88
  8
0
 10
4540.4183235192767825
 20
456.9788585416879982
 30
0.0
 40
0.0230245325582532
 50
229.2241767290819041
 51
273.2916143882728761
  0
ARC
  5
1DE89
  8
0
 10
4540.4196268891282671
 20
456.9759497999115752
 30
0.0
 40
0.020077814279551
 50
270.0532233792778811
 51
318.1826404330525975
  0
ARC
  5
1DE8A
  8
0
 10
4540.4250889968880074
 20
456.9708987521041195
 30
0.0
 40
0.0126398129162412
 50
318.7379775787114795
 51
21.571391758270309
  0
ARC
  5
1DE8B
  8
0
 10
4540.4109241952482989
 20
456.9696719900397852
 30
0.0
 40
0.0636819151784016
 50
100.0405808855071967
 51
140.328729984127591
  0
ARC
  5
1DE8C
  8
0
 10
4540.4163563971123949
 20
456.9521147699255152
 30
0.0
 40
0.0819472914912455
 50
60.692268683519778
 51
101.640135612801302
  0
ARC
  5
1DE8D
  8
0
 10
4540.4207706308097841
 20
456.9642857983093904
 30
0.0
 40
0.0692054748715547
 50
20.429484676683991
 51
58.9463591875842212
  0
ARC
  5
1DE8E
  8
0
 10
4540.3818812128438367
 20
456.9989560939408761
 30
0.0
 40
0.1042734459061551
 50
344.924144657648128
 51
354.2130692463153991
  0
ARC
  5
1DE8F
  8
0
 10
4540.3931022388933343
 20
456.9854585140834047
 30
0.0
 40
0.039893680271318
 50
141.4404055309271087
 51
187.9016422865462062
  0
ARC
  5
1DE90
  8
0
 10
4540.4192154109414332
 20
457.0055760481748734
 30
0.0
 40
0.0749434054705893
 50
243.6658588920807915
 51
281.6479708350951796
  0
ARC
  5
1DE91
  8
0
 10
4540.4062652459906531
 20
456.9887953378848806
 30
0.0
 40
0.0534113777044157
 50
189.5062052637129
 51
218.5275692905129858
  0
ARC
  5
1DE92
  8
0
 10
4540.4139067326595978
 20
456.9955326200501986
 30
0.0
 40
0.0635880230355003
 50
218.9878460079447109
 51
243.9383703466664883
  0
ARC
  5
1DE93
  8
0
 10
4540.4155590265645515
 20
457.0013761137785195
 30
0.0
 40
0.0732297553169024
 50
308.4444537526766794
 51
336.2087452613154142
  0
ARC
  5
1DE94
  8
0
 10
4540.4211848633949558
 20
456.9980021188101773
 30
0.0
 40
0.0671290110594136
 50
281.3067893527671117
 51
306.4737897945444729
  0
ARC
  5
1DE95
  8
0
 10
4540.408431730970733
 20
457.0164814112973772
 30
0.0
 40
0.059639013839682
 50
162.5849750971750041
 51
188.6632335253154054
  0
ARC
  5
1DE96
  8
0
 10
4540.4444205349636832
 20
457.0071179442243192
 30
0.0
 40
0.0435820596022435
 50
348.319997901351087
 51
29.7929074781546817
  0
ARC
  5
1DE97
  8
0
 10
4540.3922314387873485
 20
457.019922075754323
 30
0.0
 40
0.0431799462933523
 50
117.1981808017430069
 51
160.5070460390599862
  0
ARC
  5
1DE98
  8
0
 10
4540.4088151541200205
 20
456.989320111333825
 30
0.0
 40
0.0779819234275243
 50
84.3752083385197835
 51
117.7586711267344981
  0
ARC
  5
1DE99
  8
0
 10
4540.4118239831623214
 20
456.9831481282739105
 30
0.0
 40
0.0839065164153885
 50
32.9393776914934122
 51
86.8337399902481337
  0
LINE
  5
1DE9A
  8
0
 10
4540.3494731537421103
 20
457.0074981967784993
 30
0.0
 11
4540.353587328242611
 21
456.9799742126784849
 31
0.0
  0
LINE
  5
1DE9B
  8
0
 10
4540.4871001639412498
 20
456.9982949521315732
 30
0.0
 11
4540.4841463431321245
 21
456.978589585932184
 31
0.0
  0
ARC
  5
1DE9C
  8
0
 10
4540.012652416252422
 20
457.1904963870692882
 30
0.0
 40
0.0183488800954237
 50
83.2604377277543932
 51
159.4902283223840982
  0
ARC
  5
1DE9D
  8
0
 10
4540.0148570012370328
 20
457.1876685014107125
 30
0.0
 40
0.021050034615198
 50
27.8614140404665811
 51
90.1394284469116798
  0
ARC
  5
1DE9E
  8
0
 10
4540.0082747530359484
 20
457.1936271992316847
 30
0.0
 40
0.013225925883269
 50
165.5602880264486032
 51
230.7664450275212005
  0
ARC
  5
1DE9F
  8
0
 10
4540.0149469273101204
 20
457.2008185421931898
 30
0.0
 40
0.0230245325582532
 50
229.2241767290819041
 51
273.2916143882728761
  0
ARC
  5
1DEA0
  8
0
 10
4540.0162502971606955
 20
457.1979098004168236
 30
0.0
 40
0.020077814279551
 50
270.0532233792778811
 51
318.1826404330525975
  0
ARC
  5
1DEA1
  8
0
 10
4540.0217124049213453
 20
457.1928587526093111
 30
0.0
 40
0.0126398129162412
 50
318.7379775787114795
 51
21.571391758270309
  0
ARC
  5
1DEA2
  8
0
 10
4540.0075476032807273
 20
457.1916319905449768
 30
0.0
 40
0.0636819151784016
 50
100.0405808855071967
 51
140.328729984127591
  0
ARC
  5
1DEA3
  8
0
 10
4540.0129798051457328
 20
457.1740747704307068
 30
0.0
 40
0.0819472914912455
 50
60.692268683519778
 51
101.640135612801302
  0
ARC
  5
1DEA4
  8
0
 10
4540.0282438859376271
 20
457.1997933408625272
 30
0.0
 40
0.0520538403412452
 50
20.7809806490015099
 51
61.4859932741573516
  0
ARC
  5
1DEA5
  8
0
 10
4540.0399908433546443
 20
457.2052824242420002
 30
0.0
 40
0.0391354701457199
 50
343.7257358882268932
 51
19.3692103594052405
  0
ARC
  5
1DEA6
  8
0
 10
4539.9897256469248532
 20
457.2074185145885963
 30
0.0
 40
0.039893680271318
 50
141.4404055309271087
 51
187.9016422865462062
  0
ARC
  5
1DEA7
  8
0
 10
4540.0158388189729521
 20
457.2275360486801219
 30
0.0
 40
0.0749434054705893
 50
243.6658588920807915
 51
281.6479708350951796
  0
ARC
  5
1DEA8
  8
0
 10
4540.0028886540249005
 20
457.2107553383900154
 30
0.0
 40
0.0534113777044157
 50
189.5062052637129
 51
218.5275692905129858
  0
ARC
  5
1DEA9
  8
0
 10
4540.0105301406929357
 20
457.2174926205553902
 30
0.0
 40
0.0635880230355003
 50
218.9878460079447109
 51
243.9383703466664883
  0
ARC
  5
1DEAA
  8
0
 10
4540.0272628886223174
 20
457.2084256453549074
 30
0.0
 40
0.0522371649301908
 50
305.6568184257657776
 51
344.3285143152996284
  0
ARC
  5
1DEAB
  8
0
 10
4540.0178082714292032
 20
457.2199621193154258
 30
0.0
 40
0.0671290110594136
 50
281.3067893527671117
 51
306.4737897945444729
  0
ARC
  5
1DEAC
  8
0
 10
4540.0050551390031615
 20
457.2384414118026257
 30
0.0
 40
0.059639013839682
 50
162.5849750971750041
 51
188.6632335253154054
  0
ARC
  5
1DEAD
  8
0
 10
4540.0199755964622454
 20
457.2293899200377041
 30
0.0
 40
0.062462543104048
 50
351.8561338661262994
 51
27.3560003374236587
  0
ARC
  5
1DEAE
  8
0
 10
4540.0036179456628815
 20
457.2386698484629051
 30
0.0
 40
0.0581997164572345
 50
128.9250348492201965
 51
162.3760965339305926
  0
ARC
  5
1DEAF
  8
0
 10
4540.0085726383504152
 20
457.2316513121056119
 30
0.0
 40
0.0667752744001085
 50
85.4887836481062777
 51
128.4486702446405957
  0
ARC
  5
1DEB0
  8
0
 10
4540.0092806473840028
 20
457.2238523402260739
 30
0.0
 40
0.0745060772178573
 50
27.3589102553699703
 51
86.5033413423418125
  0
LINE
  5
1DEB1
  8
0
 10
4539.9460965617754482
 20
457.2294581972836909
 30
0.0
 11
4539.9502107362750394
 21
457.2019342131836765
 31
0.0
  0
LINE
  5
1DEB2
  8
0
 10
4540.0818081879760939
 20
457.2205412406837013
 30
0.0
 11
4540.0789017538072585
 21
457.2010960091367906
 31
0.0
  0
ARC
  5
1DEB3
  8
0
 10
4539.8752149198762709
 20
456.951627182875427
 30
0.0
 40
0.0183488800954237
 50
83.2604377277543932
 51
159.4902283223840982
  0
ARC
  5
1DEB4
  8
0
 10
4539.8774195048599722
 20
456.9487992972169081
 30
0.0
 40
0.021050034615198
 50
27.8614140404665811
 51
90.1394284469116798
  0
ARC
  5
1DEB5
  8
0
 10
4539.8708372566597973
 20
456.9547579950378804
 30
0.0
 40
0.013225925883269
 50
165.5602880264486032
 51
230.7664450275212005
  0
ARC
  5
1DEB6
  8
0
 10
4539.8775094309339693
 20
456.9619493379992718
 30
0.0
 40
0.0230245325582532
 50
229.2241767290819041
 51
273.2916143882728761
  0
ARC
  5
1DEB7
  8
0
 10
4539.8788128007836349
 20
456.9590405962227919
 30
0.0
 40
0.020077814279551
 50
270.0532233792778811
 51
318.1826404330525975
  0
ARC
  5
1DEB8
  8
0
 10
4539.8842749085442847
 20
456.9539895484153931
 30
0.0
 40
0.0126398129162412
 50
318.7379775787114795
 51
21.571391758270309
  0
ARC
  5
1DEB9
  8
0
 10
4539.8701101069036667
 20
456.9527627863511157
 30
0.0
 40
0.0636819151784016
 50
100.0405808855071967
 51
140.328729984127591
  0
ARC
  5
1DEBA
  8
0
 10
4539.8755423087686722
 20
456.9352055662367889
 30
0.0
 40
0.0819472914912455
 50
60.692268683519778
 51
101.640135612801302
  0
ARC
  5
1DEBB
  8
0
 10
4539.8908063895605665
 20
456.9609241366686092
 30
0.0
 40
0.0520538403412452
 50
20.7809806490015099
 51
61.4859932741573516
  0
ARC
  5
1DEBC
  8
0
 10
4539.9025533469794027
 20
456.9664132200480822
 30
0.0
 40
0.0391354701457199
 50
343.7257358882268932
 51
19.3692103594052405
  0
ARC
  5
1DEBD
  8
0
 10
4539.8522881505496116
 20
456.9685493103946783
 30
0.0
 40
0.039893680271318
 50
141.4404055309271087
 51
187.9016422865462062
  0
ARC
  5
1DEBE
  8
0
 10
4539.8784013225977105
 20
456.9886668444863176
 30
0.0
 40
0.0749434054705893
 50
243.6658588920807915
 51
281.6479708350951796
  0
ARC
  5
1DEBF
  8
0
 10
4539.8654511576478399
 20
456.9718861341960974
 30
0.0
 40
0.0534113777044157
 50
189.5062052637129
 51
218.5275692905129858
  0
ARC
  5
1DEC0
  8
0
 10
4539.8730926443176941
 20
456.9786234163614722
 30
0.0
 40
0.0635880230355003
 50
218.9878460079447109
 51
243.9383703466664883
  0
ARC
  5
1DEC1
  8
0
 10
4539.8898253922461663
 20
456.9695564411609894
 30
0.0
 40
0.0522371649301908
 50
305.6568184257657776
 51
344.3285143152996284
  0
ARC
  5
1DEC2
  8
0
 10
4539.8803707750530521
 20
456.9810929151215078
 30
0.0
 40
0.0671290110594136
 50
281.3067893527671117
 51
306.4737897945444729
  0
ARC
  5
1DEC3
  8
0
 10
4539.8676176426261009
 20
456.9995722076087077
 30
0.0
 40
0.059639013839682
 50
162.5849750971750041
 51
188.6632335253154054
  0
ARC
  5
1DEC4
  8
0
 10
4539.8825381000860943
 20
456.9905207158437861
 30
0.0
 40
0.062462543104048
 50
351.8561338661262994
 51
27.3560003374236587
  0
ARC
  5
1DEC5
  8
0
 10
4539.8661804492867304
 20
456.9998006442689871
 30
0.0
 40
0.0581997164572345
 50
128.9250348492201965
 51
162.3760965339305926
  0
ARC
  5
1DEC6
  8
0
 10
4539.8711351419742641
 20
456.9927821079116939
 30
0.0
 40
0.0667752744001085
 50
85.4887836481062777
 51
128.4486702446405957
  0
ARC
  5
1DEC7
  8
0
 10
4539.8718431510069422
 20
456.9849831360322128
 30
0.0
 40
0.0745060772178573
 50
27.3589102553699703
 51
86.5033413423418125
  0
LINE
  5
1DEC8
  8
0
 10
4539.8086590653992971
 20
456.9905889930897729
 30
0.0
 11
4539.8127732398997978
 21
456.9630650089898154
 31
0.0
  0
LINE
  5
1DEC9
  8
0
 10
4539.9443706915990333
 20
456.9816720364897833
 30
0.0
 11
4539.9414642574301979
 21
456.9622268049429863
 31
0.0
  0
ARC
  5
1DECA
  8
0
 10
4539.6201666307961204
 20
456.9298615026273183
 30
0.0
 40
0.0183488800954237
 50
83.2604377277543932
 51
159.4902283223840982
  0
ARC
  5
1DECB
  8
0
 10
4539.6223712157798218
 20
456.9270336169686857
 30
0.0
 40
0.021050034615198
 50
27.8614140404665811
 51
90.1394284469116798
  0
ARC
  5
1DECC
  8
0
 10
4539.6157889675787374
 20
456.9329923147897148
 30
0.0
 40
0.013225925883269
 50
165.5602880264486032
 51
230.7664450275212005
  0
ARC
  5
1DECD
  8
0
 10
4539.6224611418529093
 20
456.9401836577512199
 30
0.0
 40
0.0230245325582532
 50
229.2241767290819041
 51
273.2916143882728761
  0
ARC
  5
1DECE
  8
0
 10
4539.623764511702575
 20
456.9372749159747968
 30
0.0
 40
0.020077814279551
 50
270.0532233792778811
 51
318.1826404330525975
  0
ARC
  5
1DECF
  8
0
 10
4539.6292266194641343
 20
456.9322238681672843
 30
0.0
 40
0.0126398129162412
 50
318.7379775787114795
 51
21.571391758270309
  0
ARC
  5
1DED0
  8
0
 10
4539.6150618178253353
 20
456.9309971061030069
 30
0.0
 40
0.0636819151784016
 50
100.0405808855071967
 51
140.328729984127591
  0
ARC
  5
1DED1
  8
0
 10
4539.6204940196894313
 20
456.9134398859886801
 30
0.0
 40
0.0819472914912455
 50
60.692268683519778
 51
101.640135612801302
  0
ARC
  5
1DED2
  8
0
 10
4539.6357581004813255
 20
456.9391584564205004
 30
0.0
 40
0.0520538403412452
 50
20.7809806490015099
 51
61.4859932741573516
  0
ARC
  5
1DED3
  8
0
 10
4539.6475050578992523
 20
456.9446475397999734
 30
0.0
 40
0.0391354701457199
 50
343.7257358882268932
 51
19.3692103594052405
  0
ARC
  5
1DED4
  8
0
 10
4539.5972398614685517
 20
456.9467836301466264
 30
0.0
 40
0.039893680271318
 50
141.4404055309271087
 51
187.9016422865462062
  0
ARC
  5
1DED5
  8
0
 10
4539.6233530335157411
 20
456.9669011642382088
 30
0.0
 40
0.0749434054705893
 50
243.6658588920807915
 51
281.6479708350951796
  0
ARC
  5
1DED6
  8
0
 10
4539.6104028685667799
 20
456.9501204539479886
 30
0.0
 40
0.0534113777044157
 50
189.5062052637129
 51
218.5275692905129858
  0
ARC
  5
1DED7
  8
0
 10
4539.6180443552357247
 20
456.9568577361134771
 30
0.0
 40
0.0635880230355003
 50
218.9878460079447109
 51
243.9383703466664883
  0
ARC
  5
1DED8
  8
0
 10
4539.6347771031660159
 20
456.9477907609128806
 30
0.0
 40
0.0522371649301908
 50
305.6568184257657776
 51
344.3285143152996284
  0
ARC
  5
1DED9
  8
0
 10
4539.6253224859719921
 20
456.959327234873399
 30
0.0
 40
0.0671290110594136
 50
281.3067893527671117
 51
306.4737897945444729
  0
ARC
  5
1DEDA
  8
0
 10
4539.6125693535459504
 20
456.9778065273605989
 30
0.0
 40
0.059639013839682
 50
162.5849750971750041
 51
188.6632335253154054
  0
ARC
  5
1DEDB
  8
0
 10
4539.6274898110059439
 20
456.9687550355956773
 30
0.0
 40
0.062462543104048
 50
351.8561338661262994
 51
27.3560003374236587
  0
ARC
  5
1DEDC
  8
0
 10
4539.6111321602056705
 20
456.9780349640208783
 30
0.0
 40
0.0581997164572345
 50
128.9250348492201965
 51
162.3760965339305926
  0
ARC
  5
1DEDD
  8
0
 10
4539.6160868528932042
 20
456.9710164276635851
 30
0.0
 40
0.0667752744001085
 50
85.4887836481062777
 51
128.4486702446405957
  0
ARC
  5
1DEDE
  8
0
 10
4539.6167948619267918
 20
456.963217455784104
 30
0.0
 40
0.0745060772178573
 50
27.3589102553699703
 51
86.5033413423418125
  0
LINE
  5
1DEDF
  8
0
 10
4539.5536107763191467
 20
456.9688233128417778
 30
0.0
 11
4539.5577249508178284
 21
456.9412993287417066
 31
0.0
  0
LINE
  5
1DEE0
  8
0
 10
4539.6893224025179734
 20
456.9599063562416745
 30
0.0
 11
4539.6864159683500475
 21
456.9404611246948775
 31
0.0
  0
ARC
  5
1DEE1
  8
0
 10
4539.7209581122751842
 20
456.6164282409621933
 30
0.0
 40
0.0183488800954237
 50
83.2604377277543932
 51
159.4902283223840982
  0
ARC
  5
1DEE2
  8
0
 10
4539.7231626972588856
 20
456.6136003553036176
 30
0.0
 40
0.021050034615198
 50
27.8614140404665811
 51
90.1394284469116798
  0
ARC
  5
1DEE3
  8
0
 10
4539.7165804490578012
 20
456.6195590531245898
 30
0.0
 40
0.013225925883269
 50
165.5602880264486032
 51
230.7664450275212005
  0
ARC
  5
1DEE4
  8
0
 10
4539.7232526233328826
 20
456.626750396086095
 30
0.0
 40
0.0230245325582532
 50
229.2241767290819041
 51
273.2916143882728761
  0
ARC
  5
1DEE5
  8
0
 10
4539.7245559931825483
 20
456.6238416543096719
 30
0.0
 40
0.020077814279551
 50
270.0532233792778811
 51
318.1826404330525975
  0
ARC
  5
1DEE6
  8
0
 10
4539.7300181009441076
 20
456.6187906065021025
 30
0.0
 40
0.0126398129162412
 50
318.7379775787114795
 51
21.571391758270309
  0
ARC
  5
1DEE7
  8
0
 10
4539.7158532993043991
 20
456.6175638444378251
 30
0.0
 40
0.0636819151784016
 50
100.0405808855071967
 51
140.328729984127591
  0
ARC
  5
1DEE8
  8
0
 10
4539.7212855011675856
 20
456.6000066243234983
 30
0.0
 40
0.0819472914912455
 50
60.692268683519778
 51
101.640135612801302
  0
ARC
  5
1DEE9
  8
0
 10
4539.7365495819603893
 20
456.6257251947553755
 30
0.0
 40
0.0520538403412452
 50
20.7809806490015099
 51
61.4859932741573516
  0
ARC
  5
1DEEA
  8
0
 10
4539.7482965393783161
 20
456.6312142781347916
 30
0.0
 40
0.0391354701457199
 50
343.7257358882268932
 51
19.3692103594052405
  0
ARC
  5
1DEEB
  8
0
 10
4539.6980313429494345
 20
456.6333503684815014
 30
0.0
 40
0.039893680271318
 50
141.4404055309271087
 51
187.9016422865462062
  0
ARC
  5
1DEEC
  8
0
 10
4539.7241445149957144
 20
456.653467902573027
 30
0.0
 40
0.0749434054705893
 50
243.6658588920807915
 51
281.6479708350951796
  0
ARC
  5
1DEED
  8
0
 10
4539.7111943500467532
 20
456.6366871922829205
 30
0.0
 40
0.0534113777044157
 50
189.5062052637129
 51
218.5275692905129858
  0
ARC
  5
1DEEE
  8
0
 10
4539.718835836715698
 20
456.6434244744482953
 30
0.0
 40
0.0635880230355003
 50
218.9878460079447109
 51
243.9383703466664883
  0
ARC
  5
1DEEF
  8
0
 10
4539.7355685846450797
 20
456.6343574992478125
 30
0.0
 40
0.0522371649301908
 50
305.6568184257657776
 51
344.3285143152996284
  0
ARC
  5
1DEF0
  8
0
 10
4539.7261139674519654
 20
456.645893973208274
 30
0.0
 40
0.0671290110594136
 50
281.3067893527671117
 51
306.4737897945444729
  0
ARC
  5
1DEF1
  8
0
 10
4539.7133608350250142
 20
456.6643732656954171
 30
0.0
 40
0.059639013839682
 50
162.5849750971750041
 51
188.6632335253154054
  0
ARC
  5
1DEF2
  8
0
 10
4539.7282812924850077
 20
456.6553217739304955
 30
0.0
 40
0.062462543104048
 50
351.8561338661262994
 51
27.3560003374236587
  0
ARC
  5
1DEF3
  8
0
 10
4539.7119236416856438
 20
456.6646017023558102
 30
0.0
 40
0.0581997164572345
 50
128.9250348492201965
 51
162.3760965339305926
  0
ARC
  5
1DEF4
  8
0
 10
4539.7168783343731775
 20
456.657583165998517
 30
0.0
 40
0.0667752744001085
 50
85.4887836481062777
 51
128.4486702446405957
  0
ARC
  5
1DEF5
  8
0
 10
4539.7175863434067651
 20
456.649784194118979
 30
0.0
 40
0.0745060772178573
 50
27.3589102553699703
 51
86.5033413423418125
  0
LINE
  5
1DEF6
  8
0
 10
4539.6544022577982105
 20
456.655390051176596
 30
0.0
 11
4539.6585164322978017
 21
456.6278660670765817
 31
0.0
  0
LINE
  5
1DEF7
  8
0
 10
4539.7901138839979467
 20
456.6464730945764927
 30
0.0
 11
4539.7872074498291113
 21
456.6270278630296957
 31
0.0
  0
ARC
  5
1DEF8
  8
0
 10
4540.6552812038853517
 20
456.8300498816388995
 30
0.0
 40
0.0183488800954237
 50
83.2604377277543932
 51
159.4902283223840982
  0
ARC
  5
1DEF9
  8
0
 10
4540.6574857888690531
 20
456.8272219959803238
 30
0.0
 40
0.021050034615198
 50
27.8614140404665811
 51
90.1394284469116798
  0
ARC
  5
1DEFA
  8
0
 10
4540.6509035406679686
 20
456.833180693801296
 30
0.0
 40
0.013225925883269
 50
165.5602880264486032
 51
230.7664450275212005
  0
ARC
  5
1DEFB
  8
0
 10
4540.6575757149412311
 20
456.8403720367628011
 30
0.0
 40
0.0230245325582532
 50
229.2241767290819041
 51
273.2916143882728761
  0
ARC
  5
1DEFC
  8
0
 10
4540.6588790847927157
 20
456.8374632949863212
 30
0.0
 40
0.020077814279551
 50
270.0532233792778811
 51
318.1826404330525975
  0
ARC
  5
1DEFD
  8
0
 10
4540.6643411925533655
 20
456.8324122471789224
 30
0.0
 40
0.0126398129162412
 50
318.7379775787114795
 51
21.571391758270309
  0
ARC
  5
1DEFE
  8
0
 10
4540.6501763909136571
 20
456.8311854851145881
 30
0.0
 40
0.0636819151784016
 50
100.0405808855071967
 51
140.328729984127591
  0
ARC
  5
1DEFF
  8
0
 10
4540.6556085927777531
 20
456.8136282650002045
 30
0.0
 40
0.0819472914912455
 50
60.692268683519778
 51
101.640135612801302
  0
ARC
  5
1DF00
  8
0
 10
4540.6708726735705568
 20
456.8393468354320817
 30
0.0
 40
0.0520538403412452
 50
20.7809806490015099
 51
61.4859932741573516
  0
ARC
  5
1DF01
  8
0
 10
4540.6826196309875741
 20
456.8448359188116115
 30
0.0
 40
0.0391354701457199
 50
343.7257358882268932
 51
19.3692103594052405
  0
ARC
  5
1DF02
  8
0
 10
4540.6285981110549983
 20
456.8467018691932822
 30
0.0
 40
0.0372124262374156
 50
137.5069969716743969
 51
185.886325842864494
  0
ARC
  5
1DF03
  8
0
 10
4540.6584676066058819
 20
456.8670895432496764
 30
0.0
 40
0.0749434054705893
 50
243.6658588920807915
 51
281.6479708350951796
  0
ARC
  5
1DF04
  8
0
 10
4540.6411589588742572
 20
456.8504142677078903
 30
0.0
 40
0.0501454589013152
 50
188.6349067828321893
 51
221.7254496911500041
  0
ARC
  5
1DF05
  8
0
 10
4540.6531589283258654
 20
456.8570461151250015
 30
0.0
 40
0.0635880230355003
 50
218.9878460079447109
 51
243.9383703466664883
  0
ARC
  5
1DF06
  8
0
 10
4540.6698916762543377
 20
456.8479791399245187
 30
0.0
 40
0.0522371649301908
 50
305.6568184257657776
 51
344.3285143152996284
  0
ARC
  5
1DF07
  8
0
 10
4540.6604370590612234
 20
456.8595156138849802
 30
0.0
 40
0.0671290110594136
 50
281.3067893527671117
 51
306.4737897945444729
  0
ARC
  5
1DF08
  8
0
 10
4540.626271400222322
 20
456.8796103805955227
 30
0.0
 40
0.0397372116848125
 50
155.4315344243545098
 51
188.8700731734801934
  0
ARC
  5
1DF09
  8
0
 10
4540.6871473480123313
 20
456.8742546643684932
 30
0.0
 40
0.0387825835369923
 50
352.2193188532284012
 51
37.0952587815906725
  0
ARC
  5
1DF0A
  8
0
 10
4540.6363972544459102
 20
456.8747131120824747
 30
0.0
 40
0.0509830930910215
 50
118.5570265614361034
 51
155.1575867498783055
  0
ARC
  5
1DF0B
  8
0
 10
4540.6520136113031185
 20
456.8479471374211016
 30
0.0
 40
0.0819630836418835
 50
87.1046720541176143
 51
119.2011904375840032
  0
ARC
  5
1DF0C
  8
0
 10
4540.6564420956965478
 20
456.8546554405995153
 30
0.0
 40
0.0751507063047371
 50
34.8939222474749471
 51
90.2198846256878255
  0
LINE
  5
1DF0D
  8
0
 10
4540.5870094241481638
 20
456.8734831277690205
 30
0.0
 11
4540.5915818939902238
 21
456.8428855436472986
 31
0.0
  0
LINE
  5
1DF0E
  8
0
 10
4540.7255728754789743
 20
456.8690041732176041
 30
0.0
 11
4540.7215305414383693
 21
456.8406495037065156
 31
0.0
  0
ARC
  5
1DF0F
  8
0
 10
4540.6553409673670103
 20
456.6503976772714282
 30
0.0
 40
0.0183488800954237
 50
83.2604377277543932
 51
159.4902283223840982
  0
ARC
  5
1DF10
  8
0
 10
4540.6575455523507117
 20
456.6475697916127956
 30
0.0
 40
0.021050034615198
 50
27.8614140404665811
 51
90.1394284469116798
  0
ARC
  5
1DF11
  8
0
 10
4540.6509633041487177
 20
456.6535284894338247
 30
0.0
 40
0.013225925883269
 50
165.5602880264486032
 51
230.7664450275212005
  0
ARC
  5
1DF12
  8
0
 10
4540.6576354784237992
 20
456.660719832395273
 30
0.0
 40
0.0230245325582532
 50
229.2241767290819041
 51
273.2916143882728761
  0
ARC
  5
1DF13
  8
0
 10
4540.6589388482743743
 20
456.6578110906187931
 30
0.0
 40
0.020077814279551
 50
270.0532233792778811
 51
318.1826404330525975
  0
ARC
  5
1DF14
  8
0
 10
4540.6644009560350241
 20
456.6527600428113942
 30
0.0
 40
0.0126398129162412
 50
318.7379775787114795
 51
21.571391758270309
  0
ARC
  5
1DF15
  8
0
 10
4540.6502361543953157
 20
456.6515332807471168
 30
0.0
 40
0.0636819151784016
 50
100.0405808855071967
 51
140.328729984127591
  0
ARC
  5
1DF16
  8
0
 10
4540.6556683562594117
 20
456.63397606063279
 30
0.0
 40
0.0819472914912455
 50
60.692268683519778
 51
101.640135612801302
  0
ARC
  5
1DF17
  8
0
 10
4540.6709324370522154
 20
456.6596946310646103
 30
0.0
 40
0.0520538403412452
 50
20.7809806490015099
 51
61.4859932741573516
  0
ARC
  5
1DF18
  8
0
 10
4540.6826793944692326
 20
456.6651837144440833
 30
0.0
 40
0.0391354701457199
 50
343.7257358882268932
 51
19.3692103594052405
  0
ARC
  5
1DF19
  8
0
 10
4540.6286578745366569
 20
456.6670496648256972
 30
0.0
 40
0.0372124262374156
 50
137.5069969716743969
 51
185.886325842864494
  0
ARC
  5
1DF1A
  8
0
 10
4540.658527370086631
 20
456.687437338882205
 30
0.0
 40
0.0749434054705893
 50
243.6658588920807915
 51
281.6479708350951796
  0
ARC
  5
1DF1B
  8
0
 10
4540.6412187223550063
 20
456.670762063340419
 30
0.0
 40
0.0501454589013152
 50
188.6349067828321893
 51
221.7254496911500041
  0
ARC
  5
1DF1C
  8
0
 10
4540.6532186918066145
 20
456.6773939107574733
 30
0.0
 40
0.0635880230355003
 50
218.9878460079447109
 51
243.9383703466664883
  0
ARC
  5
1DF1D
  8
0
 10
4540.6699514397369057
 20
456.6683269355571042
 30
0.0
 40
0.0522371649301908
 50
305.6568184257657776
 51
344.3285143152996284
  0
ARC
  5
1DF1E
  8
0
 10
4540.660496822542882
 20
456.6798634095173952
 30
0.0
 40
0.0671290110594136
 50
281.3067893527671117
 51
306.4737897945444729
  0
ARC
  5
1DF1F
  8
0
 10
4540.6263311637039806
 20
456.6999581762281082
 30
0.0
 40
0.0397372116848125
 50
155.4315344243545098
 51
188.8700731734801934
  0
ARC
  5
1DF20
  8
0
 10
4540.6872071114930804
 20
456.6946024600009082
 30
0.0
 40
0.0387825835369923
 50
352.2193188532284012
 51
37.0952587815906725
  0
ARC
  5
1DF21
  8
0
 10
4540.6364570179266593
 20
456.6950609077148897
 30
0.0
 40
0.0509830930910215
 50
118.5570265614361034
 51
155.1575867498783055
  0
ARC
  5
1DF22
  8
0
 10
4540.6520733747847771
 20
456.6682949330535735
 30
0.0
 40
0.0819630836418835
 50
87.1046720541176143
 51
119.2011904375840032
  0
ARC
  5
1DF23
  8
0
 10
4540.6565018591782064
 20
456.6750032362318734
 30
0.0
 40
0.0751507063047371
 50
34.8939222474749471
 51
90.2198846256878255
  0
LINE
  5
1DF24
  8
0
 10
4540.5870691876289129
 20
456.6938309234013786
 30
0.0
 11
4540.5916416574718824
 21
456.6632333392798273
 31
0.0
  0
LINE
  5
1DF25
  8
0
 10
4540.7256326389606329
 20
456.6893519688500191
 30
0.0
 11
4540.7215903049200278
 21
456.6609972993388737
 31
0.0
  0
ARC
  5
1DF26
  8
0
 10
4540.8056252736769238
 20
456.5043520522880272
 30
0.0
 40
0.0183488800954237
 50
83.2604377277543932
 51
159.4902283223840982
  0
ARC
  5
1DF27
  8
0
 10
4540.8078298586606252
 20
456.5015241666292809
 30
0.0
 40
0.021050034615198
 50
27.8614140404665811
 51
90.1394284469116798
  0
ARC
  5
1DF28
  8
0
 10
4540.8012476104604502
 20
456.5074828644504237
 30
0.0
 40
0.013225925883269
 50
165.5602880264486032
 51
230.7664450275212005
  0
ARC
  5
1DF29
  8
0
 10
4540.8079197847346222
 20
456.5146742074118151
 30
0.0
 40
0.0230245325582532
 50
229.2241767290819041
 51
273.2916143882728761
  0
ARC
  5
1DF2A
  8
0
 10
4540.8092231545842878
 20
456.511765465635392
 30
0.0
 40
0.020077814279551
 50
270.0532233792778811
 51
318.1826404330525975
  0
ARC
  5
1DF2B
  8
0
 10
4540.8146852623458471
 20
456.5067144178278795
 30
0.0
 40
0.0126398129162412
 50
318.7379775787114795
 51
21.571391758270309
  0
ARC
  5
1DF2C
  8
0
 10
4540.8005204607052292
 20
456.5054876557637158
 30
0.0
 40
0.0636819151784016
 50
100.0405808855071967
 51
140.328729984127591
  0
ARC
  5
1DF2D
  8
0
 10
4540.8059526625702347
 20
456.4879304356492753
 30
0.0
 40
0.0819472914912455
 50
60.692268683519778
 51
101.640135612801302
  0
ARC
  5
1DF2E
  8
0
 10
4540.8212167433630384
 20
456.5136490060810956
 30
0.0
 40
0.0520538403412452
 50
20.7809806490015099
 51
61.4859932741573516
  0
ARC
  5
1DF2F
  8
0
 10
4540.8329637007800557
 20
456.5191380894606255
 30
0.0
 40
0.0391354701457199
 50
343.7257358882268932
 51
19.3692103594052405
  0
ARC
  5
1DF30
  8
0
 10
4540.7789421808465704
 20
456.5210040398422962
 30
0.0
 40
0.0372124262374156
 50
137.5069969716743969
 51
185.886325842864494
  0
ARC
  5
1DF31
  8
0
 10
4540.8088116763983635
 20
456.541391713898804
 30
0.0
 40
0.0749434054705893
 50
243.6658588920807915
 51
281.6479708350951796
  0
ARC
  5
1DF32
  8
0
 10
4540.7915030286658293
 20
456.524716438357018
 30
0.0
 40
0.0501454589013152
 50
188.6349067828321893
 51
221.7254496911500041
  0
ARC
  5
1DF33
  8
0
 10
4540.8035029981192565
 20
456.5313482857740723
 30
0.0
 40
0.0635880230355003
 50
218.9878460079447109
 51
243.9383703466664883
  0
ARC
  5
1DF34
  8
0
 10
4540.8202357460459098
 20
456.5222813105734758
 30
0.0
 40
0.0522371649301908
 50
305.6568184257657776
 51
344.3285143152996284
  0
ARC
  5
1DF35
  8
0
 10
4540.8107811288527955
 20
456.5338177845339942
 30
0.0
 40
0.0671290110594136
 50
281.3067893527671117
 51
306.4737897945444729
  0
ARC
  5
1DF36
  8
0
 10
4540.7766154700138941
 20
456.5539125512445935
 30
0.0
 40
0.0397372116848125
 50
155.4315344243545098
 51
188.8700731734801934
  0
ARC
  5
1DF37
  8
0
 10
4540.8374914178039035
 20
456.5485568350175072
 30
0.0
 40
0.0387825835369923
 50
352.2193188532284012
 51
37.0952587815906725
  0
ARC
  5
1DF38
  8
0
 10
4540.7867413242393013
 20
456.5490152827314887
 30
0.0
 40
0.0509830930910215
 50
118.5570265614361034
 51
155.1575867498783055
  0
ARC
  5
1DF39
  8
0
 10
4540.8023576810974191
 20
456.5222493080701156
 30
0.0
 40
0.0819630836418835
 50
87.1046720541176143
 51
119.2011904375840032
  0
ARC
  5
1DF3A
  8
0
 10
4540.8067861654890294
 20
456.5289576112484724
 30
0.0
 40
0.0751507063047371
 50
34.8939222474749471
 51
90.2198846256878255
  0
LINE
  5
1DF3B
  8
0
 10
4540.7373534939388264
 20
456.5477852984179776
 30
0.0
 11
4540.7419259637817959
 21
456.5171877142963126
 31
0.0
  0
LINE
  5
1DF3C
  8
0
 10
4540.8759169452705464
 20
456.5433063438666181
 30
0.0
 11
4540.8718746112299414
 21
456.5149516743554727
 31
0.0
  0
ARC
  5
1DF3D
  8
0
 10
4540.579691189701407
 20
456.4011772744711948
 30
0.0
 40
0.0183488800954237
 50
83.2604377277543932
 51
159.4902283223840982
  0
ARC
  5
1DF3E
  8
0
 10
4540.5818957746851083
 20
456.3983493888125054
 30
0.0
 40
0.021050034615198
 50
27.8614140404665811
 51
90.1394284469116798
  0
ARC
  5
1DF3F
  8
0
 10
4540.5753135264831144
 20
456.4043080866334776
 30
0.0
 40
0.013225925883269
 50
165.5602880264486032
 51
230.7664450275212005
  0
ARC
  5
1DF40
  8
0
 10
4540.5819857007563769
 20
456.4114994295950964
 30
0.0
 40
0.0230245325582532
 50
229.2241767290819041
 51
273.2916143882728761
  0
ARC
  5
1DF41
  8
0
 10
4540.5832890706078615
 20
456.4085906878186165
 30
0.0
 40
0.020077814279551
 50
270.0532233792778811
 51
318.1826404330525975
  0
ARC
  5
1DF42
  8
0
 10
4540.5887511783676018
 20
456.403539640011104
 30
0.0
 40
0.0126398129162412
 50
318.7379775787114795
 51
21.571391758270309
  0
ARC
  5
1DF43
  8
0
 10
4540.5745863767269839
 20
456.4023128779468266
 30
0.0
 40
0.0636819151784016
 50
100.0405808855071967
 51
140.328729984127591
  0
ARC
  5
1DF44
  8
0
 10
4540.5800133925267801
 20
456.3847406566197833
 30
0.0
 40
0.0819629112251719
 50
60.6942405711433182
 51
101.6347901144699932
  0
ARC
  5
1DF45
  8
0
 10
4540.5952826593857026
 20
456.4104742282643201
 30
0.0
 40
0.0520538403412452
 50
20.7809806490015099
 51
61.4859932741573516
  0
ARC
  5
1DF46
  8
0
 10
4540.6070296168018103
 20
456.4159633116437931
 30
0.0
 40
0.0391354701457199
 50
343.7257358882268932
 51
19.3692103594052405
  0
ARC
  5
1DF47
  8
0
 10
4540.5530080968701441
 20
456.4178292620255775
 30
0.0
 40
0.0372124262374156
 50
137.5069969716743969
 51
185.886325842864494
  0
ARC
  5
1DF48
  8
0
 10
4540.5828775924210277
 20
456.4382169360819717
 30
0.0
 40
0.0749434054705893
 50
243.6658588920807915
 51
281.6479708350951796
  0
ARC
  5
1DF49
  8
0
 10
4540.565568944687584
 20
456.4215416605400719
 30
0.0
 40
0.0501454589013152
 50
188.6349067828321893
 51
221.7254496911500041
  0
ARC
  5
1DF4A
  8
0
 10
4540.5775689141410112
 20
456.4281735079572968
 30
0.0
 40
0.0635880230355003
 50
218.9878460079447109
 51
243.9383703466664883
  0
ARC
  5
1DF4B
  8
0
 10
4540.5943016620703929
 20
456.4191065327567003
 30
0.0
 40
0.0522371649301908
 50
305.6568184257657776
 51
344.3285143152996284
  0
ARC
  5
1DF4C
  8
0
 10
4540.5848470448763692
 20
456.4306430067172755
 30
0.0
 40
0.0671290110594136
 50
281.3067893527671117
 51
306.4737897945444729
  0
ARC
  5
1DF4D
  8
0
 10
4540.5506813860365583
 20
456.450737773427818
 30
0.0
 40
0.0397372116848125
 50
155.4315344243545098
 51
188.8700731734801934
  0
ARC
  5
1DF4E
  8
0
 10
4540.6115573338265676
 20
456.4453820572006748
 30
0.0
 40
0.0387825835369923
 50
352.2193188532284012
 51
37.0952587815906725
  0
ARC
  5
1DF4F
  8
0
 10
4540.560807240261056
 20
456.4458405049148269
 30
0.0
 40
0.0509830930910215
 50
118.5570265614361034
 51
155.1575867498783055
  0
ARC
  5
1DF50
  8
0
 10
4540.5764235971182643
 20
456.4190745302533969
 30
0.0
 40
0.0819630836418835
 50
87.1046720541176143
 51
119.2011904375840032
  0
ARC
  5
1DF51
  8
0
 10
4540.5808520815116935
 20
456.4257828334318106
 30
0.0
 40
0.0751507063047371
 50
34.8939222474749471
 51
90.2198846256878255
  0
LINE
  5
1DF52
  8
0
 10
4540.5114194099624001
 20
456.4446105206013158
 30
0.0
 11
4540.5159918798053695
 21
456.4140129364795939
 31
0.0
  0
LINE
  5
1DF53
  8
0
 10
4540.649982867230392
 20
456.4401316126056827
 30
0.0
 11
4540.6459405272526055
 21
456.4117768965386972
 31
0.0
  0
ARC
  5
1DF54
  8
0
 10
4540.5423715257829826
 20
456.2379698918808231
 30
0.0
 40
0.0183488800954237
 50
83.2604377277543932
 51
159.4902283223840982
  0
ARC
  5
1DF55
  8
0
 10
4540.5445761107657745
 20
456.2351420062220768
 30
0.0
 40
0.021050034615198
 50
27.8614140404665811
 51
90.1394284469116798
  0
ARC
  5
1DF56
  8
0
 10
4540.5379938625655996
 20
456.2411007040432196
 30
0.0
 40
0.013225925883269
 50
165.5602880264486032
 51
230.7664450275212005
  0
ARC
  5
1DF57
  8
0
 10
4540.5446660368388621
 20
456.248292047004611
 30
0.0
 40
0.0230245325582532
 50
229.2241767290819041
 51
273.2916143882728761
  0
ARC
  5
1DF58
  8
0
 10
4540.5459694066903467
 20
456.245383305228188
 30
0.0
 40
0.020077814279551
 50
270.0532233792778811
 51
318.1826404330525975
  0
ARC
  5
1DF59
  8
0
 10
4540.551431514450087
 20
456.2403322574206754
 30
0.0
 40
0.0126398129162412
 50
318.7379775787114795
 51
21.571391758270309
  0
ARC
  5
1DF5A
  8
0
 10
4540.5372667128103785
 20
456.2391054953565117
 30
0.0
 40
0.0636819151784016
 50
100.0405808855071967
 51
140.328729984127591
  0
ARC
  5
1DF5B
  8
0
 10
4540.5426937286092652
 20
456.2215332740283884
 30
0.0
 40
0.081962911226181
 50
60.6942405714327009
 51
101.6347901142043071
  0
ARC
  5
1DF5C
  8
0
 10
4540.5579629954672782
 20
456.2472668456740053
 30
0.0
 40
0.0520538403412452
 50
20.7809806490015099
 51
61.4859932741573516
  0
ARC
  5
1DF5D
  8
0
 10
4540.569709952885205
 20
456.2527559290534214
 30
0.0
 40
0.0391354701457199
 50
343.7257358882268932
 51
19.3692103594052405
  0
ARC
  5
1DF5E
  8
0
 10
4540.5156884329526292
 20
456.2546218794350921
 30
0.0
 40
0.0372124262374156
 50
137.5069969716743969
 51
185.886325842864494
  0
ARC
  5
1DF5F
  8
0
 10
4540.5455579285044223
 20
456.2750095534915999
 30
0.0
 40
0.0749434054705893
 50
243.6658588920807915
 51
281.6479708350951796
  0
ARC
  5
1DF60
  8
0
 10
4540.5282492807709787
 20
456.2583342779498139
 30
0.0
 40
0.0501454589013152
 50
188.6349067828321893
 51
221.7254496911500041
  0
ARC
  5
1DF61
  8
0
 10
4540.5402492502225869
 20
456.2649661253669251
 30
0.0
 40
0.0635880230355003
 50
218.9878460079447109
 51
243.9383703466664883
  0
ARC
  5
1DF62
  8
0
 10
4540.5569819981519686
 20
456.2558991501663854
 30
0.0
 40
0.0522371649301908
 50
305.6568184257657776
 51
344.3285143152996284
  0
ARC
  5
1DF63
  8
0
 10
4540.5475273809588543
 20
456.2674356241267901
 30
0.0
 40
0.0671290110594136
 50
281.3067893527671117
 51
306.4737897945444729
  0
ARC
  5
1DF64
  8
0
 10
4540.5133617221199529
 20
456.2875303908373894
 30
0.0
 40
0.0397372116848125
 50
155.4315344243545098
 51
188.8700731734801934
  0
ARC
  5
1DF65
  8
0
 10
4540.5742376673515537
 20
456.2821746733704913
 30
0.0
 40
0.0387825863234777
 50
352.2192518454028232
 51
37.0952579650512391
  0
ARC
  5
1DF66
  8
0
 10
4540.5234875763426317
 20
456.2826331223242846
 30
0.0
 40
0.0509830930910215
 50
118.5570265614361034
 51
155.1575867498783055
  0
ARC
  5
1DF67
  8
0
 10
4540.5391039332007495
 20
456.2558671476629115
 30
0.0
 40
0.0819630836418835
 50
87.1046720541176143
 51
119.2011904375840032
  0
ARC
  5
1DF68
  8
0
 10
4540.5435324175941787
 20
456.2625754508413252
 30
0.0
 40
0.0751507063047371
 50
34.8939222474749471
 51
90.2198846256878255
  0
LINE
  5
1DF69
  8
0
 10
4540.4740997460439758
 20
456.2814031380107735
 30
0.0
 11
4540.4786722158878547
 21
456.2508055538891085
 31
0.0
  0
LINE
  5
1DF6A
  8
0
 10
4540.6126631973766052
 20
456.2769241834594141
 30
0.0
 11
4540.6086208633360002
 21
456.2485695139483823
 31
0.0
  0
ARC
  5
1DF6B
  8
0
 10
4540.5363378140418718
 20
456.0839378362751972
 30
0.0
 40
0.0183488800954237
 50
83.2604377277543932
 51
159.4902283223840982
  0
ARC
  5
1DF6C
  8
0
 10
4540.5385423990273921
 20
456.0811099506166215
 30
0.0
 40
0.021050034615198
 50
27.8614140404665811
 51
90.1394284469116798
  0
ARC
  5
1DF6D
  8
0
 10
4540.5319601508253982
 20
456.0870686484375938
 30
0.0
 40
0.013225925883269
 50
165.5602880264486032
 51
230.7664450275212005
  0
ARC
  5
1DF6E
  8
0
 10
4540.5386323250986607
 20
456.0942599913990989
 30
0.0
 40
0.0230245325582532
 50
229.2241767290819041
 51
273.2916143882728761
  0
ARC
  5
1DF6F
  8
0
 10
4540.5399356949501453
 20
456.091351249622619
 30
0.0
 40
0.020077814279551
 50
270.0532233792778811
 51
318.1826404330525975
  0
ARC
  5
1DF70
  8
0
 10
4540.5453978027107951
 20
456.0863002018151064
 30
0.0
 40
0.0126398129162412
 50
318.7379775787114795
 51
21.571391758270309
  0
ARC
  5
1DF71
  8
0
 10
4540.5312330010710866
 20
456.0850734397508859
 30
0.0
 40
0.0636819151784016
 50
100.0405808855071967
 51
140.328729984127591
  0
ARC
  5
1DF72
  8
0
 10
4540.5366652029342731
 20
456.0675162196365022
 30
0.0
 40
0.0819472914912455
 50
60.692268683519778
 51
101.640135612801302
  0
ARC
  5
1DF73
  8
0
 10
4540.5519292837279863
 20
456.0932347900683226
 30
0.0
 40
0.0520538403412452
 50
20.7809806490015099
 51
61.4859932741573516
  0
ARC
  5
1DF74
  8
0
 10
4540.5636762411459131
 20
456.0987238734477955
 30
0.0
 40
0.0391354701457199
 50
343.7257358882268932
 51
19.3692103594052405
  0
ARC
  5
1DF75
  8
0
 10
4540.5096547212133373
 20
456.1005898238295231
 30
0.0
 40
0.0372124262374156
 50
137.5069969716743969
 51
185.886325842864494
  0
ARC
  5
1DF76
  8
0
 10
4540.5395242167642209
 20
456.1209774978859741
 30
0.0
 40
0.0749434054705893
 50
243.6658588920807915
 51
281.6479708350951796
  0
ARC
  5
1DF77
  8
0
 10
4540.5222155690316868
 20
456.1043022223441881
 30
0.0
 40
0.0501454589013152
 50
188.6349067828321893
 51
221.7254496911500041
  0
ARC
  5
1DF78
  8
0
 10
4540.5342155384842044
 20
456.1109340697612993
 30
0.0
 40
0.0635880230355003
 50
218.9878460079447109
 51
243.9383703466664883
  0
ARC
  5
1DF79
  8
0
 10
4540.5509482864117672
 20
456.1018670945607028
 30
0.0
 40
0.0522371649301908
 50
305.6568184257657776
 51
344.3285143152996284
  0
ARC
  5
1DF7A
  8
0
 10
4540.5414936692186529
 20
456.113403568521278
 30
0.0
 40
0.0671290110594136
 50
281.3067893527671117
 51
306.4737897945444729
  0
ARC
  5
1DF7B
  8
0
 10
4540.5073280103797515
 20
456.1334983352318204
 30
0.0
 40
0.0397372116848125
 50
155.4315344243545098
 51
188.8700731734801934
  0
ARC
  5
1DF7C
  8
0
 10
4540.5682039581679419
 20
456.1281426190046773
 30
0.0
 40
0.0387825835369923
 50
352.2193188532284012
 51
37.0952587815906725
  0
ARC
  5
1DF7D
  8
0
 10
4540.5174538646042492
 20
456.1286010667187156
 30
0.0
 40
0.0509830930910215
 50
118.5570265614361034
 51
155.1575867498783055
  0
ARC
  5
1DF7E
  8
0
 10
4540.5330702214605481
 20
456.1018350920573994
 30
0.0
 40
0.0819630836418835
 50
87.1046720541176143
 51
119.2011904375840032
  0
ARC
  5
1DF7F
  8
0
 10
4540.5374987058539773
 20
456.1085433952356993
 30
0.0
 40
0.0751507063047371
 50
34.8939222474749471
 51
90.2198846256878255
  0
LINE
  5
1DF80
  8
0
 10
4540.4680660343046839
 20
456.1273710824052046
 30
0.0
 11
4540.4726385041476533
 21
456.0967734982835964
 31
0.0
  0
LINE
  5
1DF81
  8
0
 10
4540.6066294856373133
 20
456.1228921278537882
 30
0.0
 11
4540.6025871515948893
 21
456.0945374583426997
 31
0.0
  0
ARC
  5
1DF82
  8
0
 10
4540.9708688895752857
 20
456.2750809398584124
 30
0.0
 40
0.0183488800954237
 50
83.2604377277543932
 51
159.4902283223840982
  0
ARC
  5
1DF83
  8
0
 10
4540.9730734745580776
 20
456.272253054199723
 30
0.0
 40
0.021050034615198
 50
27.8614140404665811
 51
90.1394284469116798
  0
ARC
  5
1DF84
  8
0
 10
4540.9664912263569931
 20
456.2782117520209226
 30
0.0
 40
0.013225925883269
 50
165.5602880264486032
 51
230.7664450275212005
  0
ARC
  5
1DF85
  8
0
 10
4540.9731634006311651
 20
456.2854030949822004
 30
0.0
 40
0.0230245325582532
 50
229.2241767290819041
 51
273.2916143882728761
  0
ARC
  5
1DF86
  8
0
 10
4540.9744667704817402
 20
456.2824943532057773
 30
0.0
 40
0.020077814279551
 50
270.0532233792778811
 51
318.1826404330525975
  0
ARC
  5
1DF87
  8
0
 10
4540.9799288782423901
 20
456.2774433053983216
 30
0.0
 40
0.0126398129162412
 50
318.7379775787114795
 51
21.571391758270309
  0
ARC
  5
1DF88
  8
0
 10
4540.9657640766008626
 20
456.2762165433341011
 30
0.0
 40
0.0636819151784016
 50
100.0405808855071967
 51
140.328729984127591
  0
ARC
  5
1DF89
  8
0
 10
4540.9711962784667776
 20
456.2586593232197743
 30
0.0
 40
0.0819472914912455
 50
60.692268683519778
 51
101.640135612801302
  0
ARC
  5
1DF8A
  8
0
 10
4540.9864603592586718
 20
456.2843778936517083
 30
0.0
 40
0.0520538403412452
 50
20.7809806490015099
 51
61.4859932741573516
  0
ARC
  5
1DF8B
  8
0
 10
4540.9982073166756891
 20
456.2898669770310107
 30
0.0
 40
0.0391354701457199
 50
343.7257358882268932
 51
19.3692103594052405
  0
ARC
  5
1DF8C
  8
0
 10
4540.9441857967440228
 20
456.2917329274126814
 30
0.0
 40
0.0372124262374156
 50
137.5069969716743969
 51
185.886325842864494
  0
ARC
  5
1DF8D
  8
0
 10
4540.9740552922939969
 20
456.312120601469303
 30
0.0
 40
0.0749434054705893
 50
243.6658588920807915
 51
281.6479708350951796
  0
ARC
  5
1DF8E
  8
0
 10
4540.9567466445623722
 20
456.2954453259274032
 30
0.0
 40
0.0501454589013152
 50
188.6349067828321893
 51
221.7254496911500041
  0
ARC
  5
1DF8F
  8
0
 10
4540.9687466140148899
 20
456.3020771733445144
 30
0.0
 40
0.0635880230355003
 50
218.9878460079447109
 51
243.9383703466664883
  0
ARC
  5
1DF90
  8
0
 10
4540.9854793619433622
 20
456.2930101981439748
 30
0.0
 40
0.0522371649301908
 50
305.6568184257657776
 51
344.3285143152996284
  0
ARC
  5
1DF91
  8
0
 10
4540.9760247447493384
 20
456.3045466721044932
 30
0.0
 40
0.0671290110594136
 50
281.3067893527671117
 51
306.4737897945444729
  0
ARC
  5
1DF92
  8
0
 10
4540.941859085910437
 20
456.3246414388149788
 30
0.0
 40
0.0397372116848125
 50
155.4315344243545098
 51
188.8700731734801934
  0
ARC
  5
1DF93
  8
0
 10
4541.0027350337004464
 20
456.3192857225878925
 30
0.0
 40
0.0387825835369923
 50
352.2193188532284012
 51
37.0952587815906725
  0
ARC
  5
1DF94
  8
0
 10
4540.9519849401349347
 20
456.319744170301874
 30
0.0
 40
0.0509830930910215
 50
118.5570265614361034
 51
155.1575867498783055
  0
ARC
  5
1DF95
  8
0
 10
4540.9676012969930525
 20
456.2929781956406146
 30
0.0
 40
0.0819630836418835
 50
87.1046720541176143
 51
119.2011904375840032
  0
ARC
  5
1DF96
  8
0
 10
4540.9720297813846628
 20
456.2996864988190282
 30
0.0
 40
0.0751507063047371
 50
34.8939222474749471
 51
90.2198846256878255
  0
LINE
  5
1DF97
  8
0
 10
4540.9025971098371883
 20
456.3185141859884766
 30
0.0
 11
4540.9071695796783388
 21
456.2879166018666979
 31
0.0
  0
LINE
  5
1DF98
  8
0
 10
4541.0411605611670893
 20
456.3140352314370034
 30
0.0
 11
4541.0371182271273938
 21
456.2856805619259717
 31
0.0
  0
ARC
  5
1DF99
  8
0
 10
4540.8238777209517139
 20
456.1629889957384876
 30
0.0
 40
0.0183488800954237
 50
83.2604377277543932
 51
159.4902283223840982
  0
ARC
  5
1DF9A
  8
0
 10
4540.8260823059363247
 20
456.1601611100799119
 30
0.0
 40
0.021050034615198
 50
27.8614140404665811
 51
90.1394284469116798
  0
ARC
  5
1DF9B
  8
0
 10
4540.8195000577352403
 20
456.1661198079009978
 30
0.0
 40
0.013225925883269
 50
165.5602880264486032
 51
230.7664450275212005
  0
ARC
  5
1DF9C
  8
0
 10
4540.8261722320103217
 20
456.1733111508623892
 30
0.0
 40
0.0230245325582532
 50
229.2241767290819041
 51
273.2916143882728761
  0
ARC
  5
1DF9D
  8
0
 10
4540.8274756018608969
 20
456.170402409086023
 30
0.0
 40
0.020077814279551
 50
270.0532233792778811
 51
318.1826404330525975
  0
ARC
  5
1DF9E
  8
0
 10
4540.8329377096206372
 20
456.1653513612785105
 30
0.0
 40
0.0126398129162412
 50
318.7379775787114795
 51
21.571391758270309
  0
ARC
  5
1DF9F
  8
0
 10
4540.8187729079809287
 20
456.1641245992141762
 30
0.0
 40
0.0636819151784016
 50
100.0405808855071967
 51
140.328729984127591
  0
ARC
  5
1DFA0
  8
0
 10
4540.8242051098450247
 20
456.1465673790999062
 30
0.0
 40
0.0819472914912455
 50
60.692268683519778
 51
101.640135612801302
  0
ARC
  5
1DFA1
  8
0
 10
4540.8394691906378284
 20
456.1722859495317834
 30
0.0
 40
0.0520538403412452
 50
20.7809806490015099
 51
61.4859932741573516
  0
ARC
  5
1DFA2
  8
0
 10
4540.8512161480548457
 20
456.1777750329111996
 30
0.0
 40
0.0391354701457199
 50
343.7257358882268932
 51
19.3692103594052405
  0
ARC
  5
1DFA3
  8
0
 10
4540.7971946281222699
 20
456.1796409832929271
 30
0.0
 40
0.0372124262374156
 50
137.5069969716743969
 51
185.886325842864494
  0
ARC
  5
1DFA4
  8
0
 10
4540.8270641236731535
 20
456.2000286573493781
 30
0.0
 40
0.0749434054705893
 50
243.6658588920807915
 51
281.6479708350951796
  0
ARC
  5
1DFA5
  8
0
 10
4540.8097554759406194
 20
456.1833533818074784
 30
0.0
 40
0.0501454589013152
 50
188.6349067828321893
 51
221.7254496911500041
  0
ARC
  5
1DFA6
  8
0
 10
4540.8217554453931371
 20
456.1899852292245896
 30
0.0
 40
0.0635880230355003
 50
218.9878460079447109
 51
243.9383703466664883
  0
ARC
  5
1DFA7
  8
0
 10
4540.8384881933216093
 20
456.1809182540242205
 30
0.0
 40
0.0522371649301908
 50
305.6568184257657776
 51
344.3285143152996284
  0
ARC
  5
1DFA8
  8
0
 10
4540.8290335761275855
 20
456.1924547279846252
 30
0.0
 40
0.0671290110594136
 50
281.3067893527671117
 51
306.4737897945444729
  0
ARC
  5
1DFA9
  8
0
 10
4540.7948679172895936
 20
456.2125494946952244
 30
0.0
 40
0.0397372116848125
 50
155.4315344243545098
 51
188.8700731734801934
  0
ARC
  5
1DFAA
  8
0
 10
4540.8557438650786935
 20
456.2071937784680813
 30
0.0
 40
0.0387825835369923
 50
352.2193188532284012
 51
37.0952587815906725
  0
ARC
  5
1DFAB
  8
0
 10
4540.8049937715131819
 20
456.2076522261821196
 30
0.0
 40
0.0509830930910215
 50
118.5570265614361034
 51
155.1575867498783055
  0
ARC
  5
1DFAC
  8
0
 10
4540.8206101283712997
 20
456.1808862515206897
 30
0.0
 40
0.0819630836418835
 50
87.1046720541176143
 51
119.2011904375840032
  0
ARC
  5
1DFAD
  8
0
 10
4540.8250386127638194
 20
456.1875945546991034
 30
0.0
 40
0.0751507063047371
 50
34.8939222474749471
 51
90.2198846256878255
  0
LINE
  5
1DFAE
  8
0
 10
4540.7556059412136165
 20
456.2064222418686086
 30
0.0
 11
4540.7601784110584049
 21
456.1758246577468867
 31
0.0
  0
LINE
  5
1DFAF
  8
0
 10
4540.8941693925462459
 20
456.2019432873171922
 30
0.0
 11
4540.8901270585056409
 21
456.1735886178062174
 31
0.0
  0
ARC
  5
1DFB0
  8
0
 10
4540.1412999577842129
 20
456.9660642933833969
 30
0.0
 40
0.0183488800954237
 50
83.2604377277543932
 51
159.4902283223840982
  0
ARC
  5
1DFB1
  8
0
 10
4540.1435045427679142
 20
456.9632364077248212
 30
0.0
 40
0.021050034615198
 50
27.8614140404665811
 51
90.1394284469116798
  0
ARC
  5
1DFB2
  8
0
 10
4540.1369222945659203
 20
456.9691951055459072
 30
0.0
 40
0.013225925883269
 50
165.5602880264486032
 51
230.7664450275212005
  0
ARC
  5
1DFB3
  8
0
 10
4540.1435944688391828
 20
456.9763864485074123
 30
0.0
 40
0.0230245325582532
 50
229.2241767290819041
 51
273.2916143882728761
  0
ARC
  5
1DFB4
  8
0
 10
4540.1448978386915769
 20
456.9734777067308755
 30
0.0
 40
0.020077814279551
 50
270.0532233792778811
 51
318.1826404330525975
  0
ARC
  5
1DFB5
  8
0
 10
4540.1503599464504077
 20
456.9684266589234198
 30
0.0
 40
0.0126398129162412
 50
318.7379775787114795
 51
21.571391758270309
  0
ARC
  5
1DFB6
  8
0
 10
4540.1361951448106993
 20
456.9671998968590856
 30
0.0
 40
0.0636819151784016
 50
100.0405808855071967
 51
140.328729984127591
  0
ARC
  5
1DFB7
  8
0
 10
4540.1416273466757048
 20
456.9496426767448156
 30
0.0
 40
0.0819472914912455
 50
60.692268683519778
 51
101.640135612801302
  0
ARC
  5
1DFB8
  8
0
 10
4540.1460415803730939
 20
456.9618137051286908
 30
0.0
 40
0.0692054748715547
 50
20.429484676683991
 51
58.9463591875842212
  0
ARC
  5
1DFB9
  8
0
 10
4540.107152162408056
 20
456.9964840007601765
 30
0.0
 40
0.1042734459061551
 50
344.924144657648128
 51
354.2130692463153991
  0
ARC
  5
1DFBA
  8
0
 10
4540.1183731884557346
 20
456.9829864209028756
 30
0.0
 40
0.039893680271318
 50
141.4404055309271087
 51
187.9016422865462062
  0
ARC
  5
1DFBB
  8
0
 10
4540.1444863605029241
 20
457.0031039549942875
 30
0.0
 40
0.0749434054705893
 50
243.6658588920807915
 51
281.6479708350951796
  0
ARC
  5
1DFBC
  8
0
 10
4540.1315361955548724
 20
456.986323244704181
 30
0.0
 40
0.0534113777044157
 50
189.5062052637129
 51
218.5275692905129858
  0
ARC
  5
1DFBD
  8
0
 10
4540.1391776822229076
 20
456.993060526869499
 30
0.0
 40
0.0635880230355003
 50
218.9878460079447109
 51
243.9383703466664883
  0
ARC
  5
1DFBE
  8
0
 10
4540.1408299761278613
 20
456.9989040205978199
 30
0.0
 40
0.0732297553169024
 50
308.4444537526766794
 51
336.2087452613154142
  0
ARC
  5
1DFBF
  8
0
 10
4540.1464558129582656
 20
456.9955300256294777
 30
0.0
 40
0.0671290110594136
 50
281.3067893527671117
 51
306.4737897945444729
  0
ARC
  5
1DFC0
  8
0
 10
4540.1337026805331334
 20
457.0140093181166776
 30
0.0
 40
0.059639013839682
 50
162.5849750971750041
 51
188.6632335253154054
  0
ARC
  5
1DFC1
  8
0
 10
4540.1696914845260835
 20
457.0046458510436764
 30
0.0
 40
0.0435820596022435
 50
348.319997901351087
 51
29.7929074781546817
  0
ARC
  5
1DFC2
  8
0
 10
4540.1175023883497488
 20
457.0174499825736234
 30
0.0
 40
0.0431799462933523
 50
117.1981808017430069
 51
160.5070460390599862
  0
ARC
  5
1DFC3
  8
0
 10
4540.1340861036833303
 20
456.9868480181531822
 30
0.0
 40
0.0779819234275243
 50
84.3752083385197835
 51
117.7586711267344981
  0
ARC
  5
1DFC4
  8
0
 10
4540.1370949327247217
 20
456.9806760350933246
 30
0.0
 40
0.0839065164153885
 50
32.9393776914934122
 51
86.8337399902481337
  0
LINE
  5
1DFC5
  8
0
 10
4540.0747441033063296
 20
457.0050261035979133
 30
0.0
 11
4540.0788582778059208
 21
456.977502119497899
 31
0.0
  0
LINE
  5
1DFC6
  8
0
 10
4540.2123711135036501
 20
456.9958228589508735
 30
0.0
 11
4540.2094172926963438
 21
456.9761174927514844
 31
0.0
  0
ARC
  5
1DFC7
  8
0
 10
4540.1278653628241955
 20
456.7519604717082871
 30
0.0
 40
0.0183488800954237
 50
83.2604377277543932
 51
159.4902283223840982
  0
ARC
  5
1DFC8
  8
0
 10
4540.1300699478069873
 20
456.7491325860495976
 30
0.0
 40
0.021050034615198
 50
27.8614140404665811
 51
90.1394284469116798
  0
ARC
  5
1DFC9
  8
0
 10
4540.1234876996068124
 20
456.7550912838706267
 30
0.0
 40
0.013225925883269
 50
165.5602880264486032
 51
230.7664450275212005
  0
ARC
  5
1DFCA
  8
0
 10
4540.1301598738809844
 20
456.7622826268321887
 30
0.0
 40
0.0230245325582532
 50
229.2241767290819041
 51
273.2916143882728761
  0
ARC
  5
1DFCB
  8
0
 10
4540.13146324373065
 20
456.7593738850558225
 30
0.0
 40
0.020077814279551
 50
270.0532233792778811
 51
318.1826404330525975
  0
ARC
  5
1DFCC
  8
0
 10
4540.1369253514922093
 20
456.7543228372481963
 30
0.0
 40
0.0126398129162412
 50
318.7379775787114795
 51
21.571391758270309
  0
ARC
  5
1DFCD
  8
0
 10
4540.1227605498506819
 20
456.7530960751839189
 30
0.0
 40
0.0636819151784016
 50
100.0405808855071967
 51
140.328729984127591
  0
ARC
  5
1DFCE
  8
0
 10
4540.1281927517156873
 20
456.735538855069592
 30
0.0
 40
0.0819472914912455
 50
60.692268683519778
 51
101.640135612801302
  0
ARC
  5
1DFCF
  8
0
 10
4540.1326069854148955
 20
456.7477098834535241
 30
0.0
 40
0.0692054748715547
 50
20.429484676683991
 51
58.9463591875842212
  0
ARC
  5
1DFD0
  8
0
 10
4540.0937175674489481
 20
456.7823801790850098
 30
0.0
 40
0.1042734459061551
 50
344.924144657648128
 51
354.2130692463153991
  0
ARC
  5
1DFD1
  8
0
 10
4540.1049385934957172
 20
456.7688825992274815
 30
0.0
 40
0.039893680271318
 50
141.4404055309271087
 51
187.9016422865462062
  0
ARC
  5
1DFD2
  8
0
 10
4540.1310517655438161
 20
456.7890001333191208
 30
0.0
 40
0.0749434054705893
 50
243.6658588920807915
 51
281.6479708350951796
  0
ARC
  5
1DFD3
  8
0
 10
4540.1181016005957645
 20
456.7722194230289006
 30
0.0
 40
0.0534113777044157
 50
189.5062052637129
 51
218.5275692905129858
  0
ARC
  5
1DFD4
  8
0
 10
4540.1257430872647092
 20
456.7789567051943891
 30
0.0
 40
0.0635880230355003
 50
218.9878460079447109
 51
243.9383703466664883
  0
ARC
  5
1DFD5
  8
0
 10
4540.1273953811687534
 20
456.7848001989225963
 30
0.0
 40
0.0732297553169024
 50
308.4444537526766794
 51
336.2087452613154142
  0
ARC
  5
1DFD6
  8
0
 10
4540.1330212179991577
 20
456.7814262039544246
 30
0.0
 40
0.0671290110594136
 50
281.3067893527671117
 51
306.4737897945444729
  0
ARC
  5
1DFD7
  8
0
 10
4540.1202680855740255
 20
456.7999054964415109
 30
0.0
 40
0.059639013839682
 50
162.5849750971750041
 51
188.6632335253154054
  0
ARC
  5
1DFD8
  8
0
 10
4540.1562568895669756
 20
456.790542029368396
 30
0.0
 40
0.0435820596022435
 50
348.319997901351087
 51
29.7929074781546817
  0
ARC
  5
1DFD9
  8
0
 10
4540.1040677933897314
 20
456.8033461608983998
 30
0.0
 40
0.0431799462933523
 50
117.1981808017430069
 51
160.5070460390599862
  0
ARC
  5
1DFDA
  8
0
 10
4540.1206515087251319
 20
456.7727441964779018
 30
0.0
 40
0.0779819234275243
 50
84.3752083385197835
 51
117.7586711267344981
  0
ARC
  5
1DFDB
  8
0
 10
4540.1236603377647043
 20
456.7665722134179873
 30
0.0
 40
0.0839065164153885
 50
32.9393776914934122
 51
86.8337399902481337
  0
LINE
  5
1DFDC
  8
0
 10
4540.0613095083463122
 20
456.7909222819226898
 30
0.0
 11
4540.0654236828459034
 21
456.7633982978226186
 31
0.0
  0
LINE
  5
1DFDD
  8
0
 10
4540.1989365185454517
 20
456.7817190372757068
 30
0.0
 11
4540.1959826977354169
 21
456.7620136710763745
 31
0.0
  0
ARC
  5
1DFDE
  8
0
 10
4539.9141331917717253
 20
456.6911053921119219
 30
0.0
 40
0.0183488800954237
 50
83.2604377277543932
 51
159.4902283223840982
  0
ARC
  5
1DFDF
  8
0
 10
4539.9163377767572456
 20
456.6882775064532893
 30
0.0
 40
0.021050034615198
 50
27.8614140404665811
 51
90.1394284469116798
  0
ARC
  5
1DFE0
  8
0
 10
4539.9097555285561612
 20
456.6942362042743184
 30
0.0
 40
0.013225925883269
 50
165.5602880264486032
 51
230.7664450275212005
  0
ARC
  5
1DFE1
  8
0
 10
4539.9164277028303331
 20
456.7014275472358236
 30
0.0
 40
0.0230245325582532
 50
229.2241767290819041
 51
273.2916143882728761
  0
ARC
  5
1DFE2
  8
0
 10
4539.9177310726809083
 20
456.6985188054592868
 30
0.0
 40
0.020077814279551
 50
270.0532233792778811
 51
318.1826404330525975
  0
ARC
  5
1DFE3
  8
0
 10
4539.9231931804406486
 20
456.693467757651888
 30
0.0
 40
0.0126398129162412
 50
318.7379775787114795
 51
21.571391758270309
  0
ARC
  5
1DFE4
  8
0
 10
4539.9090283788009401
 20
456.6922409955876105
 30
0.0
 40
0.0636819151784016
 50
100.0405808855071967
 51
140.328729984127591
  0
ARC
  5
1DFE5
  8
0
 10
4539.9144605806659456
 20
456.6746837754732837
 30
0.0
 40
0.0819472914912455
 50
60.692268683519778
 51
101.640135612801302
  0
ARC
  5
1DFE6
  8
0
 10
4539.9188748143642442
 20
456.6868548038571021
 30
0.0
 40
0.0692054748715547
 50
20.429484676683991
 51
58.9463591875842212
  0
ARC
  5
1DFE7
  8
0
 10
4539.8799853963973874
 20
456.7215250994885878
 30
0.0
 40
0.1042734459061551
 50
344.924144657648128
 51
354.2130692463153991
  0
ARC
  5
1DFE8
  8
0
 10
4539.8912064224459755
 20
456.7080275196311732
 30
0.0
 40
0.039893680271318
 50
141.4404055309271087
 51
187.9016422865462062
  0
ARC
  5
1DFE9
  8
0
 10
4539.9173195944931649
 20
456.7281450537226988
 30
0.0
 40
0.0749434054705893
 50
243.6658588920807915
 51
281.6479708350951796
  0
ARC
  5
1DFEA
  8
0
 10
4539.9043694295451132
 20
456.7113643434325922
 30
0.0
 40
0.0534113777044157
 50
189.5062052637129
 51
218.5275692905129858
  0
ARC
  5
1DFEB
  8
0
 10
4539.9120109162131484
 20
456.7181016255980239
 30
0.0
 40
0.0635880230355003
 50
218.9878460079447109
 51
243.9383703466664883
  0
ARC
  5
1DFEC
  8
0
 10
4539.9136632101190116
 20
456.723945119326288
 30
0.0
 40
0.0732297553169024
 50
308.4444537526766794
 51
336.2087452613154142
  0
ARC
  5
1DFED
  8
0
 10
4539.9192890469494159
 20
456.7205711243578889
 30
0.0
 40
0.0671290110594136
 50
281.3067893527671117
 51
306.4737897945444729
  0
ARC
  5
1DFEE
  8
0
 10
4539.9065359145233742
 20
456.7390504168450889
 30
0.0
 40
0.059639013839682
 50
162.5849750971750041
 51
188.6632335253154054
  0
ARC
  5
1DFEF
  8
0
 10
4539.9425247185163244
 20
456.7296869497720877
 30
0.0
 40
0.0435820596022435
 50
348.319997901351087
 51
29.7929074781546817
  0
ARC
  5
1DFF0
  8
0
 10
4539.8903356223399896
 20
456.7424910813019778
 30
0.0
 40
0.0431799462933523
 50
117.1981808017430069
 51
160.5070460390599862
  0
ARC
  5
1DFF1
  8
0
 10
4539.9069193376726616
 20
456.7118891168815935
 30
0.0
 40
0.0779819234275243
 50
84.3752083385197835
 51
117.7586711267344981
  0
ARC
  5
1DFF2
  8
0
 10
4539.9099281667131436
 20
456.7057171338216222
 30
0.0
 40
0.0839065164153885
 50
32.9393776914934122
 51
86.8337399902481337
  0
LINE
  5
1DFF3
  8
0
 10
4539.847577337295661
 20
456.7300672023263246
 30
0.0
 11
4539.8516915117952522
 21
456.7025432182263103
 31
0.0
  0
LINE
  5
1DFF4
  8
0
 10
4539.985204347493891
 20
456.7208639576792848
 30
0.0
 11
4539.9822505266838562
 21
456.7011585914800094
 31
0.0
  0
ARC
  5
1DFF5
  8
0
 10
4540.3670994701169548
 20
456.6660693055569027
 30
0.0
 40
0.0183488800954237
 50
83.2604377277543932
 51
159.4902283223840982
  0
ARC
  5
1DFF6
  8
0
 10
4540.3693040550997466
 20
456.663241419898327
 30
0.0
 40
0.021050034615198
 50
27.8614140404665811
 51
90.1394284469116798
  0
ARC
  5
1DFF7
  8
0
 10
4540.3627218068986622
 20
456.6692001177194129
 30
0.0
 40
0.013225925883269
 50
165.5602880264486032
 51
230.7664450275212005
  0
ARC
  5
1DFF8
  8
0
 10
4540.3693939811737437
 20
456.6763914606808044
 30
0.0
 40
0.0230245325582532
 50
229.2241767290819041
 51
273.2916143882728761
  0
ARC
  5
1DFF9
  8
0
 10
4540.3706973510252283
 20
456.6734827189043813
 30
0.0
 40
0.020077814279551
 50
270.0532233792778811
 51
318.1826404330525975
  0
ARC
  5
1DFFA
  8
0
 10
4540.3761594587849686
 20
456.6684316710968119
 30
0.0
 40
0.0126398129162412
 50
318.7379775787114795
 51
21.571391758270309
  0
ARC
  5
1DFFB
  8
0
 10
4540.3619946571452601
 20
456.6672049090325913
 30
0.0
 40
0.0636819151784016
 50
100.0405808855071967
 51
140.328729984127591
  0
ARC
  5
1DFFC
  8
0
 10
4540.3674268590093561
 20
456.6496476889183214
 30
0.0
 40
0.0819472914912455
 50
60.692268683519778
 51
101.640135612801302
  0
ARC
  5
1DFFD
  8
0
 10
4540.3718410927067453
 20
456.6618187173021965
 30
0.0
 40
0.0692054748715547
 50
20.429484676683991
 51
58.9463591875842212
  0
ARC
  5
1DFFE
  8
0
 10
4540.3329516747407979
 20
456.6964890129336254
 30
0.0
 40
0.1042734459061551
 50
344.924144657648128
 51
354.2130692463153991
  0
ARC
  5
1DFFF
  8
0
 10
4540.344172700789386
 20
456.6829914330763245
 30
0.0
 40
0.039893680271318
 50
141.4404055309271087
 51
187.9016422865462062
  0
ARC
  5
1E000
  8
0
 10
4540.3702858728365754
 20
456.7031089671677933
 30
0.0
 40
0.0749434054705893
 50
243.6658588920807915
 51
281.6479708350951796
  0
ARC
  5
1E001
  8
0
 10
4540.3573357078876143
 20
456.686328256877573
 30
0.0
 40
0.0534113777044157
 50
189.5062052637129
 51
218.5275692905129858
  0
ARC
  5
1E002
  8
0
 10
4540.364977194556559
 20
456.6930655390430047
 30
0.0
 40
0.0635880230355003
 50
218.9878460079447109
 51
243.9383703466664883
  0
ARC
  5
1E003
  8
0
 10
4540.3666294884624222
 20
456.6989090327713257
 30
0.0
 40
0.0732297553169024
 50
308.4444537526766794
 51
336.2087452613154142
  0
ARC
  5
1E004
  8
0
 10
4540.372255325291917
 20
456.6955350378029834
 30
0.0
 40
0.0671290110594136
 50
281.3067893527671117
 51
306.4737897945444729
  0
ARC
  5
1E005
  8
0
 10
4540.3595021928658753
 20
456.7140143302901834
 30
0.0
 40
0.059639013839682
 50
162.5849750971750041
 51
188.6632335253154054
  0
ARC
  5
1E006
  8
0
 10
4540.3954909968597349
 20
456.7046508632171822
 30
0.0
 40
0.0435820596022435
 50
348.319997901351087
 51
29.7929074781546817
  0
ARC
  5
1E007
  8
0
 10
4540.3433019006834002
 20
456.7174549947470723
 30
0.0
 40
0.0431799462933523
 50
117.1981808017430069
 51
160.5070460390599862
  0
ARC
  5
1E008
  8
0
 10
4540.3598856160169817
 20
456.6868530303265743
 30
0.0
 40
0.0779819234275243
 50
84.3752083385197835
 51
117.7586711267344981
  0
ARC
  5
1E009
  8
0
 10
4540.3628944450565541
 20
456.6806810472667166
 30
0.0
 40
0.0839065164153885
 50
32.9393776914934122
 51
86.8337399902481337
  0
LINE
  5
1E00A
  8
0
 10
4540.3005436156390715
 20
456.7050311157713054
 30
0.0
 11
4540.3046577901395722
 21
456.6775071316712911
 31
0.0
  0
LINE
  5
1E00B
  8
0
 10
4540.438170625838211
 20
456.6958278711243224
 30
0.0
 11
4540.4352168050290857
 21
456.6761225049249902
 31
0.0
  0
ARC
  5
1E00C
  8
0
 10
4540.1741642005772519
 20
456.5559708920122262
 30
0.0
 40
0.0183488800954237
 50
83.2604377277543932
 51
159.4902283223840982
  0
ARC
  5
1E00D
  8
0
 10
4540.1763687855609533
 20
456.5531430063535936
 30
0.0
 40
0.021050034615198
 50
27.8614140404665811
 51
90.1394284469116798
  0
ARC
  5
1E00E
  8
0
 10
4540.1697865373598688
 20
456.5591017041746795
 30
0.0
 40
0.013225925883269
 50
165.5602880264486032
 51
230.7664450275212005
  0
ARC
  5
1E00F
  8
0
 10
4540.1764587116331313
 20
456.5662930471360141
 30
0.0
 40
0.0230245325582532
 50
229.2241767290819041
 51
273.2916143882728761
  0
ARC
  5
1E010
  8
0
 10
4540.1777620814846159
 20
456.5633843053595911
 30
0.0
 40
0.020077814279551
 50
270.0532233792778811
 51
318.1826404330525975
  0
ARC
  5
1E011
  8
0
 10
4540.1832241892452657
 20
456.5583332575521922
 30
0.0
 40
0.0126398129162412
 50
318.7379775787114795
 51
21.571391758270309
  0
ARC
  5
1E012
  8
0
 10
4540.1690593876046478
 20
456.5571064954879148
 30
0.0
 40
0.0636819151784016
 50
100.0405808855071967
 51
140.328729984127591
  0
ARC
  5
1E013
  8
0
 10
4540.1744915894687438
 20
456.539549275373588
 30
0.0
 40
0.0819472914912455
 50
60.692268683519778
 51
101.640135612801302
  0
ARC
  5
1E014
  8
0
 10
4540.1789058231670424
 20
456.55172030375752
 30
0.0
 40
0.0692054748715547
 50
20.429484676683991
 51
58.9463591875842212
  0
ARC
  5
1E015
  8
0
 10
4540.1400164052020045
 20
456.586390599388892
 30
0.0
 40
0.1042734459061551
 50
344.924144657648128
 51
354.2130692463153991
  0
ARC
  5
1E016
  8
0
 10
4540.1512374312505926
 20
456.5728930195315911
 30
0.0
 40
0.039893680271318
 50
141.4404055309271087
 51
187.9016422865462062
  0
ARC
  5
1E017
  8
0
 10
4540.1773506032977821
 20
456.5930105536231167
 30
0.0
 40
0.0749434054705893
 50
243.6658588920807915
 51
281.6479708350951796
  0
ARC
  5
1E018
  8
0
 10
4540.1644004383488209
 20
456.5762298433328965
 30
0.0
 40
0.0534113777044157
 50
189.5062052637129
 51
218.5275692905129858
  0
ARC
  5
1E019
  8
0
 10
4540.1720419250168561
 20
456.5829671254983282
 30
0.0
 40
0.0635880230355003
 50
218.9878460079447109
 51
243.9383703466664883
  0
ARC
  5
1E01A
  8
0
 10
4540.1736942189227193
 20
456.5888106192265923
 30
0.0
 40
0.0732297553169024
 50
308.4444537526766794
 51
336.2087452613154142
  0
ARC
  5
1E01B
  8
0
 10
4540.1793200557531236
 20
456.5854366242583069
 30
0.0
 40
0.0671290110594136
 50
281.3067893527671117
 51
306.4737897945444729
  0
ARC
  5
1E01C
  8
0
 10
4540.1665669233270819
 20
456.6039159167455068
 30
0.0
 40
0.059639013839682
 50
162.5849750971750041
 51
188.6632335253154054
  0
ARC
  5
1E01D
  8
0
 10
4540.202555727320032
 20
456.5945524496725056
 30
0.0
 40
0.0435820596022435
 50
348.319997901351087
 51
29.7929074781546817
  0
ARC
  5
1E01E
  8
0
 10
4540.1503666311436973
 20
456.6073565812023958
 30
0.0
 40
0.0431799462933523
 50
117.1981808017430069
 51
160.5070460390599862
  0
ARC
  5
1E01F
  8
0
 10
4540.1669503464772788
 20
456.5767546167818978
 30
0.0
 40
0.0779819234275243
 50
84.3752083385197835
 51
117.7586711267344981
  0
ARC
  5
1E020
  8
0
 10
4540.1699591755168512
 20
456.5705826337219833
 30
0.0
 40
0.0839065164153885
 50
32.9393776914934122
 51
86.8337399902481337
  0
LINE
  5
1E021
  8
0
 10
4540.1076083461002781
 20
456.5949327022265152
 30
0.0
 11
4540.1117225205998693
 21
456.5674087181267282
 31
0.0
  0
LINE
  5
1E022
  8
0
 10
4540.2452353562975986
 20
456.5857294575795891
 30
0.0
 11
4540.2422815354902923
 21
456.5660240913803136
 31
0.0
  0
ARC
  5
1E023
  8
0
 10
4540.3411659997791503
 20
456.3773973937259143
 30
0.0
 40
0.0183488800954237
 50
83.2604377277543932
 51
159.4902283223840982
  0
ARC
  5
1E024
  8
0
 10
4540.3433705847628516
 20
456.3745695080672817
 30
0.0
 40
0.021050034615198
 50
27.8614140404665811
 51
90.1394284469116798
  0
ARC
  5
1E025
  8
0
 10
4540.3367883365626767
 20
456.3805282058884245
 30
0.0
 40
0.013225925883269
 50
165.5602880264486032
 51
230.7664450275212005
  0
ARC
  5
1E026
  8
0
 10
4540.3434605108359392
 20
456.387719548849816
 30
0.0
 40
0.0230245325582532
 50
229.2241767290819041
 51
273.2916143882728761
  0
ARC
  5
1E027
  8
0
 10
4540.3447638806874238
 20
456.3848108070732792
 30
0.0
 40
0.020077814279551
 50
270.0532233792778811
 51
318.1826404330525975
  0
ARC
  5
1E028
  8
0
 10
4540.3502259884480736
 20
456.3797597592658803
 30
0.0
 40
0.0126398129162412
 50
318.7379775787114795
 51
21.571391758270309
  0
ARC
  5
1E029
  8
0
 10
4540.3360611868065462
 20
456.3785329972017166
 30
0.0
 40
0.0636819151784016
 50
100.0405808855071967
 51
140.328729984127591
  0
ARC
  5
1E02A
  8
0
 10
4540.3414933886715517
 20
456.3609757770872761
 30
0.0
 40
0.0819472914912455
 50
60.692268683519778
 51
101.640135612801302
  0
ARC
  5
1E02B
  8
0
 10
4540.3459076223707598
 20
456.3731468054712082
 30
0.0
 40
0.0692054748715547
 50
20.429484676683991
 51
58.9463591875842212
  0
ARC
  5
1E02C
  8
0
 10
4540.3070182044039029
 20
456.4078171011025802
 30
0.0
 40
0.1042734459061551
 50
344.924144657648128
 51
354.2130692463153991
  0
ARC
  5
1E02D
  8
0
 10
4540.3182392304515815
 20
456.3943195212452224
 30
0.0
 40
0.039893680271318
 50
141.4404055309271087
 51
187.9016422865462062
  0
ARC
  5
1E02E
  8
0
 10
4540.34435240250059
 20
456.4144370553368049
 30
0.0
 40
0.0749434054705893
 50
243.6658588920807915
 51
281.6479708350951796
  0
ARC
  5
1E02F
  8
0
 10
4540.3314022375507193
 20
456.3976563450465846
 30
0.0
 40
0.0534113777044157
 50
189.5062052637129
 51
218.5275692905129858
  0
ARC
  5
1E030
  8
0
 10
4540.3390437242205735
 20
456.4043936272120732
 30
0.0
 40
0.0635880230355003
 50
218.9878460079447109
 51
243.9383703466664883
  0
ARC
  5
1E031
  8
0
 10
4540.3406960181264367
 20
456.4102371209402804
 30
0.0
 40
0.0732297553169024
 50
308.4444537526766794
 51
336.2087452613154142
  0
ARC
  5
1E032
  8
0
 10
4540.3463218549559315
 20
456.406863125971995
 30
0.0
 40
0.0671290110594136
 50
281.3067893527671117
 51
306.4737897945444729
  0
ARC
  5
1E033
  8
0
 10
4540.3335687225289803
 20
456.425342418459195
 30
0.0
 40
0.059639013839682
 50
162.5849750971750041
 51
188.6632335253154054
  0
ARC
  5
1E034
  8
0
 10
4540.3695575265228399
 20
456.4159789513861938
 30
0.0
 40
0.0435820596022435
 50
348.319997901351087
 51
29.7929074781546817
  0
ARC
  5
1E035
  8
0
 10
4540.3173684303455957
 20
456.4287830829160839
 30
0.0
 40
0.0431799462933523
 50
117.1981808017430069
 51
160.5070460390599862
  0
ARC
  5
1E036
  8
0
 10
4540.3339521456800867
 20
456.3981811184955859
 30
0.0
 40
0.0779819234275243
 50
84.3752083385197835
 51
117.7586711267344981
  0
ARC
  5
1E037
  8
0
 10
4540.3369609747205686
 20
456.3920091354356146
 30
0.0
 40
0.0839065164153885
 50
32.9393776914934122
 51
86.8337399902481337
  0
LINE
  5
1E038
  8
0
 10
4540.2746101453021765
 20
456.416359203940317
 30
0.0
 11
4540.2787243198026772
 21
456.3888352198403027
 31
0.0
  0
LINE
  5
1E039
  8
0
 10
4540.412237155501316
 20
456.4071559592932772
 30
0.0
 11
4540.4092833346921907
 21
456.3874505930940018
 31
0.0
  0
ARC
  5
1E03A
  8
0
 10
4539.8662975304623615
 20
456.3301094031129992
 30
0.0
 40
0.0183488800954237
 50
83.2604377277543932
 51
159.4902283223840982
  0
ARC
  5
1E03B
  8
0
 10
4539.8685021154460628
 20
456.3272815174544803
 30
0.0
 40
0.021050034615198
 50
27.8614140404665811
 51
90.1394284469116798
  0
ARC
  5
1E03C
  8
0
 10
4539.8619198672440689
 20
456.3332402152755094
 30
0.0
 40
0.013225925883269
 50
165.5602880264486032
 51
230.7664450275212005
  0
ARC
  5
1E03D
  8
0
 10
4539.8685920415191504
 20
456.3404315582369009
 30
0.0
 40
0.0230245325582532
 50
229.2241767290819041
 51
273.2916143882728761
  0
ARC
  5
1E03E
  8
0
 10
4539.8698954113697255
 20
456.3375228164604778
 30
0.0
 40
0.020077814279551
 50
270.0532233792778811
 51
318.1826404330525975
  0
ARC
  5
1E03F
  8
0
 10
4539.8753575191312848
 20
456.3324717686530221
 30
0.0
 40
0.0126398129162412
 50
318.7379775787114795
 51
21.571391758270309
  0
ARC
  5
1E040
  8
0
 10
4539.8611927174906668
 20
456.3312450065888015
 30
0.0
 40
0.0636819151784016
 50
100.0405808855071967
 51
140.328729984127591
  0
ARC
  5
1E041
  8
0
 10
4539.8666249193538533
 20
456.3136877864744179
 30
0.0
 40
0.0819472914912455
 50
60.692268683519778
 51
101.640135612801302
  0
ARC
  5
1E042
  8
0
 10
4539.8710391530530615
 20
456.325858814858293
 30
0.0
 40
0.0692054748715547
 50
20.429484676683991
 51
58.9463591875842212
  0
ARC
  5
1E043
  8
0
 10
4539.8321497350871141
 20
456.3605291104897788
 30
0.0
 40
0.1042734459061551
 50
344.924144657648128
 51
354.2130692463153991
  0
ARC
  5
1E044
  8
0
 10
4539.8433707611338832
 20
456.347031530632421
 30
0.0
 40
0.039893680271318
 50
141.4404055309271087
 51
187.9016422865462062
  0
ARC
  5
1E045
  8
0
 10
4539.8694839331828916
 20
456.3671490647238898
 30
0.0
 40
0.0749434054705893
 50
243.6658588920807915
 51
281.6479708350951796
  0
ARC
  5
1E046
  8
0
 10
4539.8565337682339305
 20
456.3503683544337832
 30
0.0
 40
0.0534113777044157
 50
189.5062052637129
 51
218.5275692905129858
  0
ARC
  5
1E047
  8
0
 10
4539.8641752549028752
 20
456.3571056365991012
 30
0.0
 40
0.0635880230355003
 50
218.9878460079447109
 51
243.9383703466664883
  0
ARC
  5
1E048
  8
0
 10
4539.8658275488069194
 20
456.362949130327479
 30
0.0
 40
0.0732297553169024
 50
308.4444537526766794
 51
336.2087452613154142
  0
ARC
  5
1E049
  8
0
 10
4539.8714533856391427
 20
456.3595751353591936
 30
0.0
 40
0.0671290110594136
 50
281.3067893527671117
 51
306.4737897945444729
  0
ARC
  5
1E04A
  8
0
 10
4539.8587002532121915
 20
456.3780544278462799
 30
0.0
 40
0.059639013839682
 50
162.5849750971750041
 51
188.6632335253154054
  0
ARC
  5
1E04B
  8
0
 10
4539.8946890572051416
 20
456.3686909607732218
 30
0.0
 40
0.0435820596022435
 50
348.319997901351087
 51
29.7929074781546817
  0
ARC
  5
1E04C
  8
0
 10
4539.8424999610288069
 20
456.3814950923032256
 30
0.0
 40
0.0431799462933523
 50
117.1981808017430069
 51
160.5070460390599862
  0
ARC
  5
1E04D
  8
0
 10
4539.8590836763623884
 20
456.3508931278827276
 30
0.0
 40
0.0779819234275243
 50
84.3752083385197835
 51
117.7586711267344981
  0
ARC
  5
1E04E
  8
0
 10
4539.8620925054028703
 20
456.3447211448226994
 30
0.0
 40
0.0839065164153885
 50
32.9393776914934122
 51
86.8337399902481337
  0
LINE
  5
1E04F
  8
0
 10
4539.7997416759853877
 20
456.3690712133274019
 30
0.0
 11
4539.8038558504849789
 21
456.3415472292275012
 31
0.0
  0
LINE
  5
1E050
  8
0
 10
4539.9373686861827082
 20
456.3598679686804189
 30
0.0
 11
4539.9344148653735829
 21
456.3401626024812003
 31
0.0
  0
ARC
  5
1E051
  8
0
 10
4540.006284705881626
 20
456.4444791647460988
 30
0.0
 40
0.0183488800954237
 50
83.2604377277543932
 51
159.4902283223840982
  0
ARC
  5
1E052
  8
0
 10
4540.0084892908671463
 20
456.44165127908758
 30
0.0
 40
0.021050034615198
 50
27.8614140404665811
 51
90.1394284469116798
  0
ARC
  5
1E053
  8
0
 10
4540.0019070426660619
 20
456.447609976908609
 30
0.0
 40
0.013225925883269
 50
165.5602880264486032
 51
230.7664450275212005
  0
ARC
  5
1E054
  8
0
 10
4540.0085792169402339
 20
456.4548013198701142
 30
0.0
 40
0.0230245325582532
 50
229.2241767290819041
 51
273.2916143882728761
  0
ARC
  5
1E055
  8
0
 10
4540.0098825867898995
 20
456.4518925780935774
 30
0.0
 40
0.020077814279551
 50
270.0532233792778811
 51
318.1826404330525975
  0
ARC
  5
1E056
  8
0
 10
4540.0153446945505493
 20
456.4468415302861786
 30
0.0
 40
0.0126398129162412
 50
318.7379775787114795
 51
21.571391758270309
  0
ARC
  5
1E057
  8
0
 10
4540.0011798929099314
 20
456.4456147682219012
 30
0.0
 40
0.0636819151784016
 50
100.0405808855071967
 51
140.328729984127591
  0
ARC
  5
1E058
  8
0
 10
4540.0066120947758463
 20
456.4280575481075743
 30
0.0
 40
0.0819472914912455
 50
60.692268683519778
 51
101.640135612801302
  0
ARC
  5
1E059
  8
0
 10
4540.0110263284732355
 20
456.4402285764913927
 30
0.0
 40
0.0692054748715547
 50
20.429484676683991
 51
58.9463591875842212
  0
ARC
  5
1E05A
  8
0
 10
4539.9721369105072881
 20
456.4748988721228784
 30
0.0
 40
0.1042734459061551
 50
344.924144657648128
 51
354.2130692463153991
  0
ARC
  5
1E05B
  8
0
 10
4539.9833579365558762
 20
456.4614012922655206
 30
0.0
 40
0.039893680271318
 50
141.4404055309271087
 51
187.9016422865462062
  0
ARC
  5
1E05C
  8
0
 10
4540.0094711086039752
 20
456.4815188263569894
 30
0.0
 40
0.0749434054705893
 50
243.6658588920807915
 51
281.6479708350951796
  0
ARC
  5
1E05D
  8
0
 10
4539.996520943655014
 20
456.4647381160668829
 30
0.0
 40
0.0534113777044157
 50
189.5062052637129
 51
218.5275692905129858
  0
ARC
  5
1E05E
  8
0
 10
4540.0041624303239587
 20
456.4714753982323145
 30
0.0
 40
0.0635880230355003
 50
218.9878460079447109
 51
243.9383703466664883
  0
ARC
  5
1E05F
  8
0
 10
4540.0058147242289124
 20
456.4773188919605218
 30
0.0
 40
0.0732297553169024
 50
308.4444537526766794
 51
336.2087452613154142
  0
ARC
  5
1E060
  8
0
 10
4540.0114405610593167
 20
456.4739448969921796
 30
0.0
 40
0.0671290110594136
 50
281.3067893527671117
 51
306.4737897945444729
  0
ARC
  5
1E061
  8
0
 10
4539.998687428633275
 20
456.4924241894793795
 30
0.0
 40
0.059639013839682
 50
162.5849750971750041
 51
188.6632335253154054
  0
ARC
  5
1E062
  8
0
 10
4540.0346762326262251
 20
456.4830607224063783
 30
0.0
 40
0.0435820596022435
 50
348.319997901351087
 51
29.7929074781546817
  0
ARC
  5
1E063
  8
0
 10
4539.9824871364498904
 20
456.4958648539363253
 30
0.0
 40
0.0431799462933523
 50
117.1981808017430069
 51
160.5070460390599862
  0
ARC
  5
1E064
  8
0
 10
4539.9990708517825624
 20
456.4652628895158273
 30
0.0
 40
0.0779819234275243
 50
84.3752083385197835
 51
117.7586711267344981
  0
ARC
  5
1E065
  8
0
 10
4540.0020796808239538
 20
456.4590909064559128
 30
0.0
 40
0.0839065164153885
 50
32.9393776914934122
 51
86.8337399902481337
  0
LINE
  5
1E066
  8
0
 10
4539.9397288514055617
 20
456.4834409749606152
 30
0.0
 11
4539.9438430259060624
 21
456.4559169908606009
 31
0.0
  0
LINE
  5
1E067
  8
0
 10
4540.0773558616037917
 20
456.4742377303135754
 30
0.0
 11
4540.0744020407946664
 21
456.4545323641143
 31
0.0
  0
ARC
  5
1E068
  8
0
 10
4540.2514238976727938
 20
456.250138728915374
 30
0.0
 40
0.0183488800954237
 50
83.2604377277543932
 51
159.4902283223840982
  0
ARC
  5
1E069
  8
0
 10
4540.2536284826574047
 20
456.2473108432567983
 30
0.0
 40
0.021050034615198
 50
27.8614140404665811
 51
90.1394284469116798
  0
ARC
  5
1E06A
  8
0
 10
4540.2470462344572297
 20
456.2532695410778274
 30
0.0
 40
0.013225925883269
 50
165.5602880264486032
 51
230.7664450275212005
  0
ARC
  5
1E06B
  8
0
 10
4540.2537184087295827
 20
456.2604608840392757
 30
0.0
 40
0.0230245325582532
 50
229.2241767290819041
 51
273.2916143882728761
  0
ARC
  5
1E06C
  8
0
 10
4540.2550217785819768
 20
456.2575521422629095
 30
0.0
 40
0.020077814279551
 50
270.0532233792778811
 51
318.1826404330525975
  0
ARC
  5
1E06D
  8
0
 10
4540.2604838863408077
 20
456.2525010944553969
 30
0.0
 40
0.0126398129162412
 50
318.7379775787114795
 51
21.571391758270309
  0
ARC
  5
1E06E
  8
0
 10
4540.2463190847020087
 20
456.2512743323911195
 30
0.0
 40
0.0636819151784016
 50
100.0405808855071967
 51
140.328729984127591
  0
ARC
  5
1E06F
  8
0
 10
4540.2517512865661047
 20
456.2337171122767927
 30
0.0
 40
0.0819472914912455
 50
60.692268683519778
 51
101.640135612801302
  0
ARC
  5
1E070
  8
0
 10
4540.2561655202644033
 20
456.2458881406607247
 30
0.0
 40
0.0692054748715547
 50
20.429484676683991
 51
58.9463591875842212
  0
ARC
  5
1E071
  8
0
 10
4540.2172761022993654
 20
456.2805584362922104
 30
0.0
 40
0.1042734459061551
 50
344.924144657648128
 51
354.2130692463153991
  0
ARC
  5
1E072
  8
0
 10
4540.2284971283470441
 20
456.2670608564347958
 30
0.0
 40
0.039893680271318
 50
141.4404055309271087
 51
187.9016422865462062
  0
ARC
  5
1E073
  8
0
 10
4540.2546103003942335
 20
456.2871783905263214
 30
0.0
 40
0.0749434054705893
 50
243.6658588920807915
 51
281.6479708350951796
  0
ARC
  5
1E074
  8
0
 10
4540.2416601354452723
 20
456.2703976802361012
 30
0.0
 40
0.0534113777044157
 50
189.5062052637129
 51
218.5275692905129858
  0
ARC
  5
1E075
  8
0
 10
4540.249301622114217
 20
456.2771349624014761
 30
0.0
 40
0.0635880230355003
 50
218.9878460079447109
 51
243.9383703466664883
  0
ARC
  5
1E076
  8
0
 10
4540.2509539160191707
 20
456.282978456129797
 30
0.0
 40
0.0732297553169024
 50
308.4444537526766794
 51
336.2087452613154142
  0
ARC
  5
1E077
  8
0
 10
4540.2565797528486655
 20
456.2796044611615116
 30
0.0
 40
0.0671290110594136
 50
281.3067893527671117
 51
306.4737897945444729
  0
ARC
  5
1E078
  8
0
 10
4540.2438266204226238
 20
456.2980837536485978
 30
0.0
 40
0.059639013839682
 50
162.5849750971750041
 51
188.6632335253154054
  0
ARC
  5
1E079
  8
0
 10
4540.2798154244155739
 20
456.2887202865755967
 30
0.0
 40
0.0435820596022435
 50
348.319997901351087
 51
29.7929074781546817
  0
ARC
  5
1E07A
  8
0
 10
4540.2276263282410582
 20
456.3015244181054868
 30
0.0
 40
0.0431799462933523
 50
117.1981808017430069
 51
160.5070460390599862
  0
ARC
  5
1E07B
  8
0
 10
4540.2442100435737302
 20
456.2709224536852162
 30
0.0
 40
0.0779819234275243
 50
84.3752083385197835
 51
117.7586711267344981
  0
ARC
  5
1E07C
  8
0
 10
4540.2472188726142122
 20
456.264750470625188
 30
0.0
 40
0.0839065164153885
 50
32.9393776914934122
 51
86.8337399902481337
  0
LINE
  5
1E07D
  8
0
 10
4540.1848680431967296
 20
456.2891005391298904
 30
0.0
 11
4540.1889822176963207
 21
456.2615765550298192
 31
0.0
  0
LINE
  5
1E07E
  8
0
 10
4540.3224950533949595
 20
456.2798972944827938
 30
0.0
 11
4540.3195412325858342
 21
456.2601919282835183
 31
0.0
  0
ARC
  5
1E07F
  8
0
 10
4540.184233385339212
 20
456.111780904634486
 30
0.0
 40
0.0183488800954237
 50
83.2604377277543932
 51
159.4902283223840982
  0
ARC
  5
1E080
  8
0
 10
4540.1864379703238228
 20
456.1089530189759103
 30
0.0
 40
0.021050034615198
 50
27.8614140404665811
 51
90.1394284469116798
  0
ARC
  5
1E081
  8
0
 10
4540.1798557221218289
 20
456.1149117167968825
 30
0.0
 40
0.013225925883269
 50
165.5602880264486032
 51
230.7664450275212005
  0
ARC
  5
1E082
  8
0
 10
4540.1865278963969104
 20
456.1221030597583876
 30
0.0
 40
0.0230245325582532
 50
229.2241767290819041
 51
273.2916143882728761
  0
ARC
  5
1E083
  8
0
 10
4540.187831266246576
 20
456.1191943179820214
 30
0.0
 40
0.020077814279551
 50
270.0532233792778811
 51
318.1826404330525975
  0
ARC
  5
1E084
  8
0
 10
4540.1932933740072258
 20
456.1141432701743952
 30
0.0
 40
0.0126398129162412
 50
318.7379775787114795
 51
21.571391758270309
  0
ARC
  5
1E085
  8
0
 10
4540.1791285723684268
 20
456.1129165081101746
 30
0.0
 40
0.0636819151784016
 50
100.0405808855071967
 51
140.328729984127591
  0
ARC
  5
1E086
  8
0
 10
4540.1845607742316133
 20
456.095359287995791
 30
0.0
 40
0.0819472914912455
 50
60.692268683519778
 51
101.640135612801302
  0
ARC
  5
1E087
  8
0
 10
4540.188975007929912
 20
456.107530316379723
 30
0.0
 40
0.0692054748715547
 50
20.429484676683991
 51
58.9463591875842212
  0
ARC
  5
1E088
  8
0
 10
4540.1500855899639646
 20
456.1422006120112087
 30
0.0
 40
0.1042734459061551
 50
344.924144657648128
 51
354.2130692463153991
  0
ARC
  5
1E089
  8
0
 10
4540.1613066160116432
 20
456.1287030321539078
 30
0.0
 40
0.039893680271318
 50
141.4404055309271087
 51
187.9016422865462062
  0
ARC
  5
1E08A
  8
0
 10
4540.1874197880597421
 20
456.1488205662453197
 30
0.0
 40
0.0749434054705893
 50
243.6658588920807915
 51
281.6479708350951796
  0
ARC
  5
1E08B
  8
0
 10
4540.1744696231116905
 20
456.1320398559552132
 30
0.0
 40
0.0534113777044157
 50
189.5062052637129
 51
218.5275692905129858
  0
ARC
  5
1E08C
  8
0
 10
4540.1821111097788162
 20
456.138777138120588
 30
0.0
 40
0.0635880230355003
 50
218.9878460079447109
 51
243.9383703466664883
  0
ARC
  5
1E08D
  8
0
 10
4540.1837634036846794
 20
456.1446206318489089
 30
0.0
 40
0.0732297553169024
 50
308.4444537526766794
 51
336.2087452613154142
  0
ARC
  5
1E08E
  8
0
 10
4540.1893892405159932
 20
456.1412466368806236
 30
0.0
 40
0.0671290110594136
 50
281.3067893527671117
 51
306.4737897945444729
  0
ARC
  5
1E08F
  8
0
 10
4540.1766361080899514
 20
456.1597259293677098
 30
0.0
 40
0.059639013839682
 50
162.5849750971750041
 51
188.6632335253154054
  0
ARC
  5
1E090
  8
0
 10
4540.2126249120829016
 20
456.1503624622948223
 30
0.0
 40
0.0435820596022435
 50
348.319997901351087
 51
29.7929074781546817
  0
ARC
  5
1E091
  8
0
 10
4540.1604358159065669
 20
456.1631665938245987
 30
0.0
 40
0.0431799462933523
 50
117.1981808017430069
 51
160.5070460390599862
  0
ARC
  5
1E092
  8
0
 10
4540.1770195312392389
 20
456.1325646294043281
 30
0.0
 40
0.0779819234275243
 50
84.3752083385197835
 51
117.7586711267344981
  0
ARC
  5
1E093
  8
0
 10
4540.1800283602806303
 20
456.1263926463442999
 30
0.0
 40
0.0839065164153885
 50
32.9393776914934122
 51
86.8337399902481337
  0
LINE
  5
1E094
  8
0
 10
4540.1176775308622382
 20
456.1507427148488887
 30
0.0
 11
4540.1217917053618294
 21
456.1232187307488743
 31
0.0
  0
LINE
  5
1E095
  8
0
 10
4540.2553045410595587
 20
456.1415394702019057
 30
0.0
 11
4540.2523507202513429
 21
456.1218341040025734
 31
0.0
  0
ARC
  5
1E096
  8
0
 10
4540.5628511624627208
 20
455.9435877753483055
 30
0.0
 40
0.0183488800954237
 50
83.2604377277543932
 51
159.4902283223840982
  0
ARC
  5
1E097
  8
0
 10
4540.5650557474482412
 20
455.9407598896896729
 30
0.0
 40
0.021050034615198
 50
27.8614140404665811
 51
90.1394284469116798
  0
ARC
  5
1E098
  8
0
 10
4540.5584734992471567
 20
455.946718587510702
 30
0.0
 40
0.013225925883269
 50
165.5602880264486032
 51
230.7664450275212005
  0
ARC
  5
1E099
  8
0
 10
4540.5651456735213287
 20
455.9539099304722072
 30
0.0
 40
0.0230245325582532
 50
229.2241767290819041
 51
273.2916143882728761
  0
ARC
  5
1E09A
  8
0
 10
4540.5664490433719038
 20
455.9510011886957841
 30
0.0
 40
0.020077814279551
 50
270.0532233792778811
 51
318.1826404330525975
  0
ARC
  5
1E09B
  8
0
 10
4540.5719111511316441
 20
455.9459501408883284
 30
0.0
 40
0.0126398129162412
 50
318.7379775787114795
 51
21.571391758270309
  0
ARC
  5
1E09C
  8
0
 10
4540.5577463494919357
 20
455.9447233788239942
 30
0.0
 40
0.0636819151784016
 50
100.0405808855071967
 51
140.328729984127591
  0
ARC
  5
1E09D
  8
0
 10
4540.5631785513569412
 20
455.9271661587097242
 30
0.0
 40
0.0819472914912455
 50
60.692268683519778
 51
101.640135612801302
  0
ARC
  5
1E09E
  8
0
 10
4540.5675927850552398
 20
455.9393371870935994
 30
0.0
 40
0.0692054748715547
 50
20.429484676683991
 51
58.9463591875842212
  0
ARC
  5
1E09F
  8
0
 10
4540.5287033670892924
 20
455.9740074827250851
 30
0.0
 40
0.1042734459061551
 50
344.924144657648128
 51
354.2130692463153991
  0
ARC
  5
1E0A0
  8
0
 10
4540.539924393136971
 20
455.9605099028677273
 30
0.0
 40
0.039893680271318
 50
141.4404055309271087
 51
187.9016422865462062
  0
ARC
  5
1E0A1
  8
0
 10
4540.5660375651841605
 20
455.9806274369591961
 30
0.0
 40
0.0749434054705893
 50
243.6658588920807915
 51
281.6479708350951796
  0
ARC
  5
1E0A2
  8
0
 10
4540.5530874002361088
 20
455.9638467266689759
 30
0.0
 40
0.0534113777044157
 50
189.5062052637129
 51
218.5275692905129858
  0
ARC
  5
1E0A3
  8
0
 10
4540.560728886904144
 20
455.9705840088345212
 30
0.0
 40
0.0635880230355003
 50
218.9878460079447109
 51
243.9383703466664883
  0
ARC
  5
1E0A4
  8
0
 10
4540.5623811808100072
 20
455.9764275025626716
 30
0.0
 40
0.0732297553169024
 50
308.4444537526766794
 51
336.2087452613154142
  0
ARC
  5
1E0A5
  8
0
 10
4540.5680070176404115
 20
455.9730535075944999
 30
0.0
 40
0.0671290110594136
 50
281.3067893527671117
 51
306.4737897945444729
  0
ARC
  5
1E0A6
  8
0
 10
4540.5552538852143698
 20
455.9915328000815862
 30
0.0
 40
0.059639013839682
 50
162.5849750971750041
 51
188.6632335253154054
  0
ARC
  5
1E0A7
  8
0
 10
4540.5912426892073199
 20
455.982169333008585
 30
0.0
 40
0.0435820596022435
 50
348.319997901351087
 51
29.7929074781546817
  0
ARC
  5
1E0A8
  8
0
 10
4540.5390535930309852
 20
455.9949734645384183
 30
0.0
 40
0.0431799462933523
 50
117.1981808017430069
 51
160.5070460390599862
  0
ARC
  5
1E0A9
  8
0
 10
4540.5556373083627477
 20
455.9643715001180908
 30
0.0
 40
0.0779819234275243
 50
84.3752083385197835
 51
117.7586711267344981
  0
ARC
  5
1E0AA
  8
0
 10
4540.5586461374041392
 20
455.9581995170581195
 30
0.0
 40
0.0839065164153885
 50
32.9393776914934122
 51
86.8337399902481337
  0
LINE
  5
1E0AB
  8
0
 10
4540.4962953079866566
 20
455.9825495855628219
 30
0.0
 11
4540.5004094824871572
 21
455.9550256014626939
 31
0.0
  0
LINE
  5
1E0AC
  8
0
 10
4540.6339223181848865
 20
455.9733463409157252
 30
0.0
 11
4540.6309684973748517
 21
455.9536409747165067
 31
0.0
  0
ARC
  5
1E0AD
  8
0
 10
4540.8936677816700467
 20
456.0260122076388143
 30
0.0
 40
0.0183488800954237
 50
83.2604377277543932
 51
159.4902283223840982
  0
ARC
  5
1E0AE
  8
0
 10
4540.8958723666528385
 20
456.0231843219801817
 30
0.0
 40
0.021050034615198
 50
27.8614140404665811
 51
90.1394284469116798
  0
ARC
  5
1E0AF
  8
0
 10
4540.8892901184517541
 20
456.0291430198012108
 30
0.0
 40
0.013225925883269
 50
165.5602880264486032
 51
230.7664450275212005
  0
ARC
  5
1E0B0
  8
0
 10
4540.8959622927268356
 20
456.036334362762716
 30
0.0
 40
0.0230245325582532
 50
229.2241767290819041
 51
273.2916143882728761
  0
ARC
  5
1E0B1
  8
0
 10
4540.8972656625783202
 20
456.0334256209862929
 30
0.0
 40
0.020077814279551
 50
270.0532233792778811
 51
318.1826404330525975
  0
ARC
  5
1E0B2
  8
0
 10
4540.9027277703380605
 20
456.0283745731787235
 30
0.0
 40
0.0126398129162412
 50
318.7379775787114795
 51
21.571391758270309
  0
ARC
  5
1E0B3
  8
0
 10
4540.8885629686992615
 20
456.0271478111145029
 30
0.0
 40
0.0636819151784016
 50
100.0405808855071967
 51
140.328729984127591
  0
ARC
  5
1E0B4
  8
0
 10
4540.893995170562448
 20
456.0095905910001193
 30
0.0
 40
0.0819472914912455
 50
60.692268683519778
 51
101.640135612801302
  0
ARC
  5
1E0B5
  8
0
 10
4540.8984094042607467
 20
456.0217616193839945
 30
0.0
 40
0.0692054748715547
 50
20.429484676683991
 51
58.9463591875842212
  0
ARC
  5
1E0B6
  8
0
 10
4540.8595199862947993
 20
456.0564319150154802
 30
0.0
 40
0.1042734459061551
 50
344.924144657648128
 51
354.2130692463153991
  0
ARC
  5
1E0B7
  8
0
 10
4540.8707410123433874
 20
456.0429343351581224
 30
0.0
 40
0.039893680271318
 50
141.4404055309271087
 51
187.9016422865462062
  0
ARC
  5
1E0B8
  8
0
 10
4540.8968541843896674
 20
456.0630518692497049
 30
0.0
 40
0.0749434054705893
 50
243.6658588920807915
 51
281.6479708350951796
  0
ARC
  5
1E0B9
  8
0
 10
4540.8839040194407062
 20
456.0462711589594846
 30
0.0
 40
0.0534113777044157
 50
189.5062052637129
 51
218.5275692905129858
  0
ARC
  5
1E0BA
  8
0
 10
4540.8915455061096509
 20
456.0530084411249163
 30
0.0
 40
0.0635880230355003
 50
218.9878460079447109
 51
243.9383703466664883
  0
ARC
  5
1E0BB
  8
0
 10
4540.8931978000146046
 20
456.0588519348531804
 30
0.0
 40
0.0732297553169024
 50
308.4444537526766794
 51
336.2087452613154142
  0
ARC
  5
1E0BC
  8
0
 10
4540.8988236368459184
 20
456.055477939884895
 30
0.0
 40
0.0671290110594136
 50
281.3067893527671117
 51
306.4737897945444729
  0
ARC
  5
1E0BD
  8
0
 10
4540.8860705044189672
 20
456.0739572323719813
 30
0.0
 40
0.059639013839682
 50
162.5849750971750041
 51
188.6632335253154054
  0
ARC
  5
1E0BE
  8
0
 10
4540.9220593084128268
 20
456.0645937652989801
 30
0.0
 40
0.0435820596022435
 50
348.319997901351087
 51
29.7929074781546817
  0
ARC
  5
1E0BF
  8
0
 10
4540.8698702122355826
 20
456.0773978968289271
 30
0.0
 40
0.0431799462933523
 50
117.1981808017430069
 51
160.5070460390599862
  0
ARC
  5
1E0C0
  8
0
 10
4540.8864539275700736
 20
456.0467959324084859
 30
0.0
 40
0.0779819234275243
 50
84.3752083385197835
 51
117.7586711267344981
  0
ARC
  5
1E0C1
  8
0
 10
4540.889462756609646
 20
456.0406239493485145
 30
0.0
 40
0.0839065164153885
 50
32.9393776914934122
 51
86.8337399902481337
  0
LINE
  5
1E0C2
  8
0
 10
4540.8271119271930729
 20
456.064974017853217
 30
0.0
 11
4540.8312261016917546
 21
456.0374500337532027
 31
0.0
  0
LINE
  5
1E0C3
  8
0
 10
4540.9647389373913029
 20
456.0557707732061772
 30
0.0
 11
4540.9617851165812681
 21
456.0360654070069018
 31
0.0
  0
ARC
  5
1E0C4
  8
0
 10
4541.5381403270102965
 20
457.8481766346646964
 30
0.0
 40
0.0183488800954237
 50
20.5097716776159089
 51
96.7395622722456068
  0
ARC
  5
1E0C5
  8
0
 10
4541.5359357420247761
 20
457.8453487490061775
 30
0.0
 40
0.021050034615198
 50
89.8605715530883344
 51
152.1385859595334011
  0
ARC
  5
1E0C6
  8
0
 10
4541.5425179902276795
 20
457.8513074468272066
 30
0.0
 40
0.013225925883269
 50
309.2335549724788279
 51
14.4397119735513808
  0
ARC
  5
1E0C7
  8
0
 10
4541.5358458159516886
 20
457.8584987897885981
 30
0.0
 40
0.0230245325582532
 50
266.7083856117271239
 51
310.7758232709181243
  0
ARC
  5
1E0C8
  8
0
 10
4541.534542446102023
 20
457.855590048012175
 30
0.0
 40
0.020077814279551
 50
221.8173595669474025
 51
269.9467766207221189
  0
ARC
  5
1E0C9
  8
0
 10
4541.5290803383413731
 20
457.8505390002047193
 30
0.0
 40
0.0126398129162412
 50
158.4286082417297052
 51
221.2620224212884921
  0
ARC
  5
1E0CA
  8
0
 10
4541.5432451399819911
 20
457.8493122381404987
 30
0.0
 40
0.0636819151784016
 50
39.6712700158723877
 51
79.9594191144928459
  0
ARC
  5
1E0CB
  8
0
 10
4541.5378129381178951
 20
457.8317550180261151
 30
0.0
 40
0.0819472914912455
 50
78.3598643871986553
 51
119.3077313164802007
  0
ARC
  5
1E0CC
  8
0
 10
4541.5225488573250914
 20
457.8574735884578786
 30
0.0
 40
0.0520538403412452
 50
118.5140067258426058
 51
159.2190193509985079
  0
ARC
  5
1E0CD
  8
0
 10
4541.5108018999071646
 20
457.8629626718374084
 30
0.0
 40
0.0391354701457199
 50
160.6307896405947133
 51
196.2742641117731068
  0
ARC
  5
1E0CE
  8
0
 10
4541.5610670963369557
 20
457.8650987621840045
 30
0.0
 40
0.039893680271318
 50
352.0983577134538223
 51
38.5595944690728771
  0
ARC
  5
1E0CF
  8
0
 10
4541.5349539242888568
 20
457.885216296275587
 30
0.0
 40
0.0749434054705893
 50
258.3520291649048204
 51
296.3341411079192085
  0
ARC
  5
1E0D0
  8
0
 10
4541.547904089237818
 20
457.8684355859854804
 30
0.0
 40
0.0534113777044157
 50
321.4724307094870142
 51
350.4937947362869863
  0
ARC
  5
1E0D1
  8
0
 10
4541.5402626025688733
 20
457.8751728681507984
 30
0.0
 40
0.0635880230355003
 50
296.0616296533335117
 51
321.0121539920554028
  0
ARC
  5
1E0D2
  8
0
 10
4541.523529854640401
 20
457.8661058929503724
 30
0.0
 40
0.0522371649301908
 50
195.6714856847004
 51
234.3431815742341939
  0
ARC
  5
1E0D3
  8
0
 10
4541.5329844718344248
 20
457.8776423669108908
 30
0.0
 40
0.0671290110594136
 50
233.5262102054554987
 51
258.693210647233002
  0
ARC
  5
1E0D4
  8
0
 10
4541.5457376042586475
 20
457.8961216593979771
 30
0.0
 40
0.059639013839682
 50
351.3367664746845094
 51
17.4150249028249213
  0
ARC
  5
1E0D5
  8
0
 10
4541.5308171467995635
 20
457.8870701676331123
 30
0.0
 40
0.062462543104048
 50
152.6439996625763058
 51
188.1438661338737006
  0
ARC
  5
1E0D6
  8
0
 10
4541.5471747975989274
 20
457.896350096058427
 30
0.0
 40
0.0581997164572345
 50
17.6239034660693896
 51
51.0749651507797608
  0
ARC
  5
1E0D7
  8
0
 10
4541.5422201049123032
 20
457.8893315597010201
 30
0.0
 40
0.0667752744001085
 50
51.5513297553593404
 51
94.5112163518937081
  0
ARC
  5
1E0D8
  8
0
 10
4541.5415120958787156
 20
457.8815325878215958
 30
0.0
 40
0.0745060772178573
 50
93.4966586576581875
 51
152.6410897446299941
  0
LINE
  5
1E0D9
  8
0
 10
4541.6046961814872702
 20
457.8871384448790991
 30
0.0
 11
4541.6005820069876791
 21
457.8596144607791985
 31
0.0
  0
LINE
  5
1E0DA
  8
0
 10
4541.4689845552884435
 20
457.8782214882791095
 30
0.0
 11
4541.4718909894563694
 21
457.8587762567323125
 31
0.0
  0
ARC
  5
1E0DB
  8
0
 10
4541.2775387202927959
 20
457.4304438343243078
 30
0.0
 40
0.0183488800954237
 50
20.5097716776159089
 51
96.7395622722456068
  0
ARC
  5
1E0DC
  8
0
 10
4541.2753341353081851
 20
457.4276159486656752
 30
0.0
 40
0.021050034615198
 50
89.8605715530883344
 51
152.1385859595334011
  0
ARC
  5
1E0DD
  8
0
 10
4541.281916383510179
 20
457.4335746464867043
 30
0.0
 40
0.013225925883269
 50
309.2335549724788279
 51
14.4397119735513808
  0
ARC
  5
1E0DE
  8
0
 10
4541.2752442092350975
 20
457.4407659894482094
 30
0.0
 40
0.0230245325582532
 50
266.7083856117271239
 51
310.7758232709181243
  0
ARC
  5
1E0DF
  8
0
 10
4541.2739408393836129
 20
457.4378572476716727
 30
0.0
 40
0.020077814279551
 50
221.8173595669474025
 51
269.9467766207221189
  0
ARC
  5
1E0E0
  8
0
 10
4541.2684787316229631
 20
457.4328061998642738
 30
0.0
 40
0.0126398129162412
 50
158.4286082417297052
 51
221.2620224212884921
  0
ARC
  5
1E0E1
  8
0
 10
4541.282643533263581
 20
457.4315794378001101
 30
0.0
 40
0.0636819151784016
 50
39.6712700158723877
 51
79.9594191144928459
  0
ARC
  5
1E0E2
  8
0
 10
4541.2772113314003946
 20
457.4140222176857264
 30
0.0
 40
0.0819472914912455
 50
78.3598643871986553
 51
119.3077313164802007
  0
ARC
  5
1E0E3
  8
0
 10
4541.2619472506057718
 20
457.43974078811749
 30
0.0
 40
0.0520538403412452
 50
118.5140067258426058
 51
159.2190193509985079
  0
ARC
  5
1E0E4
  8
0
 10
4541.2502002931887546
 20
457.4452298714970198
 30
0.0
 40
0.0391354701457199
 50
160.6307896405947133
 51
196.2742641117731068
  0
ARC
  5
1E0E5
  8
0
 10
4541.3004654896185457
 20
457.4473659618436159
 30
0.0
 40
0.039893680271318
 50
352.0983577134538223
 51
38.5595944690728771
  0
ARC
  5
1E0E6
  8
0
 10
4541.2743523175713563
 20
457.4674834959351983
 30
0.0
 40
0.0749434054705893
 50
258.3520291649048204
 51
296.3341411079192085
  0
ARC
  5
1E0E7
  8
0
 10
4541.2873024825203174
 20
457.4507027856449781
 30
0.0
 40
0.0534113777044157
 50
321.4724307094870142
 51
350.4937947362869863
  0
ARC
  5
1E0E8
  8
0
 10
4541.2796609958513727
 20
457.4574400678105235
 30
0.0
 40
0.0635880230355003
 50
296.0616296533335117
 51
321.0121539920554028
  0
ARC
  5
1E0E9
  8
0
 10
4541.2629282479229005
 20
457.448373092609927
 30
0.0
 40
0.0522371649301908
 50
195.6714856847004
 51
234.3431815742341939
  0
ARC
  5
1E0EA
  8
0
 10
4541.2723828651151052
 20
457.4599095665703885
 30
0.0
 40
0.0671290110594136
 50
233.5262102054554987
 51
258.693210647233002
  0
ARC
  5
1E0EB
  8
0
 10
4541.2851359975420564
 20
457.4783888590575884
 30
0.0
 40
0.059639013839682
 50
351.3367664746845094
 51
17.4150249028249213
  0
ARC
  5
1E0EC
  8
0
 10
4541.2702155400829724
 20
457.4693373672927237
 30
0.0
 40
0.062462543104048
 50
152.6439996625763058
 51
188.1438661338737006
  0
ARC
  5
1E0ED
  8
0
 10
4541.2865731908814269
 20
457.4786172957179247
 30
0.0
 40
0.0581997164572345
 50
17.6239034660693896
 51
51.0749651507797608
  0
ARC
  5
1E0EE
  8
0
 10
4541.2816184981948027
 20
457.4715987593606883
 30
0.0
 40
0.0667752744001085
 50
51.5513297553593404
 51
94.5112163518937081
  0
ARC
  5
1E0EF
  8
0
 10
4541.2809104891612151
 20
457.4637997874812072
 30
0.0
 40
0.0745060772178573
 50
93.4966586576581875
 51
152.6410897446299941
  0
LINE
  5
1E0F0
  8
0
 10
4541.3440945747697697
 20
457.4694056445387105
 30
0.0
 11
4541.339980400269269
 21
457.4418816604386961
 31
0.0
  0
LINE
  5
1E0F1
  8
0
 10
4541.208382948569124
 20
457.4604886879387209
 30
0.0
 11
4541.2112893827388689
 21
457.4410434563919239
 31
0.0
  0
ARC
  5
1E0F2
  8
0
 10
4541.9189648838701032
 20
457.6256291191663763
 30
0.0
 40
0.0183488800954237
 50
20.5097716776159089
 51
96.7395622722456068
  0
ARC
  5
1E0F3
  8
0
 10
4541.9167602988864019
 20
457.6228012335078006
 30
0.0
 40
0.021050034615198
 50
89.8605715530883344
 51
152.1385859595334011
  0
ARC
  5
1E0F4
  8
0
 10
4541.9233425470883958
 20
457.6287599313287728
 30
0.0
 40
0.013225925883269
 50
309.2335549724788279
 51
14.4397119735513808
  0
ARC
  5
1E0F5
  8
0
 10
4541.9166703728124048
 20
457.635951274290278
 30
0.0
 40
0.0230245325582532
 50
266.7083856117271239
 51
310.7758232709181243
  0
ARC
  5
1E0F6
  8
0
 10
4541.9153670029627392
 20
457.6330425325137981
 30
0.0
 40
0.020077814279551
 50
221.8173595669474025
 51
269.9467766207221189
  0
ARC
  5
1E0F7
  8
0
 10
4541.9099048952011799
 20
457.6279914847063992
 30
0.0
 40
0.0126398129162412
 50
158.4286082417297052
 51
221.2620224212884921
  0
ARC
  5
1E0F8
  8
0
 10
4541.9240696968417978
 20
457.6267647226421218
 30
0.0
 40
0.0636819151784016
 50
39.6712700158723877
 51
79.9594191144928459
  0
ARC
  5
1E0F9
  8
0
 10
4541.9186374949777019
 20
457.609207502527795
 30
0.0
 40
0.0819472914912455
 50
78.3598643871986553
 51
119.3077313164802007
  0
ARC
  5
1E0FA
  8
0
 10
4541.9033734141848981
 20
457.6349260729596153
 30
0.0
 40
0.0520538403412452
 50
118.5140067258426058
 51
159.2190193509985079
  0
ARC
  5
1E0FB
  8
0
 10
4541.8916264567669714
 20
457.6404151563390883
 30
0.0
 40
0.0391354701457199
 50
160.6307896405947133
 51
196.2742641117731068
  0
ARC
  5
1E0FC
  8
0
 10
4541.9418916531967625
 20
457.6425512466856844
 30
0.0
 40
0.039893680271318
 50
352.0983577134538223
 51
38.5595944690728771
  0
ARC
  5
1E0FD
  8
0
 10
4541.9157784811495731
 20
457.66266878077721
 30
0.0
 40
0.0749434054705893
 50
258.3520291649048204
 51
296.3341411079192085
  0
ARC
  5
1E0FE
  8
0
 10
4541.9287286460976247
 20
457.6458880704871035
 30
0.0
 40
0.0534113777044157
 50
321.4724307094870142
 51
350.4937947362869863
  0
ARC
  5
1E0FF
  8
0
 10
4541.92108715942868
 20
457.6526253526524783
 30
0.0
 40
0.0635880230355003
 50
296.0616296533335117
 51
321.0121539920554028
  0
ARC
  5
1E100
  8
0
 10
4541.9043544115011173
 20
457.6435583774519955
 30
0.0
 40
0.0522371649301908
 50
195.6714856847004
 51
234.3431815742341939
  0
ARC
  5
1E101
  8
0
 10
4541.9138090286942315
 20
457.6550948514125139
 30
0.0
 40
0.0671290110594136
 50
233.5262102054554987
 51
258.693210647233002
  0
ARC
  5
1E102
  8
0
 10
4541.9265621611202732
 20
457.6735741438997138
 30
0.0
 40
0.059639013839682
 50
351.3367664746845094
 51
17.4150249028249213
  0
ARC
  5
1E103
  8
0
 10
4541.9116417036611892
 20
457.6645226521347922
 30
0.0
 40
0.062462543104048
 50
152.6439996625763058
 51
188.1438661338737006
  0
ARC
  5
1E104
  8
0
 10
4541.9279993544587342
 20
457.6738025805599932
 30
0.0
 40
0.0581997164572345
 50
17.6239034660693896
 51
51.0749651507797608
  0
ARC
  5
1E105
  8
0
 10
4541.9230446617730195
 20
457.6667840442027
 30
0.0
 40
0.0667752744001085
 50
51.5513297553593404
 51
94.5112163518937081
  0
ARC
  5
1E106
  8
0
 10
4541.9223366527394319
 20
457.6589850723232189
 30
0.0
 40
0.0745060772178573
 50
93.4966586576581875
 51
152.6410897446299941
  0
LINE
  5
1E107
  8
0
 10
4541.985520738347077
 20
457.664590929380779
 30
0.0
 11
4541.9814065638483953
 21
457.6370669452808215
 31
0.0
  0
LINE
  5
1E108
  8
0
 10
4541.8498091121473408
 20
457.6556739727807894
 30
0.0
 11
4541.8527155463170857
 21
457.6362287412338787
 31
0.0
  0
ARC
  5
1E109
  8
0
 10
4541.56637905988282
 20
457.5957071087610757
 30
0.0
 40
0.0183488800954237
 50
20.5097716776159089
 51
96.7395622722456068
  0
ARC
  5
1E10A
  8
0
 10
4541.5641744748982092
 20
457.5928792231023863
 30
0.0
 40
0.021050034615198
 50
89.8605715530883344
 51
152.1385859595334011
  0
ARC
  5
1E10B
  8
0
 10
4541.5707567231011126
 20
457.5988379209234722
 30
0.0
 40
0.013225925883269
 50
309.2335549724788279
 51
14.4397119735513808
  0
ARC
  5
1E10C
  8
0
 10
4541.5640845488260311
 20
457.6060292638849774
 30
0.0
 40
0.0230245325582532
 50
266.7083856117271239
 51
310.7758232709181243
  0
ARC
  5
1E10D
  8
0
 10
4541.5627811789745465
 20
457.6031205221084974
 30
0.0
 40
0.020077814279551
 50
221.8173595669474025
 51
269.9467766207221189
  0
ARC
  5
1E10E
  8
0
 10
4541.5573190712148062
 20
457.5980694743010986
 30
0.0
 40
0.0126398129162412
 50
158.4286082417297052
 51
221.2620224212884921
  0
ARC
  5
1E10F
  8
0
 10
4541.5714838728554241
 20
457.5968427122368212
 30
0.0
 40
0.0636819151784016
 50
39.6712700158723877
 51
79.9594191144928459
  0
ARC
  5
1E110
  8
0
 10
4541.5660516709913281
 20
457.5792854921224944
 30
0.0
 40
0.0819472914912455
 50
78.3598643871986553
 51
119.3077313164802007
  0
ARC
  5
1E111
  8
0
 10
4541.5507875901994339
 20
457.6050040625543147
 30
0.0
 40
0.0520538403412452
 50
118.5140067258426058
 51
159.2190193509985079
  0
ARC
  5
1E112
  8
0
 10
4541.5390406327796882
 20
457.6104931459337877
 30
0.0
 40
0.0391354701457199
 50
160.6307896405947133
 51
196.2742641117731068
  0
ARC
  5
1E113
  8
0
 10
4541.5893058292103888
 20
457.6126292362803838
 30
0.0
 40
0.039893680271318
 50
352.0983577134538223
 51
38.5595944690728771
  0
ARC
  5
1E114
  8
0
 10
4541.5631926571622898
 20
457.6327467703719094
 30
0.0
 40
0.0749434054705893
 50
258.3520291649048204
 51
296.3341411079192085
  0
ARC
  5
1E115
  8
0
 10
4541.5761428221121605
 20
457.6159660600818029
 30
0.0
 40
0.0534113777044157
 50
321.4724307094870142
 51
350.4937947362869863
  0
ARC
  5
1E116
  8
0
 10
4541.5685013354432158
 20
457.6227033422471777
 30
0.0
 40
0.0635880230355003
 50
296.0616296533335117
 51
321.0121539920554028
  0
ARC
  5
1E117
  8
0
 10
4541.5517685875129246
 20
457.6136363670466949
 30
0.0
 40
0.0522371649301908
 50
195.6714856847004
 51
234.3431815742341939
  0
ARC
  5
1E118
  8
0
 10
4541.5612232047078578
 20
457.6251728410070996
 30
0.0
 40
0.0671290110594136
 50
233.5262102054554987
 51
258.693210647233002
  0
ARC
  5
1E119
  8
0
 10
4541.5739763371320805
 20
457.6436521334944132
 30
0.0
 40
0.059639013839682
 50
351.3367664746845094
 51
17.4150249028249213
  0
ARC
  5
1E11A
  8
0
 10
4541.5590558796729965
 20
457.6346006417294916
 30
0.0
 40
0.062462543104048
 50
152.6439996625763058
 51
188.1438661338737006
  0
ARC
  5
1E11B
  8
0
 10
4541.5754135304723604
 20
457.6438805701546926
 30
0.0
 40
0.0581997164572345
 50
17.6239034660693896
 51
51.0749651507797608
  0
ARC
  5
1E11C
  8
0
 10
4541.5704588377848268
 20
457.6368620337973994
 30
0.0
 40
0.0667752744001085
 50
51.5513297553593404
 51
94.5112163518937081
  0
ARC
  5
1E11D
  8
0
 10
4541.5697508287521487
 20
457.6290630619179751
 30
0.0
 40
0.0745060772178573
 50
93.4966586576581875
 51
152.6410897446299941
  0
LINE
  5
1E11E
  8
0
 10
4541.6329349143597938
 20
457.6346689189754784
 30
0.0
 11
4541.6288207398620216
 21
457.6071449348755209
 31
0.0
  0
LINE
  5
1E11F
  8
0
 10
4541.4972232881600576
 20
457.6257519623754888
 30
0.0
 11
4541.500129722328893
 21
457.6063067308286918
 31
0.0
  0
ARC
  5
1E120
  8
0
 10
4541.2115803962960854
 20
457.6421711192589896
 30
0.0
 40
0.0183488800954237
 50
20.5097716776159089
 51
96.7395622722456068
  0
ARC
  5
1E121
  8
0
 10
4541.209375811312384
 20
457.6393432336003002
 30
0.0
 40
0.021050034615198
 50
89.8605715530883344
 51
152.1385859595334011
  0
ARC
  5
1E122
  8
0
 10
4541.2159580595116495
 20
457.6453019314213861
 30
0.0
 40
0.013225925883269
 50
309.2335549724788279
 51
14.4397119735513808
  0
ARC
  5
1E123
  8
0
 10
4541.209285885238387
 20
457.6524932743827776
 30
0.0
 40
0.0230245325582532
 50
266.7083856117271239
 51
310.7758232709181243
  0
ARC
  5
1E124
  8
0
 10
4541.2079825153878119
 20
457.6495845326062977
 30
0.0
 40
0.020077814279551
 50
221.8173595669474025
 51
269.9467766207221189
  0
ARC
  5
1E125
  8
0
 10
4541.2025204076271621
 20
457.6445334847988988
 30
0.0
 40
0.0126398129162412
 50
158.4286082417297052
 51
221.2620224212884921
  0
ARC
  5
1E126
  8
0
 10
4541.216685209265961
 20
457.6433067227346214
 30
0.0
 40
0.0636819151784016
 50
39.6712700158723877
 51
79.9594191144928459
  0
ARC
  5
1E127
  8
0
 10
4541.2112530074027745
 20
457.6257495026204083
 30
0.0
 40
0.0819472914912455
 50
78.3598643871986553
 51
119.3077313164802007
  0
ARC
  5
1E128
  8
0
 10
4541.1959889266099708
 20
457.6514680730521718
 30
0.0
 40
0.0520538403412452
 50
118.5140067258426058
 51
159.2190193509985079
  0
ARC
  5
1E129
  8
0
 10
4541.1842419691929535
 20
457.6569571564315879
 30
0.0
 40
0.0391354701457199
 50
160.6307896405947133
 51
196.2742641117731068
  0
ARC
  5
1E12A
  8
0
 10
4541.2345071656218352
 20
457.6590932467782977
 30
0.0
 40
0.039893680271318
 50
352.0983577134538223
 51
38.5595944690728771
  0
ARC
  5
1E12B
  8
0
 10
4541.2083939935737362
 20
457.6792107808698233
 30
0.0
 40
0.0749434054705893
 50
258.3520291649048204
 51
296.3341411079192085
  0
ARC
  5
1E12C
  8
0
 10
4541.2213441585236069
 20
457.6624300705796031
 30
0.0
 40
0.0534113777044157
 50
321.4724307094870142
 51
350.4937947362869863
  0
ARC
  5
1E12D
  8
0
 10
4541.2137026718537527
 20
457.669167352744978
 30
0.0
 40
0.0635880230355003
 50
296.0616296533335117
 51
321.0121539920554028
  0
ARC
  5
1E12E
  8
0
 10
4541.1969699239252805
 20
457.6601003775444951
 30
0.0
 40
0.0522371649301908
 50
195.6714856847004
 51
234.3431815742341939
  0
ARC
  5
1E12F
  8
0
 10
4541.2064245411193042
 20
457.6716368515050135
 30
0.0
 40
0.0671290110594136
 50
233.5262102054554987
 51
258.693210647233002
  0
ARC
  5
1E130
  8
0
 10
4541.2191776735453459
 20
457.6901161439922134
 30
0.0
 40
0.059639013839682
 50
351.3367664746845094
 51
17.4150249028249213
  0
ARC
  5
1E131
  8
0
 10
4541.2042572160862619
 20
457.6810646522272918
 30
0.0
 40
0.062462543104048
 50
152.6439996625763058
 51
188.1438661338737006
  0
ARC
  5
1E132
  8
0
 10
4541.2206148668847163
 20
457.6903445806526065
 30
0.0
 40
0.0581997164572345
 50
17.6239034660693896
 51
51.0749651507797608
  0
ARC
  5
1E133
  8
0
 10
4541.2156601741980921
 20
457.6833260442953133
 30
0.0
 40
0.0667752744001085
 50
51.5513297553593404
 51
94.5112163518937081
  0
ARC
  5
1E134
  8
0
 10
4541.2149521651626856
 20
457.6755270724157754
 30
0.0
 40
0.0745060772178573
 50
93.4966586576581875
 51
152.6410897446299941
  0
LINE
  5
1E135
  8
0
 10
4541.2781362507721497
 20
457.6811329294732786
 30
0.0
 11
4541.274022076271649
 21
457.653608945373378
 31
0.0
  0
LINE
  5
1E136
  8
0
 10
4541.1424246245724134
 20
457.6722159728734027
 30
0.0
 11
4541.1453310587421583
 21
457.652770741326492
 31
0.0
  0
ARC
  5
1E137
  8
0
 10
4541.5231774776475504
 20
457.1278436532206229
 30
0.0
 40
0.0183488800954237
 50
20.5097716776159089
 51
96.7395622722456068
  0
ARC
  5
1E138
  8
0
 10
4541.5209728926638491
 20
457.1250157675619903
 30
0.0
 40
0.021050034615198
 50
89.8605715530883344
 51
152.1385859595334011
  0
ARC
  5
1E139
  8
0
 10
4541.5275551408649335
 20
457.1309744653830194
 30
0.0
 40
0.013225925883269
 50
309.2335549724788279
 51
14.4397119735513808
  0
ARC
  5
1E13A
  8
0
 10
4541.520882966589852
 20
457.1381658083445245
 30
0.0
 40
0.0230245325582532
 50
266.7083856117271239
 51
310.7758232709181243
  0
ARC
  5
1E13B
  8
0
 10
4541.5195795967401864
 20
457.1352570665681014
 30
0.0
 40
0.020077814279551
 50
221.8173595669474025
 51
269.9467766207221189
  0
ARC
  5
1E13C
  8
0
 10
4541.5141174889786271
 20
457.1302060187605889
 30
0.0
 40
0.0126398129162412
 50
158.4286082417297052
 51
221.2620224212884921
  0
ARC
  5
1E13D
  8
0
 10
4541.528282290619245
 20
457.1289792566963115
 30
0.0
 40
0.0636819151784016
 50
39.6712700158723877
 51
79.9594191144928459
  0
ARC
  5
1E13E
  8
0
 10
4541.522850088755149
 20
457.1114220365819847
 30
0.0
 40
0.0819472914912455
 50
78.3598643871986553
 51
119.3077313164802007
  0
ARC
  5
1E13F
  8
0
 10
4541.5075860079623453
 20
457.137140607013805
 30
0.0
 40
0.0520538403412452
 50
118.5140067258426058
 51
159.2190193509985079
  0
ARC
  5
1E140
  8
0
 10
4541.4958390505444186
 20
457.142629690393278
 30
0.0
 40
0.0391354701457199
 50
160.6307896405947133
 51
196.2742641117731068
  0
ARC
  5
1E141
  8
0
 10
4541.5461042469742097
 20
457.1447657807398741
 30
0.0
 40
0.039893680271318
 50
352.0983577134538223
 51
38.5595944690728771
  0
ARC
  5
1E142
  8
0
 10
4541.5199910749270202
 20
457.1648833148313997
 30
0.0
 40
0.0749434054705893
 50
258.3520291649048204
 51
296.3341411079192085
  0
ARC
  5
1E143
  8
0
 10
4541.5329412398759814
 20
457.1481026045412932
 30
0.0
 40
0.0534113777044157
 50
321.4724307094870142
 51
350.4937947362869863
  0
ARC
  5
1E144
  8
0
 10
4541.5252997532070367
 20
457.1548398867067249
 30
0.0
 40
0.0635880230355003
 50
296.0616296533335117
 51
321.0121539920554028
  0
ARC
  5
1E145
  8
0
 10
4541.5085670052767455
 20
457.1457729115061852
 30
0.0
 40
0.0522371649301908
 50
195.6714856847004
 51
234.3431815742341939
  0
ARC
  5
1E146
  8
0
 10
4541.5180216224707692
 20
457.1573093854667036
 30
0.0
 40
0.0671290110594136
 50
233.5262102054554987
 51
258.693210647233002
  0
ARC
  5
1E147
  8
0
 10
4541.5307747548977204
 20
457.1757886779539035
 30
0.0
 40
0.059639013839682
 50
351.3367664746845094
 51
17.4150249028249213
  0
ARC
  5
1E148
  8
0
 10
4541.5158542974368174
 20
457.1667371861889819
 30
0.0
 40
0.062462543104048
 50
152.6439996625763058
 51
188.1438661338737006
  0
ARC
  5
1E149
  8
0
 10
4541.5322119482361813
 20
457.1760171146141829
 30
0.0
 40
0.0581997164572345
 50
17.6239034660693896
 51
51.0749651507797608
  0
ARC
  5
1E14A
  8
0
 10
4541.5272572555513761
 20
457.1689985782568897
 30
0.0
 40
0.0667752744001085
 50
51.5513297553593404
 51
94.5112163518937081
  0
ARC
  5
1E14B
  8
0
 10
4541.5265492465150601
 20
457.1611996063774086
 30
0.0
 40
0.0745060772178573
 50
93.4966586576581875
 51
152.6410897446299941
  0
LINE
  5
1E14C
  8
0
 10
4541.5897333321236147
 20
457.1668054634350256
 30
0.0
 11
4541.585619157624933
 21
457.1392814793350112
 31
0.0
  0
LINE
  5
1E14D
  8
0
 10
4541.4540217059238785
 20
457.1578885068349791
 30
0.0
 11
4541.4569281400936234
 21
457.1384432752881821
 31
0.0
  0
ARC
  5
1E14E
  8
0
 10
4541.296306346676829
 20
456.9766780343870778
 30
0.0
 40
0.0183488800954237
 50
20.5097716776159089
 51
96.7395622722456068
  0
ARC
  5
1E14F
  8
0
 10
4541.2941017616931276
 20
456.9738501487285021
 30
0.0
 40
0.021050034615198
 50
89.8605715530883344
 51
152.1385859595334011
  0
ARC
  5
1E150
  8
0
 10
4541.3006840098942121
 20
456.9798088465494743
 30
0.0
 40
0.013225925883269
 50
309.2335549724788279
 51
14.4397119735513808
  0
ARC
  5
1E151
  8
0
 10
4541.2940118356200401
 20
456.9870001895109795
 30
0.0
 40
0.0230245325582532
 50
266.7083856117271239
 51
310.7758232709181243
  0
ARC
  5
1E152
  8
0
 10
4541.2927084657685555
 20
456.9840914477346132
 30
0.0
 40
0.020077814279551
 50
221.8173595669474025
 51
269.9467766207221189
  0
ARC
  5
1E153
  8
0
 10
4541.2872463580088152
 20
456.979040399926987
 30
0.0
 40
0.0126398129162412
 50
158.4286082417297052
 51
221.2620224212884921
  0
ARC
  5
1E154
  8
0
 10
4541.3014111596503426
 20
456.9778136378628233
 30
0.0
 40
0.0636819151784016
 50
39.6712700158723877
 51
79.9594191144928459
  0
ARC
  5
1E155
  8
0
 10
4541.2959789577844276
 20
456.9602564177483828
 30
0.0
 40
0.0819472914912455
 50
78.3598643871986553
 51
119.3077313164802007
  0
ARC
  5
1E156
  8
0
 10
4541.2807148769907144
 20
456.9859749881803168
 30
0.0
 40
0.0520538403412452
 50
118.5140067258426058
 51
159.2190193509985079
  0
ARC
  5
1E157
  8
0
 10
4541.2689679195736971
 20
456.9914640715596761
 30
0.0
 40
0.0391354701457199
 50
160.6307896405947133
 51
196.2742641117731068
  0
ARC
  5
1E158
  8
0
 10
4541.3229894395071824
 20
456.9933300219415173
 30
0.0
 40
0.0372124262374156
 50
354.1136741571353923
 51
42.4930030283255178
  0
ARC
  5
1E159
  8
0
 10
4541.2931199439562988
 20
457.0137176959979115
 30
0.0
 40
0.0749434054705893
 50
258.3520291649048204
 51
296.3341411079192085
  0
ARC
  5
1E15A
  8
0
 10
4541.3104285916879235
 20
456.9970424204561255
 30
0.0
 40
0.0501454589013152
 50
318.2745503088498822
 51
351.3650932171677255
  0
ARC
  5
1E15B
  8
0
 10
4541.2984286222363153
 20
457.0036742678731798
 30
0.0
 40
0.0635880230355003
 50
296.0616296533335117
 51
321.0121539920554028
  0
ARC
  5
1E15C
  8
0
 10
4541.281695874307843
 20
456.994607292672697
 30
0.0
 40
0.0522371649301908
 50
195.6714856847004
 51
234.3431815742341939
  0
ARC
  5
1E15D
  8
0
 10
4541.2911504915009573
 20
457.0061437666332154
 30
0.0
 40
0.0671290110594136
 50
233.5262102054554987
 51
258.693210647233002
  0
ARC
  5
1E15E
  8
0
 10
4541.3253161503407682
 20
457.026238533343701
 30
0.0
 40
0.0397372116848125
 50
351.1299268265198066
 51
24.5684655756455115
  0
ARC
  5
1E15F
  8
0
 10
4541.2644402025498493
 20
457.0208828171167283
 30
0.0
 40
0.0387825835369923
 50
142.9047412184092991
 51
187.7806811467715988
  0
ARC
  5
1E160
  8
0
 10
4541.3151902961162705
 20
457.0213412648307099
 30
0.0
 40
0.0509830930910215
 50
24.8424132501217017
 51
61.4429734385638966
  0
ARC
  5
1E161
  8
0
 10
4541.2995739392581527
 20
456.9945752901693936
 30
0.0
 40
0.0819630836418835
 50
60.7988095624159683
 51
92.8953279458824142
  0
ARC
  5
1E162
  8
0
 10
4541.2951454548647234
 20
457.0012835933476936
 30
0.0
 40
0.0751507063047371
 50
89.7801153743121745
 51
145.1060777525250103
  0
LINE
  5
1E163
  8
0
 10
4541.3645781264140169
 20
457.0201112805171988
 30
0.0
 11
4541.3600056565719569
 21
456.9895136963954769
 31
0.0
  0
LINE
  5
1E164
  8
0
 10
4541.2260146750832064
 20
457.0156323259657825
 30
0.0
 11
4541.2300570091238114
 21
456.9872776564546939
 31
0.0
  0
ARC
  5
1E165
  8
0
 10
4542.2357784195301065
 20
457.4645201955815992
 30
0.0
 40
0.0183488800954237
 50
20.5097716776159089
 51
96.7395622722456068
  0
ARC
  5
1E166
  8
0
 10
4542.2335738345445861
 20
457.4616923099230235
 30
0.0
 40
0.021050034615198
 50
89.8605715530883344
 51
152.1385859595334011
  0
ARC
  5
1E167
  8
0
 10
4542.2401560827465801
 20
457.4676510077439957
 30
0.0
 40
0.013225925883269
 50
309.2335549724788279
 51
14.4397119735513808
  0
ARC
  5
1E168
  8
0
 10
4542.2334839084724081
 20
457.4748423507055008
 30
0.0
 40
0.0230245325582532
 50
266.7083856117271239
 51
310.7758232709181243
  0
ARC
  5
1E169
  8
0
 10
4542.2321805386209235
 20
457.4719336089290778
 30
0.0
 40
0.020077814279551
 50
221.8173595669474025
 51
269.9467766207221189
  0
ARC
  5
1E16A
  8
0
 10
4542.2267184308620926
 20
457.4668825611216221
 30
0.0
 40
0.0126398129162412
 50
158.4286082417297052
 51
221.2620224212884921
  0
ARC
  5
1E16B
  8
0
 10
4542.2408832325008916
 20
457.4656557990572878
 30
0.0
 40
0.0636819151784016
 50
39.6712700158723877
 51
79.9594191144928459
  0
ARC
  5
1E16C
  8
0
 10
4542.2354510306367956
 20
457.4480985789429042
 30
0.0
 40
0.0819472914912455
 50
78.3598643871986553
 51
119.3077313164802007
  0
ARC
  5
1E16D
  8
0
 10
4542.2201869498449014
 20
457.4738171493747814
 30
0.0
 40
0.0520538403412452
 50
118.5140067258426058
 51
159.2190193509985079
  0
ARC
  5
1E16E
  8
0
 10
4542.2084399924269746
 20
457.4793062327541975
 30
0.0
 40
0.0391354701457199
 50
160.6307896405947133
 51
196.2742641117731068
  0
ARC
  5
1E16F
  8
0
 10
4542.2587051888558562
 20
457.481442323101021
 30
0.0
 40
0.039893680271318
 50
352.0983577134538223
 51
38.5595944690728771
  0
ARC
  5
1E170
  8
0
 10
4542.2325920168077573
 20
457.5015598571924897
 30
0.0
 40
0.0749434054705893
 50
258.3520291649048204
 51
296.3341411079192085
  0
ARC
  5
1E171
  8
0
 10
4542.2455421817567185
 20
457.4847791469023264
 30
0.0
 40
0.0534113777044157
 50
321.4724307094870142
 51
350.4937947362869863
  0
ARC
  5
1E172
  8
0
 10
4542.2379006950895928
 20
457.4915164290677012
 30
0.0
 40
0.0635880230355003
 50
296.0616296533335117
 51
321.0121539920554028
  0
ARC
  5
1E173
  8
0
 10
4542.221167947160211
 20
457.4824494538672184
 30
0.0
 40
0.0522371649301908
 50
195.6714856847004
 51
234.3431815742341939
  0
ARC
  5
1E174
  8
0
 10
4542.2306225643524158
 20
457.4939859278277936
 30
0.0
 40
0.0671290110594136
 50
233.5262102054554987
 51
258.693210647233002
  0
ARC
  5
1E175
  8
0
 10
4542.243375696779367
 20
457.5124652203148798
 30
0.0
 40
0.059639013839682
 50
351.3367664746845094
 51
17.4150249028249213
  0
ARC
  5
1E176
  8
0
 10
4542.228455239320283
 20
457.5034137285499014
 30
0.0
 40
0.062462543104048
 50
152.6439996625763058
 51
188.1438661338737006
  0
ARC
  5
1E177
  8
0
 10
4542.2448128901187374
 20
457.5126936569752161
 30
0.0
 40
0.0581997164572345
 50
17.6239034660693896
 51
51.0749651507797608
  0
ARC
  5
1E178
  8
0
 10
4542.2398581974321132
 20
457.5056751206179229
 30
0.0
 40
0.0667752744001085
 50
51.5513297553593404
 51
94.5112163518937081
  0
ARC
  5
1E179
  8
0
 10
4542.2391501883976161
 20
457.4978761487383849
 30
0.0
 40
0.0745060772178573
 50
93.4966586576581875
 51
152.6410897446299941
  0
LINE
  5
1E17A
  8
0
 10
4542.3023342740070802
 20
457.5034820057960019
 30
0.0
 11
4542.2982200995065796
 21
457.4759580216959876
 31
0.0
  0
LINE
  5
1E17B
  8
0
 10
4542.166622647807344
 20
457.494565049196126
 30
0.0
 11
4542.1695290819761794
 21
457.4751198176492721
 31
0.0
  0
ARC
  5
1E17C
  8
0
 10
4541.8524013612941417
 20
457.4221048583968923
 30
0.0
 40
0.0183488800954237
 50
20.5097716776159089
 51
96.7395622722456068
  0
ARC
  5
1E17D
  8
0
 10
4541.8501967763104403
 20
457.4192769727383165
 30
0.0
 40
0.021050034615198
 50
89.8605715530883344
 51
152.1385859595334011
  0
ARC
  5
1E17E
  8
0
 10
4541.8567790245106153
 20
457.4252356705592888
 30
0.0
 40
0.013225925883269
 50
309.2335549724788279
 51
14.4397119735513808
  0
ARC
  5
1E17F
  8
0
 10
4541.8501068502364433
 20
457.4324270135207939
 30
0.0
 40
0.0230245325582532
 50
266.7083856117271239
 51
310.7758232709181243
  0
ARC
  5
1E180
  8
0
 10
4541.8488034803858682
 20
457.4295182717444277
 30
0.0
 40
0.020077814279551
 50
221.8173595669474025
 51
269.9467766207221189
  0
ARC
  5
1E181
  8
0
 10
4541.8433413726261278
 20
457.4244672239369152
 30
0.0
 40
0.0126398129162412
 50
158.4286082417297052
 51
221.2620224212884921
  0
ARC
  5
1E182
  8
0
 10
4541.8575061742658363
 20
457.4232404618725809
 30
0.0
 40
0.0636819151784016
 50
39.6712700158723877
 51
79.9594191144928459
  0
ARC
  5
1E183
  8
0
 10
4541.8520739724008308
 20
457.4056832417583109
 30
0.0
 40
0.0819472914912455
 50
78.3598643871986553
 51
119.3077313164802007
  0
ARC
  5
1E184
  8
0
 10
4541.8368098916080271
 20
457.4314018121900745
 30
0.0
 40
0.0520538403412452
 50
118.5140067258426058
 51
159.2190193509985079
  0
ARC
  5
1E185
  8
0
 10
4541.8250629341910098
 20
457.4368908955696043
 30
0.0
 40
0.0391354701457199
 50
160.6307896405947133
 51
196.2742641117731068
  0
ARC
  5
1E186
  8
0
 10
4541.8753281306208009
 20
457.4390269859162004
 30
0.0
 40
0.039893680271318
 50
352.0983577134538223
 51
38.5595944690728771
  0
ARC
  5
1E187
  8
0
 10
4541.849214958572702
 20
457.459144520007726
 30
0.0
 40
0.0749434054705893
 50
258.3520291649048204
 51
296.3341411079192085
  0
ARC
  5
1E188
  8
0
 10
4541.8621651235216632
 20
457.4423638097176195
 30
0.0
 40
0.0534113777044157
 50
321.4724307094870142
 51
350.4937947362869863
  0
ARC
  5
1E189
  8
0
 10
4541.8545236368527185
 20
457.4491010918829943
 30
0.0
 40
0.0635880230355003
 50
296.0616296533335117
 51
321.0121539920554028
  0
ARC
  5
1E18A
  8
0
 10
4541.8377908889242462
 20
457.4400341166825115
 30
0.0
 40
0.0522371649301908
 50
195.6714856847004
 51
234.3431815742341939
  0
ARC
  5
1E18B
  8
0
 10
4541.84724550611827
 20
457.451570590642973
 30
0.0
 40
0.0671290110594136
 50
233.5262102054554987
 51
258.693210647233002
  0
ARC
  5
1E18C
  8
0
 10
4541.8599986385434022
 20
457.4700498831301161
 30
0.0
 40
0.059639013839682
 50
351.3367664746845094
 51
17.4150249028249213
  0
ARC
  5
1E18D
  8
0
 10
4541.8450781810852277
 20
457.4609983913653082
 30
0.0
 40
0.062462543104048
 50
152.6439996625763058
 51
188.1438661338737006
  0
ARC
  5
1E18E
  8
0
 10
4541.8614358318836821
 20
457.4702783197905092
 30
0.0
 40
0.0581997164572345
 50
17.6239034660693896
 51
51.0749651507797608
  0
ARC
  5
1E18F
  8
0
 10
4541.8564811391961484
 20
457.4632597834332159
 30
0.0
 40
0.0667752744001085
 50
51.5513297553593404
 51
94.5112163518937081
  0
ARC
  5
1E190
  8
0
 10
4541.8557731301616514
 20
457.4554608115537917
 30
0.0
 40
0.0745060772178573
 50
93.4966586576581875
 51
152.6410897446299941
  0
LINE
  5
1E191
  8
0
 10
4541.9189572157711154
 20
457.461066668611295
 30
0.0
 11
4541.9148430412706148
 21
457.4335426845112806
 31
0.0
  0
LINE
  5
1E192
  8
0
 10
4541.7832455895713792
 20
457.4521497120113054
 30
0.0
 11
4541.7861520237402146
 21
457.4327044804645084
 31
0.0
  0
ARC
  5
1E193
  8
0
 10
4542.3820599258642687
 20
457.121088539206994
 30
0.0
 40
0.0183488800954237
 50
20.5097716776159089
 51
96.7395622722456068
  0
ARC
  5
1E194
  8
0
 10
4542.3798553408787484
 20
457.1182606535484183
 30
0.0
 40
0.021050034615198
 50
89.8605715530883344
 51
152.1385859595334011
  0
ARC
  5
1E195
  8
0
 10
4542.3864375890807423
 20
457.1242193513693906
 30
0.0
 40
0.013225925883269
 50
309.2335549724788279
 51
14.4397119735513808
  0
ARC
  5
1E196
  8
0
 10
4542.3797654148056608
 20
457.1314106943308957
 30
0.0
 40
0.0230245325582532
 50
266.7083856117271239
 51
310.7758232709181243
  0
ARC
  5
1E197
  8
0
 10
4542.3784620449559952
 20
457.1285019525544726
 30
0.0
 40
0.020077814279551
 50
221.8173595669474025
 51
269.9467766207221189
  0
ARC
  5
1E198
  8
0
 10
4542.3729999371962549
 20
457.1234509047470169
 30
0.0
 40
0.0126398129162412
 50
158.4286082417297052
 51
221.2620224212884921
  0
ARC
  5
1E199
  8
0
 10
4542.3871647388359634
 20
457.1222241426826827
 30
0.0
 40
0.0636819151784016
 50
39.6712700158723877
 51
79.9594191144928459
  0
ARC
  5
1E19A
  8
0
 10
4542.3817325369718674
 20
457.1046669225684127
 30
0.0
 40
0.0819472914912455
 50
78.3598643871986553
 51
119.3077313164802007
  0
ARC
  5
1E19B
  8
0
 10
4542.3664684561790637
 20
457.1303854930001762
 30
0.0
 40
0.0520538403412452
 50
118.5140067258426058
 51
159.2190193509985079
  0
ARC
  5
1E19C
  8
0
 10
4542.3547214987611369
 20
457.135874576379706
 30
0.0
 40
0.0391354701457199
 50
160.6307896405947133
 51
196.2742641117731068
  0
ARC
  5
1E19D
  8
0
 10
4542.404986695190928
 20
457.1380106667263021
 30
0.0
 40
0.039893680271318
 50
352.0983577134538223
 51
38.5595944690728771
  0
ARC
  5
1E19E
  8
0
 10
4542.3788735231428291
 20
457.1581282008178277
 30
0.0
 40
0.0749434054705893
 50
258.3520291649048204
 51
296.3341411079192085
  0
ARC
  5
1E19F
  8
0
 10
4542.3918236880926997
 20
457.1413474905277212
 30
0.0
 40
0.0534113777044157
 50
321.4724307094870142
 51
350.4937947362869863
  0
ARC
  5
1E1A0
  8
0
 10
4542.3841822014228455
 20
457.1480847726930961
 30
0.0
 40
0.0635880230355003
 50
296.0616296533335117
 51
321.0121539920554028
  0
ARC
  5
1E1A1
  8
0
 10
4542.3674494534943733
 20
457.1390177974926132
 30
0.0
 40
0.0522371649301908
 50
195.6714856847004
 51
234.3431815742341939
  0
ARC
  5
1E1A2
  8
0
 10
4542.376904070688397
 20
457.1505542714530748
 30
0.0
 40
0.0671290110594136
 50
233.5262102054554987
 51
258.693210647233002
  0
ARC
  5
1E1A3
  8
0
 10
4542.3896572031153482
 20
457.1690335639402747
 30
0.0
 40
0.059639013839682
 50
351.3367664746845094
 51
17.4150249028249213
  0
ARC
  5
1E1A4
  8
0
 10
4542.3747367456544453
 20
457.1599820721754099
 30
0.0
 40
0.062462543104048
 50
152.6439996625763058
 51
188.1438661338737006
  0
ARC
  5
1E1A5
  8
0
 10
4542.3910943964528997
 20
457.1692620006007246
 30
0.0
 40
0.0581997164572345
 50
17.6239034660693896
 51
51.0749651507797608
  0
ARC
  5
1E1A6
  8
0
 10
4542.3861397037662755
 20
457.1622434642433177
 30
0.0
 40
0.0667752744001085
 50
51.5513297553593404
 51
94.5112163518937081
  0
ARC
  5
1E1A7
  8
0
 10
4542.3854316947317784
 20
457.1544444923637798
 30
0.0
 40
0.0745060772178573
 50
93.4966586576581875
 51
152.6410897446299941
  0
LINE
  5
1E1A8
  8
0
 10
4542.4486157803412425
 20
457.1600503494213967
 30
0.0
 11
4542.4445016058407418
 21
457.1325263653213824
 31
0.0
  0
LINE
  5
1E1A9
  8
0
 10
4542.3129041541405968
 20
457.1511333928214071
 30
0.0
 11
4542.3158105883103417
 21
457.1316881612744965
 31
0.0
  0
ARC
  5
1E1AA
  8
0
 10
4541.5611277364141642
 20
457.3563497251706735
 30
0.0
 40
0.0183488800954237
 50
20.5097716776159089
 51
96.7395622722456068
  0
ARC
  5
1E1AB
  8
0
 10
4541.5589231514295534
 20
457.3535218395120978
 30
0.0
 40
0.021050034615198
 50
89.8605715530883344
 51
152.1385859595334011
  0
ARC
  5
1E1AC
  8
0
 10
4541.5655053996315473
 20
457.3594805373331269
 30
0.0
 40
0.013225925883269
 50
309.2335549724788279
 51
14.4397119735513808
  0
ARC
  5
1E1AD
  8
0
 10
4541.5588332253582848
 20
457.3666718802945752
 30
0.0
 40
0.0230245325582532
 50
266.7083856117271239
 51
310.7758232709181243
  0
ARC
  5
1E1AE
  8
0
 10
4541.5575298555068002
 20
457.363763138518209
 30
0.0
 40
0.020077814279551
 50
221.8173595669474025
 51
269.9467766207221189
  0
ARC
  5
1E1AF
  8
0
 10
4541.5520677477470599
 20
457.3587120907106964
 30
0.0
 40
0.0126398129162412
 50
158.4286082417297052
 51
221.2620224212884921
  0
ARC
  5
1E1B0
  8
0
 10
4541.5662325493867684
 20
457.357485328646419
 30
0.0
 40
0.0636819151784016
 50
39.6712700158723877
 51
79.9594191144928459
  0
ARC
  5
1E1B1
  8
0
 10
4541.5608003475217629
 20
457.3399281085320922
 30
0.0
 40
0.0819472914912455
 50
78.3598643871986553
 51
119.3077313164802007
  0
ARC
  5
1E1B2
  8
0
 10
4541.5455362667298687
 20
457.3656466789639126
 30
0.0
 40
0.0520538403412452
 50
118.5140067258426058
 51
159.2190193509985079
  0
ARC
  5
1E1B3
  8
0
 10
4541.5337893093110324
 20
457.3711357623433855
 30
0.0
 40
0.0391354701457199
 50
160.6307896405947133
 51
196.2742641117731068
  0
ARC
  5
1E1B4
  8
0
 10
4541.584054505741733
 20
457.3732718526899816
 30
0.0
 40
0.039893680271318
 50
352.0983577134538223
 51
38.5595944690728771
  0
ARC
  5
1E1B5
  8
0
 10
4541.5579413336954531
 20
457.3933893867815073
 30
0.0
 40
0.0749434054705893
 50
258.3520291649048204
 51
296.3341411079192085
  0
ARC
  5
1E1B6
  8
0
 10
4541.5708914986425953
 20
457.3766086764914007
 30
0.0
 40
0.0534113777044157
 50
321.4724307094870142
 51
350.4937947362869863
  0
ARC
  5
1E1B7
  8
0
 10
4541.5632500119736505
 20
457.3833459586567756
 30
0.0
 40
0.0635880230355003
 50
296.0616296533335117
 51
321.0121539920554028
  0
ARC
  5
1E1B8
  8
0
 10
4541.5465172640451783
 20
457.3742789834562927
 30
0.0
 40
0.0522371649301908
 50
195.6714856847004
 51
234.3431815742341939
  0
ARC
  5
1E1B9
  8
0
 10
4541.5559718812401115
 20
457.3858154574168111
 30
0.0
 40
0.0671290110594136
 50
233.5262102054554987
 51
258.693210647233002
  0
ARC
  5
1E1BA
  8
0
 10
4541.5687250136652438
 20
457.404294749904011
 30
0.0
 40
0.059639013839682
 50
351.3367664746845094
 51
17.4150249028249213
  0
ARC
  5
1E1BB
  8
0
 10
4541.5538045562052503
 20
457.3952432581390894
 30
0.0
 40
0.062462543104048
 50
152.6439996625763058
 51
188.1438661338737006
  0
ARC
  5
1E1BC
  8
0
 10
4541.5701622070037047
 20
457.4045231865642904
 30
0.0
 40
0.0581997164572345
 50
17.6239034660693896
 51
51.0749651507797608
  0
ARC
  5
1E1BD
  8
0
 10
4541.5652075143170805
 20
457.3975046502069972
 30
0.0
 40
0.0667752744001085
 50
51.5513297553593404
 51
94.5112163518937081
  0
ARC
  5
1E1BE
  8
0
 10
4541.5644995052825834
 20
457.3897056783275161
 30
0.0
 40
0.0745060772178573
 50
93.4966586576581875
 51
152.6410897446299941
  0
LINE
  5
1E1BF
  8
0
 10
4541.6276835908920475
 20
457.3953115353850762
 30
0.0
 11
4541.6235694163915468
 21
457.3677875512851188
 31
0.0
  0
LINE
  5
1E1C0
  8
0
 10
4541.4919719646923113
 20
457.3863945787850867
 30
0.0
 11
4541.4948783988620562
 21
457.366949347238176
 31
0.0
  0
ARC
  5
1E1C1
  8
0
 10
4541.7615018160340696
 20
457.2160969023187818
 30
0.0
 40
0.0183488800954237
 50
20.5097716776159089
 51
96.7395622722456068
  0
ARC
  5
1E1C2
  8
0
 10
4541.7592972310485493
 20
457.2132690166600923
 30
0.0
 40
0.021050034615198
 50
89.8605715530883344
 51
152.1385859595334011
  0
ARC
  5
1E1C3
  8
0
 10
4541.7658794792514527
 20
457.2192277144811783
 30
0.0
 40
0.013225925883269
 50
309.2335549724788279
 51
14.4397119735513808
  0
ARC
  5
1E1C4
  8
0
 10
4541.7592073049772807
 20
457.2264190574426834
 30
0.0
 40
0.0230245325582532
 50
266.7083856117271239
 51
310.7758232709181243
  0
ARC
  5
1E1C5
  8
0
 10
4541.7579039351257961
 20
457.2235103156662035
 30
0.0
 40
0.020077814279551
 50
221.8173595669474025
 51
269.9467766207221189
  0
ARC
  5
1E1C6
  8
0
 10
4541.7524418273660558
 20
457.2184592678588047
 30
0.0
 40
0.0126398129162412
 50
158.4286082417297052
 51
221.2620224212884921
  0
ARC
  5
1E1C7
  8
0
 10
4541.7666066290057643
 20
457.2172325057945272
 30
0.0
 40
0.0636819151784016
 50
39.6712700158723877
 51
79.9594191144928459
  0
ARC
  5
1E1C8
  8
0
 10
4541.7611744271416683
 20
457.1996752856800867
 30
0.0
 40
0.0819472914912455
 50
78.3598643871986553
 51
119.3077313164802007
  0
ARC
  5
1E1C9
  8
0
 10
4541.7459103463488646
 20
457.2253938561120208
 30
0.0
 40
0.0520538403412452
 50
118.5140067258426058
 51
159.2190193509985079
  0
ARC
  5
1E1CA
  8
0
 10
4541.7341633889300283
 20
457.2308829394913801
 30
0.0
 40
0.0391354701457199
 50
160.6307896405947133
 51
196.2742641117731068
  0
ARC
  5
1E1CB
  8
0
 10
4541.7844285853607289
 20
457.2330190298380899
 30
0.0
 40
0.039893680271318
 50
352.0983577134538223
 51
38.5595944690728771
  0
ARC
  5
1E1CC
  8
0
 10
4541.75831541331263
 20
457.2531365639296155
 30
0.0
 40
0.0749434054705893
 50
258.3520291649048204
 51
296.3341411079192085
  0
ARC
  5
1E1CD
  8
0
 10
4541.7712655782615911
 20
457.236355853639509
 30
0.0
 40
0.0534113777044157
 50
321.4724307094870142
 51
350.4937947362869863
  0
ARC
  5
1E1CE
  8
0
 10
4541.7636240915926464
 20
457.2430931358048838
 30
0.0
 40
0.0635880230355003
 50
296.0616296533335117
 51
321.0121539920554028
  0
ARC
  5
1E1CF
  8
0
 10
4541.7468913436641742
 20
457.234026160604401
 30
0.0
 40
0.0522371649301908
 50
195.6714856847004
 51
234.3431815742341939
  0
ARC
  5
1E1D0
  8
0
 10
4541.7563459608581979
 20
457.2455626345648056
 30
0.0
 40
0.0671290110594136
 50
233.5262102054554987
 51
258.693210647233002
  0
ARC
  5
1E1D1
  8
0
 10
4541.7690990932842396
 20
457.2640419270520056
 30
0.0
 40
0.059639013839682
 50
351.3367664746845094
 51
17.4150249028249213
  0
ARC
  5
1E1D2
  8
0
 10
4541.7541786358242462
 20
457.254990435287084
 30
0.0
 40
0.062462543104048
 50
152.6439996625763058
 51
188.1438661338737006
  0
ARC
  5
1E1D3
  8
0
 10
4541.7705362866227006
 20
457.264270363712285
 30
0.0
 40
0.0581997164572345
 50
17.6239034660693896
 51
51.0749651507797608
  0
ARC
  5
1E1D4
  8
0
 10
4541.7655815939360764
 20
457.2572518273551054
 30
0.0
 40
0.0667752744001085
 50
51.5513297553593404
 51
94.5112163518937081
  0
ARC
  5
1E1D5
  8
0
 10
4541.7648735849015793
 20
457.2494528554756243
 30
0.0
 40
0.0745060772178573
 50
93.4966586576581875
 51
152.6410897446299941
  0
LINE
  5
1E1D6
  8
0
 10
4541.8280576705101339
 20
457.2550587125331845
 30
0.0
 11
4541.8239434960114522
 21
457.2275347284331133
 31
0.0
  0
LINE
  5
1E1D7
  8
0
 10
4541.6923460443113072
 20
457.2461417559330812
 30
0.0
 11
4541.6952524784810521
 21
457.2266965243862842
 31
0.0
  0
ARC
  5
1E1D8
  8
0
 10
4541.7357070080797712
 20
456.8629759535731978
 30
0.0
 40
0.0183488800954237
 50
20.5097716776159089
 51
96.7395622722456068
  0
ARC
  5
1E1D9
  8
0
 10
4541.7335024230969793
 20
456.8601480679146789
 30
0.0
 40
0.021050034615198
 50
89.8605715530883344
 51
152.1385859595334011
  0
ARC
  5
1E1DA
  8
0
 10
4541.7400846712980638
 20
456.866106765735708
 30
0.0
 40
0.013225925883269
 50
309.2335549724788279
 51
14.4397119735513808
  0
ARC
  5
1E1DB
  8
0
 10
4541.7334124970229823
 20
456.8732981086970995
 30
0.0
 40
0.0230245325582532
 50
266.7083856117271239
 51
310.7758232709181243
  0
ARC
  5
1E1DC
  8
0
 10
4541.7321091271724072
 20
456.8703893669206764
 30
0.0
 40
0.020077814279551
 50
221.8173595669474025
 51
269.9467766207221189
  0
ARC
  5
1E1DD
  8
0
 10
4541.7266470194117574
 20
456.8653383191132207
 30
0.0
 40
0.0126398129162412
 50
158.4286082417297052
 51
221.2620224212884921
  0
ARC
  5
1E1DE
  8
0
 10
4541.7408118210523753
 20
456.8641115570490001
 30
0.0
 40
0.0636819151784016
 50
39.6712700158723877
 51
79.9594191144928459
  0
ARC
  5
1E1DF
  8
0
 10
4541.7353796191882793
 20
456.8465543369346165
 30
0.0
 40
0.0819472914912455
 50
78.3598643871986553
 51
119.3077313164802007
  0
ARC
  5
1E1E0
  8
0
 10
4541.7309653854899807
 20
456.8587253653184916
 30
0.0
 40
0.0692054748715547
 50
121.053640812415793
 51
159.5705153233159876
  0
ARC
  5
1E1E1
  8
0
 10
4541.7698548034550186
 20
456.8933956609499774
 30
0.0
 40
0.1042734459061551
 50
185.7869307536844872
 51
195.0758553423519004
  0
ARC
  5
1E1E2
  8
0
 10
4541.7586337774082494
 20
456.8798980810925059
 30
0.0
 40
0.039893680271318
 50
352.0983577134538223
 51
38.5595944690728771
  0
ARC
  5
1E1E3
  8
0
 10
4541.7325206053601505
 20
456.9000156151840883
 30
0.0
 40
0.0749434054705893
 50
258.3520291649048204
 51
296.3341411079192085
  0
ARC
  5
1E1E4
  8
0
 10
4541.7454707703091117
 20
456.883234904893925
 30
0.0
 40
0.0534113777044157
 50
321.4724307094870142
 51
350.4937947362869863
  0
ARC
  5
1E1E5
  8
0
 10
4541.737829283640167
 20
456.8899721870594135
 30
0.0
 40
0.0635880230355003
 50
296.0616296533335117
 51
321.0121539920554028
  0
ARC
  5
1E1E6
  8
0
 10
4541.7361769897352133
 20
456.8958156807876776
 30
0.0
 40
0.0732297553169024
 50
203.7912547386845858
 51
231.5555462473232922
  0
ARC
  5
1E1E7
  8
0
 10
4541.7305511529038995
 20
456.8924416858193922
 30
0.0
 40
0.0671290110594136
 50
233.5262102054554987
 51
258.693210647233002
  0
ARC
  5
1E1E8
  8
0
 10
4541.7433042853308507
 20
456.9109209783064784
 30
0.0
 40
0.059639013839682
 50
351.3367664746845094
 51
17.4150249028249213
  0
ARC
  5
1E1E9
  8
0
 10
4541.7073154813379006
 20
456.9015575112334773
 30
0.0
 40
0.0435820596022435
 50
150.2070925218453112
 51
191.6800020986487993
  0
ARC
  5
1E1EA
  8
0
 10
4541.7595045775133258
 20
456.9143616427634242
 30
0.0
 40
0.0431799462933523
 50
19.4929539609399782
 51
62.8018191982569931
  0
ARC
  5
1E1EB
  8
0
 10
4541.7429208621797443
 20
456.8837596783429831
 30
0.0
 40
0.0779819234275243
 50
62.2413288732654522
 51
95.6247916614802165
  0
ARC
  5
1E1EC
  8
0
 10
4541.7399120331401718
 20
456.877587695282898
 30
0.0
 40
0.0839065164153885
 50
93.1662600097518663
 51
147.0606223085065949
  0
LINE
  5
1E1ED
  8
0
 10
4541.8022628625576544
 20
456.9019377637877142
 30
0.0
 11
4541.7981486880580633
 21
456.8744137796875862
 31
0.0
  0
LINE
  5
1E1EE
  8
0
 10
4541.6646358523594245
 20
456.8927345191406175
 30
0.0
 11
4541.6675896731685498
 21
456.8730291529413989
 31
0.0
  0
ARC
  5
1E1EF
  8
0
 10
4542.0960142095527772
 20
457.2379596669227908
 30
0.0
 40
0.0183488800954237
 50
20.5097716776159089
 51
96.7395622722456068
  0
ARC
  5
1E1F0
  8
0
 10
4542.0938096245681663
 20
457.2351317812642151
 30
0.0
 40
0.021050034615198
 50
89.8605715530883344
 51
152.1385859595334011
  0
ARC
  5
1E1F1
  8
0
 10
4542.1003918727692508
 20
457.2410904790851873
 30
0.0
 40
0.013225925883269
 50
309.2335549724788279
 51
14.4397119735513808
  0
ARC
  5
1E1F2
  8
0
 10
4542.0937196984941693
 20
457.2482818220466925
 30
0.0
 40
0.0230245325582532
 50
266.7083856117271239
 51
310.7758232709181243
  0
ARC
  5
1E1F3
  8
0
 10
4542.0924163286435942
 20
457.2453730802703262
 30
0.0
 40
0.020077814279551
 50
221.8173595669474025
 51
269.9467766207221189
  0
ARC
  5
1E1F4
  8
0
 10
4542.0869542208838538
 20
457.2403220324628137
 30
0.0
 40
0.0126398129162412
 50
158.4286082417297052
 51
221.2620224212884921
  0
ARC
  5
1E1F5
  8
0
 10
4542.1011190225235623
 20
457.2390952703984794
 30
0.0
 40
0.0636819151784016
 50
39.6712700158723877
 51
79.9594191144928459
  0
ARC
  5
1E1F6
  8
0
 10
4542.0956868206603758
 20
457.2215380502842095
 30
0.0
 40
0.0819472914912455
 50
78.3598643871986553
 51
119.3077313164802007
  0
ARC
  5
1E1F7
  8
0
 10
4542.0804227398666626
 20
457.247256620715973
 30
0.0
 40
0.0520538403412452
 50
118.5140067258426058
 51
159.2190193509985079
  0
ARC
  5
1E1F8
  8
0
 10
4542.0686757824487358
 20
457.2527457040955028
 30
0.0
 40
0.0391354701457199
 50
160.6307896405947133
 51
196.2742641117731068
  0
ARC
  5
1E1F9
  8
0
 10
4542.1189409788803459
 20
457.2548817944420989
 30
0.0
 40
0.039893680271318
 50
352.0983577134538223
 51
38.5595944690728771
  0
ARC
  5
1E1FA
  8
0
 10
4542.092827806832247
 20
457.2749993285336245
 30
0.0
 40
0.0749434054705893
 50
258.3520291649048204
 51
296.3341411079192085
  0
ARC
  5
1E1FB
  8
0
 10
4542.1057779717802987
 20
457.258218618243518
 30
0.0
 40
0.0534113777044157
 50
321.4724307094870142
 51
350.4937947362869863
  0
ARC
  5
1E1FC
  8
0
 10
4542.0981364851122635
 20
457.2649559004088928
 30
0.0
 40
0.0635880230355003
 50
296.0616296533335117
 51
321.0121539920554028
  0
ARC
  5
1E1FD
  8
0
 10
4542.0814037371819722
 20
457.25588892520841
 30
0.0
 40
0.0522371649301908
 50
195.6714856847004
 51
234.3431815742341939
  0
ARC
  5
1E1FE
  8
0
 10
4542.090858354375996
 20
457.2674253991689284
 30
0.0
 40
0.0671290110594136
 50
233.5262102054554987
 51
258.693210647233002
  0
ARC
  5
1E1FF
  8
0
 10
4542.1036114868020377
 20
457.2859046916560146
 30
0.0
 40
0.059639013839682
 50
351.3367664746845094
 51
17.4150249028249213
  0
ARC
  5
1E200
  8
0
 10
4542.0886910293429537
 20
457.2768531998912067
 30
0.0
 40
0.062462543104048
 50
152.6439996625763058
 51
188.1438661338737006
  0
ARC
  5
1E201
  8
0
 10
4542.1050486801423176
 20
457.2861331283164077
 30
0.0
 40
0.0581997164572345
 50
17.6239034660693896
 51
51.0749651507797608
  0
ARC
  5
1E202
  8
0
 10
4542.1000939874538744
 20
457.2791145919591145
 30
0.0
 40
0.0667752744001085
 50
51.5513297553593404
 51
94.5112163518937081
  0
ARC
  5
1E203
  8
0
 10
4542.0993859784211963
 20
457.2713156200796902
 30
0.0
 40
0.0745060772178573
 50
93.4966586576581875
 51
152.6410897446299941
  0
LINE
  5
1E204
  8
0
 10
4542.1625700640297509
 20
457.2769214771371935
 30
0.0
 11
4542.1584558895301598
 21
457.2493974930371792
 31
0.0
  0
LINE
  5
1E205
  8
0
 10
4542.0268584378300147
 20
457.2680045205372039
 30
0.0
 11
4542.0297648719979406
 21
457.2485592889902932
 31
0.0
  0
ARC
  5
1E206
  8
0
 10
4542.1879375205908218
 20
456.9775736066735021
 30
0.0
 40
0.0183488800954237
 50
20.5097716776159089
 51
96.7395622722456068
  0
ARC
  5
1E207
  8
0
 10
4542.185732935606211
 20
456.9747457210149264
 30
0.0
 40
0.021050034615198
 50
89.8605715530883344
 51
152.1385859595334011
  0
ARC
  5
1E208
  8
0
 10
4542.1923151838072954
 20
456.9807044188358987
 30
0.0
 40
0.013225925883269
 50
309.2335549724788279
 51
14.4397119735513808
  0
ARC
  5
1E209
  8
0
 10
4542.1856430095331234
 20
456.9878957617974038
 30
0.0
 40
0.0230245325582532
 50
266.7083856117271239
 51
310.7758232709181243
  0
ARC
  5
1E20A
  8
0
 10
4542.1843396396816388
 20
456.9849870200209807
 30
0.0
 40
0.020077814279551
 50
221.8173595669474025
 51
269.9467766207221189
  0
ARC
  5
1E20B
  8
0
 10
4542.1788775319218985
 20
456.979935972213525
 30
0.0
 40
0.0126398129162412
 50
158.4286082417297052
 51
221.2620224212884921
  0
ARC
  5
1E20C
  8
0
 10
4542.1930423335616069
 20
456.9787092101491908
 30
0.0
 40
0.0636819151784016
 50
39.6712700158723877
 51
79.9594191144928459
  0
ARC
  5
1E20D
  8
0
 10
4542.1876101316966015
 20
456.9611519900349208
 30
0.0
 40
0.0819472914912455
 50
78.3598643871986553
 51
119.3077313164802007
  0
ARC
  5
1E20E
  8
0
 10
4542.1723460509047072
 20
456.986870560466798
 30
0.0
 40
0.0520538403412452
 50
118.5140067258426058
 51
159.2190193509985079
  0
ARC
  5
1E20F
  8
0
 10
4542.1605990934867805
 20
456.9923596438462141
 30
0.0
 40
0.0391354701457199
 50
160.6307896405947133
 51
196.2742641117731068
  0
ARC
  5
1E210
  8
0
 10
4542.2108642899165716
 20
456.9944957341929239
 30
0.0
 40
0.039893680271318
 50
352.0983577134538223
 51
38.5595944690728771
  0
ARC
  5
1E211
  8
0
 10
4542.1847511178693821
 20
457.014613268284279
 30
0.0
 40
0.0749434054705893
 50
258.3520291649048204
 51
296.3341411079192085
  0
ARC
  5
1E212
  8
0
 10
4542.1977012828192528
 20
456.9978325579942862
 30
0.0
 40
0.0534113777044157
 50
321.4724307094870142
 51
350.4937947362869863
  0
ARC
  5
1E213
  8
0
 10
4542.1900597961493986
 20
457.0045698401596042
 30
0.0
 40
0.0635880230355003
 50
296.0616296533335117
 51
321.0121539920554028
  0
ARC
  5
1E214
  8
0
 10
4542.1733270482200169
 20
456.9955028649591782
 30
0.0
 40
0.0522371649301908
 50
195.6714856847004
 51
234.3431815742341939
  0
ARC
  5
1E215
  8
0
 10
4542.1827816654140406
 20
457.0070393389195829
 30
0.0
 40
0.0671290110594136
 50
233.5262102054554987
 51
258.693210647233002
  0
ARC
  5
1E216
  8
0
 10
4542.1955347978400823
 20
457.0255186314067828
 30
0.0
 40
0.059639013839682
 50
351.3367664746845094
 51
17.4150249028249213
  0
ARC
  5
1E217
  8
0
 10
4542.1806143403809983
 20
457.016467139641918
 30
0.0
 40
0.062462543104048
 50
152.6439996625763058
 51
188.1438661338737006
  0
ARC
  5
1E218
  8
0
 10
4542.1969719911794527
 20
457.0257470680671759
 30
0.0
 40
0.0581997164572345
 50
17.6239034660693896
 51
51.0749651507797608
  0
ARC
  5
1E219
  8
0
 10
4542.1920172984919191
 20
457.0187285317098258
 30
0.0
 40
0.0667752744001085
 50
51.5513297553593404
 51
94.5112163518937081
  0
ARC
  5
1E21A
  8
0
 10
4542.191309289459241
 20
457.0109295598304016
 30
0.0
 40
0.0745060772178573
 50
93.4966586576581875
 51
152.6410897446299941
  0
LINE
  5
1E21B
  8
0
 10
4542.2544933750668861
 20
457.0165354168879048
 30
0.0
 11
4542.2503792005672949
 21
456.9890114327878905
 31
0.0
  0
LINE
  5
1E21C
  8
0
 10
4542.1187817488671499
 20
457.0076184602879152
 30
0.0
 11
4542.1216881830359853
 21
456.9881732287411182
 31
0.0
  0
ARC
  5
1E21D
  8
0
 10
4542.4815937291059527
 20
456.8636312053599227
 30
0.0
 40
0.0183488800954237
 50
20.5097716776159089
 51
96.7395622722456068
  0
ARC
  5
1E21E
  8
0
 10
4542.4793891441222513
 20
456.8608033197012901
 30
0.0
 40
0.021050034615198
 50
89.8605715530883344
 51
152.1385859595334011
  0
ARC
  5
1E21F
  8
0
 10
4542.4859713923233357
 20
456.8667620175223192
 30
0.0
 40
0.013225925883269
 50
309.2335549724788279
 51
14.4397119735513808
  0
ARC
  5
1E220
  8
0
 10
4542.4792992180491638
 20
456.8739533604838812
 30
0.0
 40
0.0230245325582532
 50
266.7083856117271239
 51
310.7758232709181243
  0
ARC
  5
1E221
  8
0
 10
4542.4779958481976792
 20
456.8710446187075149
 30
0.0
 40
0.020077814279551
 50
221.8173595669474025
 51
269.9467766207221189
  0
ARC
  5
1E222
  8
0
 10
4542.4725337404379388
 20
456.8659935708998887
 30
0.0
 40
0.0126398129162412
 50
158.4286082417297052
 51
221.2620224212884921
  0
ARC
  5
1E223
  8
0
 10
4542.4866985420776473
 20
456.8647668088356113
 30
0.0
 40
0.0636819151784016
 50
39.6712700158723877
 51
79.9594191144928459
  0
ARC
  5
1E224
  8
0
 10
4542.4812663402126418
 20
456.8472095887212845
 30
0.0
 40
0.0819472914912455
 50
78.3598643871986553
 51
119.3077313164802007
  0
ARC
  5
1E225
  8
0
 10
4542.4660022594207476
 20
456.8729281591531048
 30
0.0
 40
0.0520538403412452
 50
118.5140067258426058
 51
159.2190193509985079
  0
ARC
  5
1E226
  8
0
 10
4542.4542553020028208
 20
456.8784172425325778
 30
0.0
 40
0.0391354701457199
 50
160.6307896405947133
 51
196.2742641117731068
  0
ARC
  5
1E227
  8
0
 10
4542.5045204984326119
 20
456.8805533328792876
 30
0.0
 40
0.039893680271318
 50
352.0983577134538223
 51
38.5595944690728771
  0
ARC
  5
1E228
  8
0
 10
4542.4784073263854225
 20
456.9006708669708132
 30
0.0
 40
0.0749434054705893
 50
258.3520291649048204
 51
296.3341411079192085
  0
ARC
  5
1E229
  8
0
 10
4542.4913574913352932
 20
456.8838901566807067
 30
0.0
 40
0.0534113777044157
 50
321.4724307094870142
 51
350.4937947362869863
  0
ARC
  5
1E22A
  8
0
 10
4542.4837160046663485
 20
456.8906274388460247
 30
0.0
 40
0.0635880230355003
 50
296.0616296533335117
 51
321.0121539920554028
  0
ARC
  5
1E22B
  8
0
 10
4542.4669832567360572
 20
456.8815604636455987
 30
0.0
 40
0.0522371649301908
 50
195.6714856847004
 51
234.3431815742341939
  0
ARC
  5
1E22C
  8
0
 10
4542.476437873930081
 20
456.8930969376061171
 30
0.0
 40
0.0671290110594136
 50
233.5262102054554987
 51
258.693210647233002
  0
ARC
  5
1E22D
  8
0
 10
4542.4891910063561227
 20
456.9115762300932033
 30
0.0
 40
0.059639013839682
 50
351.3367664746845094
 51
17.4150249028249213
  0
ARC
  5
1E22E
  8
0
 10
4542.4742705488970387
 20
456.9025247383282817
 30
0.0
 40
0.062462543104048
 50
152.6439996625763058
 51
188.1438661338737006
  0
ARC
  5
1E22F
  8
0
 10
4542.4906281996945836
 20
456.9118046667535964
 30
0.0
 40
0.0581997164572345
 50
17.6239034660693896
 51
51.0749651507797608
  0
ARC
  5
1E230
  8
0
 10
4542.4856735070079594
 20
456.9047861303963032
 30
0.0
 40
0.0667752744001085
 50
51.5513297553593404
 51
94.5112163518937081
  0
ARC
  5
1E231
  8
0
 10
4542.4849654979743718
 20
456.8969871585168221
 30
0.0
 40
0.0745060772178573
 50
93.4966586576581875
 51
152.6410897446299941
  0
LINE
  5
1E232
  8
0
 10
4542.5481495835829264
 20
456.9025930155743822
 30
0.0
 11
4542.5440354090833353
 21
456.875069031474311
 31
0.0
  0
LINE
  5
1E233
  8
0
 10
4542.4124379573831902
 20
456.8936760589742789
 30
0.0
 11
4542.4153443915520256
 21
456.8742308274274819
 31
0.0
  0
ARC
  5
1E234
  8
0
 10
4542.3370833429817139
 20
456.5222567620572818
 30
0.0
 40
0.0183488800954237
 50
20.5097716776159089
 51
96.7395622722456068
  0
ARC
  5
1E235
  8
0
 10
4542.3348787579980126
 20
456.5194288763985924
 30
0.0
 40
0.021050034615198
 50
89.8605715530883344
 51
152.1385859595334011
  0
ARC
  5
1E236
  8
0
 10
4542.3414610061981875
 20
456.5253875742196783
 30
0.0
 40
0.013225925883269
 50
309.2335549724788279
 51
14.4397119735513808
  0
ARC
  5
1E237
  8
0
 10
4542.334788831924925
 20
456.5325789171811834
 30
0.0
 40
0.0230245325582532
 50
266.7083856117271239
 51
310.7758232709181243
  0
ARC
  5
1E238
  8
0
 10
4542.3334854620743499
 20
456.5296701754048172
 30
0.0
 40
0.020077814279551
 50
221.8173595669474025
 51
269.9467766207221189
  0
ARC
  5
1E239
  8
0
 10
4542.3280233543137001
 20
456.524619127597191
 30
0.0
 40
0.0126398129162412
 50
158.4286082417297052
 51
221.2620224212884921
  0
ARC
  5
1E23A
  8
0
 10
4542.3421881559543181
 20
456.5233923655330273
 30
0.0
 40
0.0636819151784016
 50
39.6712700158723877
 51
79.9594191144928459
  0
ARC
  5
1E23B
  8
0
 10
4542.3367559540893126
 20
456.5058351454187004
 30
0.0
 40
0.0819472914912455
 50
78.3598643871986553
 51
119.3077313164802007
  0
ARC
  5
1E23C
  8
0
 10
4542.3214918732974184
 20
456.5315537158505776
 30
0.0
 40
0.0520538403412452
 50
118.5140067258426058
 51
159.2190193509985079
  0
ARC
  5
1E23D
  8
0
 10
4542.3097449158785821
 20
456.5370427992298801
 30
0.0
 40
0.0391354701457199
 50
160.6307896405947133
 51
196.2742641117731068
  0
ARC
  5
1E23E
  8
0
 10
4542.3600101123092827
 20
456.5391788895767036
 30
0.0
 40
0.039893680271318
 50
352.0983577134538223
 51
38.5595944690728771
  0
ARC
  5
1E23F
  8
0
 10
4542.3338969402611838
 20
456.5592964236681723
 30
0.0
 40
0.0749434054705893
 50
258.3520291649048204
 51
296.3341411079192085
  0
ARC
  5
1E240
  8
0
 10
4542.3468471052101449
 20
456.542515713378009
 30
0.0
 40
0.0534113777044157
 50
321.4724307094870142
 51
350.4937947362869863
  0
ARC
  5
1E241
  8
0
 10
4542.3392056185412002
 20
456.5492529955433838
 30
0.0
 40
0.0635880230355003
 50
296.0616296533335117
 51
321.0121539920554028
  0
ARC
  5
1E242
  8
0
 10
4542.322472870612728
 20
456.540186020342901
 30
0.0
 40
0.0522371649301908
 50
195.6714856847004
 51
234.3431815742341939
  0
ARC
  5
1E243
  8
0
 10
4542.3319274878058422
 20
456.5517224943034194
 30
0.0
 40
0.0671290110594136
 50
233.5262102054554987
 51
258.693210647233002
  0
ARC
  5
1E244
  8
0
 10
4542.3446806202318839
 20
456.5702017867906193
 30
0.0
 40
0.059639013839682
 50
351.3367664746845094
 51
17.4150249028249213
  0
ARC
  5
1E245
  8
0
 10
4542.329760162770981
 20
456.5611502950256977
 30
0.0
 40
0.062462543104048
 50
152.6439996625763058
 51
188.1438661338737006
  0
ARC
  5
1E246
  8
0
 10
4542.3461178135712544
 20
456.5704302234508987
 30
0.0
 40
0.0581997164572345
 50
17.6239034660693896
 51
51.0749651507797608
  0
ARC
  5
1E247
  8
0
 10
4542.3411631208846302
 20
456.5634116870937191
 30
0.0
 40
0.0667752744001085
 50
51.5513297553593404
 51
94.5112163518937081
  0
ARC
  5
1E248
  8
0
 10
4542.3404551118501331
 20
456.5556127152141812
 30
0.0
 40
0.0745060772178573
 50
93.4966586576581875
 51
152.6410897446299941
  0
LINE
  5
1E249
  8
0
 10
4542.4036391974577782
 20
456.5612185722716845
 30
0.0
 11
4542.3995250229590965
 21
456.533694588171727
 31
0.0
  0
LINE
  5
1E24A
  8
0
 10
4542.267927571258042
 20
456.5523016156716949
 30
0.0
 11
4542.2708340054277869
 21
456.5328563841248979
 31
0.0
  0
ARC
  5
1E24B
  8
0
 10
4541.4472811757441377
 20
456.8300498816388995
 30
0.0
 40
0.0183488800954237
 50
20.5097716776159089
 51
96.7395622722456068
  0
ARC
  5
1E24C
  8
0
 10
4541.4450765907604364
 20
456.8272219959803238
 30
0.0
 40
0.021050034615198
 50
89.8605715530883344
 51
152.1385859595334011
  0
ARC
  5
1E24D
  8
0
 10
4541.4516588389606113
 20
456.833180693801296
 30
0.0
 40
0.013225925883269
 50
309.2335549724788279
 51
14.4397119735513808
  0
ARC
  5
1E24E
  8
0
 10
4541.4449866646873488
 20
456.8403720367628011
 30
0.0
 40
0.0230245325582532
 50
266.7083856117271239
 51
310.7758232709181243
  0
ARC
  5
1E24F
  8
0
 10
4541.4436832948358642
 20
456.8374632949863212
 30
0.0
 40
0.020077814279551
 50
221.8173595669474025
 51
269.9467766207221189
  0
ARC
  5
1E250
  8
0
 10
4541.4382211870761239
 20
456.8324122471789224
 30
0.0
 40
0.0126398129162412
 50
158.4286082417297052
 51
221.2620224212884921
  0
ARC
  5
1E251
  8
0
 10
4541.4523859887167418
 20
456.8311854851145881
 30
0.0
 40
0.0636819151784016
 50
39.6712700158723877
 51
79.9594191144928459
  0
ARC
  5
1E252
  8
0
 10
4541.4469537868508269
 20
456.8136282650002045
 30
0.0
 40
0.0819472914912455
 50
78.3598643871986553
 51
119.3077313164802007
  0
ARC
  5
1E253
  8
0
 10
4541.4316897060580231
 20
456.8393468354320817
 30
0.0
 40
0.0520538403412452
 50
118.5140067258426058
 51
159.2190193509985079
  0
ARC
  5
1E254
  8
0
 10
4541.4199427486419154
 20
456.8448359188116115
 30
0.0
 40
0.0391354701457199
 50
160.6307896405947133
 51
196.2742641117731068
  0
ARC
  5
1E255
  8
0
 10
4541.4739642685754006
 20
456.8467018691932822
 30
0.0
 40
0.0372124262374156
 50
354.1136741571353923
 51
42.4930030283255178
  0
ARC
  5
1E256
  8
0
 10
4541.4440947730226981
 20
456.8670895432496764
 30
0.0
 40
0.0749434054705893
 50
258.3520291649048204
 51
296.3341411079192085
  0
ARC
  5
1E257
  8
0
 10
4541.4614034207561417
 20
456.8504142677078903
 30
0.0
 40
0.0501454589013152
 50
318.2745503088498822
 51
351.3650932171677255
  0
ARC
  5
1E258
  8
0
 10
4541.4494034513027145
 20
456.8570461151250015
 30
0.0
 40
0.0635880230355003
 50
296.0616296533335117
 51
321.0121539920554028
  0
ARC
  5
1E259
  8
0
 10
4541.4326707033742423
 20
456.8479791399245187
 30
0.0
 40
0.0522371649301908
 50
195.6714856847004
 51
234.3431815742341939
  0
ARC
  5
1E25A
  8
0
 10
4541.442125320568266
 20
456.8595156138849802
 30
0.0
 40
0.0671290110594136
 50
233.5262102054554987
 51
258.693210647233002
  0
ARC
  5
1E25B
  8
0
 10
4541.4762909794071675
 20
456.8796103805955227
 30
0.0
 40
0.0397372116848125
 50
351.1299268265198066
 51
24.5684655756455115
  0
ARC
  5
1E25C
  8
0
 10
4541.4154150316171581
 20
456.8742546643684932
 30
0.0
 40
0.0387825835369923
 50
142.9047412184092991
 51
187.7806811467715988
  0
ARC
  5
1E25D
  8
0
 10
4541.4661651251826697
 20
456.8747131120824747
 30
0.0
 40
0.0509830930910215
 50
24.8424132501217017
 51
61.4429734385638966
  0
ARC
  5
1E25E
  8
0
 10
4541.4505487683263709
 20
456.8479471374211016
 30
0.0
 40
0.0819630836418835
 50
60.7988095624159683
 51
92.8953279458824142
  0
ARC
  5
1E25F
  8
0
 10
4541.4461202839320322
 20
456.8546554405995153
 30
0.0
 40
0.0751507063047371
 50
89.7801153743121745
 51
145.1060777525250103
  0
LINE
  5
1E260
  8
0
 10
4541.5155529554822351
 20
456.8734831277690205
 30
0.0
 11
4541.5109804856392657
 21
456.8428855436472986
 31
0.0
  0
LINE
  5
1E261
  8
0
 10
4541.3769895041496056
 20
456.8690041732176041
 30
0.0
 11
4541.3810318381911202
 21
456.8406495037065156
 31
0.0
  0
ARC
  5
1E262
  8
0
 10
4541.4472214122633886
 20
456.6503976772714282
 30
0.0
 40
0.0183488800954237
 50
20.5097716776159089
 51
96.7395622722456068
  0
ARC
  5
1E263
  8
0
 10
4541.4450168272778683
 20
456.6475697916127956
 30
0.0
 40
0.021050034615198
 50
89.8605715530883344
 51
152.1385859595334011
  0
ARC
  5
1E264
  8
0
 10
4541.4515990754798622
 20
456.6535284894338247
 30
0.0
 40
0.013225925883269
 50
309.2335549724788279
 51
14.4397119735513808
  0
ARC
  5
1E265
  8
0
 10
4541.4449269012047807
 20
456.660719832395273
 30
0.0
 40
0.0230245325582532
 50
266.7083856117271239
 51
310.7758232709181243
  0
ARC
  5
1E266
  8
0
 10
4541.4436235313551151
 20
456.6578110906187931
 30
0.0
 40
0.020077814279551
 50
221.8173595669474025
 51
269.9467766207221189
  0
ARC
  5
1E267
  8
0
 10
4541.4381614235953748
 20
456.6527600428113942
 30
0.0
 40
0.0126398129162412
 50
158.4286082417297052
 51
221.2620224212884921
  0
ARC
  5
1E268
  8
0
 10
4541.4523262252350833
 20
456.6515332807471168
 30
0.0
 40
0.0636819151784016
 50
39.6712700158723877
 51
79.9594191144928459
  0
ARC
  5
1E269
  8
0
 10
4541.4468940233700778
 20
456.63397606063279
 30
0.0
 40
0.0819472914912455
 50
78.3598643871986553
 51
119.3077313164802007
  0
ARC
  5
1E26A
  8
0
 10
4541.4316299425781835
 20
456.6596946310646103
 30
0.0
 40
0.0520538403412452
 50
118.5140067258426058
 51
159.2190193509985079
  0
ARC
  5
1E26B
  8
0
 10
4541.4198829851602568
 20
456.6651837144440833
 30
0.0
 40
0.0391354701457199
 50
160.6307896405947133
 51
196.2742641117731068
  0
ARC
  5
1E26C
  8
0
 10
4541.4739045050919231
 20
456.6670496648256972
 30
0.0
 40
0.0372124262374156
 50
354.1136741571353923
 51
42.4930030283255178
  0
ARC
  5
1E26D
  8
0
 10
4541.444035009541949
 20
456.687437338882205
 30
0.0
 40
0.0749434054705893
 50
258.3520291649048204
 51
296.3341411079192085
  0
ARC
  5
1E26E
  8
0
 10
4541.4613436572735736
 20
456.670762063340419
 30
0.0
 40
0.0501454589013152
 50
318.2745503088498822
 51
351.3650932171677255
  0
ARC
  5
1E26F
  8
0
 10
4541.4493436878219654
 20
456.6773939107574733
 30
0.0
 40
0.0635880230355003
 50
296.0616296533335117
 51
321.0121539920554028
  0
ARC
  5
1E270
  8
0
 10
4541.4326109398925837
 20
456.6683269355571042
 30
0.0
 40
0.0522371649301908
 50
195.6714856847004
 51
234.3431815742341939
  0
ARC
  5
1E271
  8
0
 10
4541.4420655570856979
 20
456.6798634095173952
 30
0.0
 40
0.0671290110594136
 50
233.5262102054554987
 51
258.693210647233002
  0
ARC
  5
1E272
  8
0
 10
4541.4762312159264184
 20
456.6999581762281082
 30
0.0
 40
0.0397372116848125
 50
351.1299268265198066
 51
24.5684655756455115
  0
ARC
  5
1E273
  8
0
 10
4541.415355268136409
 20
456.6946024600009082
 30
0.0
 40
0.0387825835369923
 50
142.9047412184092991
 51
187.7806811467715988
  0
ARC
  5
1E274
  8
0
 10
4541.4661053617028301
 20
456.6950609077148897
 30
0.0
 40
0.0509830930910215
 50
24.8424132501217017
 51
61.4429734385638966
  0
ARC
  5
1E275
  8
0
 10
4541.4504890048428933
 20
456.6682949330535735
 30
0.0
 40
0.0819630836418835
 50
60.7988095624159683
 51
92.8953279458824142
  0
ARC
  5
1E276
  8
0
 10
4541.4460605204512831
 20
456.6750032362318734
 30
0.0
 40
0.0751507063047371
 50
89.7801153743121745
 51
145.1060777525250103
  0
LINE
  5
1E277
  8
0
 10
4541.515493191999667
 20
456.6938309234013786
 30
0.0
 11
4541.5109207221566976
 21
456.6632333392798273
 31
0.0
  0
LINE
  5
1E278
  8
0
 10
4541.376929740667947
 20
456.6893519688500191
 30
0.0
 11
4541.3809720747085521
 21
456.6609972993388737
 31
0.0
  0
ARC
  5
1E279
  8
0
 10
4541.2969371059516561
 20
456.5043520522880272
 30
0.0
 40
0.0183488800954237
 50
20.5097716776159089
 51
96.7395622722456068
  0
ARC
  5
1E27A
  8
0
 10
4541.2947325209679548
 20
456.5015241666292809
 30
0.0
 40
0.021050034615198
 50
89.8605715530883344
 51
152.1385859595334011
  0
ARC
  5
1E27B
  8
0
 10
4541.3013147691699487
 20
456.5074828644504237
 30
0.0
 40
0.013225925883269
 50
309.2335549724788279
 51
14.4397119735513808
  0
ARC
  5
1E27C
  8
0
 10
4541.2946425948948672
 20
456.5146742074118151
 30
0.0
 40
0.0230245325582532
 50
266.7083856117271239
 51
310.7758232709181243
  0
ARC
  5
1E27D
  8
0
 10
4541.2933392250442921
 20
456.511765465635392
 30
0.0
 40
0.020077814279551
 50
221.8173595669474025
 51
269.9467766207221189
  0
ARC
  5
1E27E
  8
0
 10
4541.2878771172845518
 20
456.5067144178278795
 30
0.0
 40
0.0126398129162412
 50
158.4286082417297052
 51
221.2620224212884921
  0
ARC
  5
1E27F
  8
0
 10
4541.3020419189242602
 20
456.5054876557637158
 30
0.0
 40
0.0636819151784016
 50
39.6712700158723877
 51
79.9594191144928459
  0
ARC
  5
1E280
  8
0
 10
4541.2966097170601643
 20
456.4879304356492753
 30
0.0
 40
0.0819472914912455
 50
78.3598643871986553
 51
119.3077313164802007
  0
ARC
  5
1E281
  8
0
 10
4541.2813456362673605
 20
456.5136490060810956
 30
0.0
 40
0.0520538403412452
 50
118.5140067258426058
 51
159.2190193509985079
  0
ARC
  5
1E282
  8
0
 10
4541.2695986788494338
 20
456.5191380894606255
 30
0.0
 40
0.0391354701457199
 50
160.6307896405947133
 51
196.2742641117731068
  0
ARC
  5
1E283
  8
0
 10
4541.3236201987820095
 20
456.5210040398422962
 30
0.0
 40
0.0372124262374156
 50
354.1136741571353923
 51
42.4930030283255178
  0
ARC
  5
1E284
  8
0
 10
4541.293750703231126
 20
456.541391713898804
 30
0.0
 40
0.0749434054705893
 50
258.3520291649048204
 51
296.3341411079192085
  0
ARC
  5
1E285
  8
0
 10
4541.3110593509627506
 20
456.524716438357018
 30
0.0
 40
0.0501454589013152
 50
318.2745503088498822
 51
351.3650932171677255
  0
ARC
  5
1E286
  8
0
 10
4541.2990593815120519
 20
456.5313482857740723
 30
0.0
 40
0.0635880230355003
 50
296.0616296533335117
 51
321.0121539920554028
  0
ARC
  5
1E287
  8
0
 10
4541.2823266335826702
 20
456.5222813105734758
 30
0.0
 40
0.0522371649301908
 50
195.6714856847004
 51
234.3431815742341939
  0
ARC
  5
1E288
  8
0
 10
4541.2917812507757844
 20
456.5338177845339942
 30
0.0
 40
0.0671290110594136
 50
233.5262102054554987
 51
258.693210647233002
  0
ARC
  5
1E289
  8
0
 10
4541.3259469096146859
 20
456.5539125512445935
 30
0.0
 40
0.0397372116848125
 50
351.1299268265198066
 51
24.5684655756455115
  0
ARC
  5
1E28A
  8
0
 10
4541.265070961825586
 20
456.5485568350175072
 30
0.0
 40
0.0387825835369923
 50
142.9047412184092991
 51
187.7806811467715988
  0
ARC
  5
1E28B
  8
0
 10
4541.3158210553920071
 20
456.5490152827314887
 30
0.0
 40
0.0509830930910215
 50
24.8424132501217017
 51
61.4429734385638966
  0
ARC
  5
1E28C
  8
0
 10
4541.3002046985329798
 20
456.5222493080701156
 30
0.0
 40
0.0819630836418835
 50
60.7988095624159683
 51
92.8953279458824142
  0
ARC
  5
1E28D
  8
0
 10
4541.2957762141413696
 20
456.5289576112484724
 30
0.0
 40
0.0751507063047371
 50
89.7801153743121745
 51
145.1060777525250103
  0
LINE
  5
1E28E
  8
0
 10
4541.365208885688844
 20
456.5477852984179776
 30
0.0
 11
4541.3606364158467841
 21
456.5171877142963126
 31
0.0
  0
LINE
  5
1E28F
  8
0
 10
4541.2266454343580335
 20
456.5433063438666181
 30
0.0
 11
4541.2306877683986386
 21
456.5149516743554727
 31
0.0
  0
ARC
  5
1E290
  8
0
 10
4541.3961250098082019
 20
456.3359238347861151
 30
0.0
 40
0.0183488800954237
 50
20.5097716776159089
 51
96.7395622722456068
  0
ARC
  5
1E291
  8
0
 10
4541.393920424823591
 20
456.3330959491275962
 30
0.0
 40
0.021050034615198
 50
89.8605715530883344
 51
152.1385859595334011
  0
ARC
  5
1E292
  8
0
 10
4541.400502673025585
 20
456.3390546469486253
 30
0.0
 40
0.013225925883269
 50
309.2335549724788279
 51
14.4397119735513808
  0
ARC
  5
1E293
  8
0
 10
4541.393830498751413
 20
456.3462459899100736
 30
0.0
 40
0.0230245325582532
 50
266.7083856117271239
 51
310.7758232709181243
  0
ARC
  5
1E294
  8
0
 10
4541.3925271289008379
 20
456.3433372481335937
 30
0.0
 40
0.020077814279551
 50
221.8173595669474025
 51
269.9467766207221189
  0
ARC
  5
1E295
  8
0
 10
4541.3870650211392785
 20
456.3382862003261948
 30
0.0
 40
0.0126398129162412
 50
158.4286082417297052
 51
221.2620224212884921
  0
ARC
  5
1E296
  8
0
 10
4541.4012298227798965
 20
456.3370594382619174
 30
0.0
 40
0.0636819151784016
 50
39.6712700158723877
 51
79.9594191144928459
  0
ARC
  5
1E297
  8
0
 10
4541.3957976209158005
 20
456.3195022181474769
 30
0.0
 40
0.0819472914912455
 50
78.3598643871986553
 51
119.3077313164802007
  0
ARC
  5
1E298
  8
0
 10
4541.3805335401229968
 20
456.345220788579411
 30
0.0
 40
0.0520538403412452
 50
118.5140067258426058
 51
159.2190193509985079
  0
ARC
  5
1E299
  8
0
 10
4541.36878658270507
 20
456.3507098719588839
 30
0.0
 40
0.0391354701457199
 50
160.6307896405947133
 51
196.2742641117731068
  0
ARC
  5
1E29A
  8
0
 10
4541.4228081026367363
 20
456.3525758223406115
 30
0.0
 40
0.0372124262374156
 50
354.1136741571353923
 51
42.4930030283255178
  0
ARC
  5
1E29B
  8
0
 10
4541.3929386070876717
 20
456.3729634963970057
 30
0.0
 40
0.0749434054705893
 50
258.3520291649048204
 51
296.3341411079192085
  0
ARC
  5
1E29C
  8
0
 10
4541.4102472548192964
 20
456.3562882208552196
 30
0.0
 40
0.0501454589013152
 50
318.2745503088498822
 51
351.3650932171677255
  0
ARC
  5
1E29D
  8
0
 10
4541.3982472853667787
 20
456.362920068272274
 30
0.0
 40
0.0635880230355003
 50
296.0616296533335117
 51
321.0121539920554028
  0
ARC
  5
1E29E
  8
0
 10
4541.3815145374392159
 20
456.3538530930717911
 30
0.0
 40
0.0522371649301908
 50
195.6714856847004
 51
234.3431815742341939
  0
ARC
  5
1E29F
  8
0
 10
4541.3909691546323302
 20
456.3653895670323095
 30
0.0
 40
0.0671290110594136
 50
233.5262102054554987
 51
258.693210647233002
  0
ARC
  5
1E2A0
  8
0
 10
4541.4251348134712316
 20
456.3854843337427951
 30
0.0
 40
0.0397372116848125
 50
351.1299268265198066
 51
24.5684655756455115
  0
ARC
  5
1E2A1
  8
0
 10
4541.3642588656821317
 20
456.3801286175158225
 30
0.0
 40
0.0387825835369923
 50
142.9047412184092991
 51
187.7806811467715988
  0
ARC
  5
1E2A2
  8
0
 10
4541.4150089592467339
 20
456.380587065229804
 30
0.0
 40
0.0509830930910215
 50
24.8424132501217017
 51
61.4429734385638966
  0
ARC
  5
1E2A3
  8
0
 10
4541.3993926023886161
 20
456.3538210905683741
 30
0.0
 40
0.0819630836418835
 50
60.7988095624159683
 51
92.8953279458824142
  0
ARC
  5
1E2A4
  8
0
 10
4541.3949641179970058
 20
456.3605293937467877
 30
0.0
 40
0.0751507063047371
 50
89.7801153743121745
 51
145.1060777525250103
  0
LINE
  5
1E2A5
  8
0
 10
4541.4643967895462993
 20
456.3793570809162929
 30
0.0
 11
4541.4598243197033298
 21
456.3487594967946279
 31
0.0
  0
LINE
  5
1E2A6
  8
0
 10
4541.3258333382136698
 20
456.3748781263648198
 30
0.0
 11
4541.3298756722551843
 21
456.3465234568536744
 31
0.0
  0
ARC
  5
1E2A7
  8
0
 10
4541.6478060573635958
 20
456.2848380386358258
 30
0.0
 40
0.0183488800954237
 50
20.5097716776159089
 51
96.7395622722456068
  0
ARC
  5
1E2A8
  8
0
 10
4541.6456014723798944
 20
456.2820101529771932
 30
0.0
 40
0.021050034615198
 50
89.8605715530883344
 51
152.1385859595334011
  0
ARC
  5
1E2A9
  8
0
 10
4541.6521837205809788
 20
456.2879688507982223
 30
0.0
 40
0.013225925883269
 50
309.2335549724788279
 51
14.4397119735513808
  0
ARC
  5
1E2AA
  8
0
 10
4541.6455115463058974
 20
456.2951601937597275
 30
0.0
 40
0.0230245325582532
 50
266.7083856117271239
 51
310.7758232709181243
  0
ARC
  5
1E2AB
  8
0
 10
4541.6442081764562317
 20
456.2922514519833044
 30
0.0
 40
0.020077814279551
 50
221.8173595669474025
 51
269.9467766207221189
  0
ARC
  5
1E2AC
  8
0
 10
4541.6387460686946724
 20
456.2872004041756782
 30
0.0
 40
0.0126398129162412
 50
158.4286082417297052
 51
221.2620224212884921
  0
ARC
  5
1E2AD
  8
0
 10
4541.6529108703361999
 20
456.2859736421115144
 30
0.0
 40
0.0636819151784016
 50
39.6712700158723877
 51
79.9594191144928459
  0
ARC
  5
1E2AE
  8
0
 10
4541.6474786684711944
 20
456.2684164219970739
 30
0.0
 40
0.0819472914912455
 50
78.3598643871986553
 51
119.3077313164802007
  0
ARC
  5
1E2AF
  8
0
 10
4541.6322145876783907
 20
456.294134992429008
 30
0.0
 40
0.0520538403412452
 50
118.5140067258426058
 51
159.2190193509985079
  0
ARC
  5
1E2B0
  8
0
 10
4541.6204676302613734
 20
456.2996240758084241
 30
0.0
 40
0.0391354701457199
 50
160.6307896405947133
 51
196.2742641117731068
  0
ARC
  5
1E2B1
  8
0
 10
4541.6744891501921302
 20
456.3014900261902085
 30
0.0
 40
0.0372124262374156
 50
354.1136741571353923
 51
42.4930030283255178
  0
ARC
  5
1E2B2
  8
0
 10
4541.6446196546421561
 20
456.3218777002466027
 30
0.0
 40
0.0749434054705893
 50
258.3520291649048204
 51
296.3341411079192085
  0
ARC
  5
1E2B3
  8
0
 10
4541.6619283023737808
 20
456.3052024247048166
 30
0.0
 40
0.0501454589013152
 50
318.2745503088498822
 51
351.3650932171677255
  0
ARC
  5
1E2B4
  8
0
 10
4541.6499283329230821
 20
456.3118342721219278
 30
0.0
 40
0.0635880230355003
 50
296.0616296533335117
 51
321.0121539920554028
  0
ARC
  5
1E2B5
  8
0
 10
4541.6331955849946098
 20
456.3027672969213882
 30
0.0
 40
0.0522371649301908
 50
195.6714856847004
 51
234.3431815742341939
  0
ARC
  5
1E2B6
  8
0
 10
4541.6426502021868146
 20
456.3143037708819065
 30
0.0
 40
0.0671290110594136
 50
233.5262102054554987
 51
258.693210647233002
  0
ARC
  5
1E2B7
  8
0
 10
4541.676815861025716
 20
456.3343985375923921
 30
0.0
 40
0.0397372116848125
 50
351.1299268265198066
 51
24.5684655756455115
  0
ARC
  5
1E2B8
  8
0
 10
4541.6159399132384351
 20
456.3290428213654195
 30
0.0
 40
0.0387825835369923
 50
142.9047412184092991
 51
187.7806811467715988
  0
ARC
  5
1E2B9
  8
0
 10
4541.6666900068030372
 20
456.329501269079401
 30
0.0
 40
0.0509830930910215
 50
24.8424132501217017
 51
61.4429734385638966
  0
ARC
  5
1E2BA
  8
0
 10
4541.65107364994401
 20
456.3027352944180848
 30
0.0
 40
0.0819630836418835
 50
60.7988095624159683
 51
92.8953279458824142
  0
ARC
  5
1E2BB
  8
0
 10
4541.6466451655523997
 20
456.3094435975963847
 30
0.0
 40
0.0751507063047371
 50
89.7801153743121745
 51
145.1060777525250103
  0
LINE
  5
1E2BC
  8
0
 10
4541.7160778371016931
 20
456.32827128476589
 30
0.0
 11
4541.7115053672587237
 21
456.2976737006442249
 31
0.0
  0
LINE
  5
1E2BD
  8
0
 10
4541.5775143857690637
 20
456.3237923302144168
 30
0.0
 11
4541.5815567198105782
 21
456.2954376607033282
 31
0.0
  0
ARC
  5
1E2BE
  8
0
 10
4541.5959692365877345
 20
456.1177798731245048
 30
0.0
 40
0.0183488800954237
 50
20.5097716776159089
 51
96.7395622722456068
  0
ARC
  5
1E2BF
  8
0
 10
4541.5937646516040331
 20
456.1149519874658722
 30
0.0
 40
0.021050034615198
 50
89.8605715530883344
 51
152.1385859595334011
  0
ARC
  5
1E2C0
  8
0
 10
4541.6003468998060271
 20
456.1209106852869013
 30
0.0
 40
0.013225925883269
 50
309.2335549724788279
 51
14.4397119735513808
  0
ARC
  5
1E2C1
  8
0
 10
4541.5936747255318551
 20
456.1281020282484064
 30
0.0
 40
0.0230245325582532
 50
266.7083856117271239
 51
310.7758232709181243
  0
ARC
  5
1E2C2
  8
0
 10
4541.59237135568128
 20
456.1251932864719834
 30
0.0
 40
0.020077814279551
 50
221.8173595669474025
 51
269.9467766207221189
  0
ARC
  5
1E2C3
  8
0
 10
4541.5869092479206302
 20
456.120142238664414
 30
0.0
 40
0.0126398129162412
 50
158.4286082417297052
 51
221.2620224212884921
  0
ARC
  5
1E2C4
  8
0
 10
4541.6010740495603386
 20
456.1189154766001934
 30
0.0
 40
0.0636819151784016
 50
39.6712700158723877
 51
79.9594191144928459
  0
ARC
  5
1E2C5
  8
0
 10
4541.5956418476962426
 20
456.1013582564858098
 30
0.0
 40
0.0819472914912455
 50
78.3598643871986553
 51
119.3077313164802007
  0
ARC
  5
1E2C6
  8
0
 10
4541.5803777669034389
 20
456.127076826917687
 30
0.0
 40
0.0520538403412452
 50
118.5140067258426058
 51
159.2190193509985079
  0
ARC
  5
1E2C7
  8
0
 10
4541.5686308094846027
 20
456.1325659102971031
 30
0.0
 40
0.0391354701457199
 50
160.6307896405947133
 51
196.2742641117731068
  0
ARC
  5
1E2C8
  8
0
 10
4541.6226523294180879
 20
456.1344318606788875
 30
0.0
 40
0.0372124262374156
 50
354.1136741571353923
 51
42.4930030283255178
  0
ARC
  5
1E2C9
  8
0
 10
4541.5927828338681138
 20
456.1548195347352816
 30
0.0
 40
0.0749434054705893
 50
258.3520291649048204
 51
296.3341411079192085
  0
ARC
  5
1E2CA
  8
0
 10
4541.6100914815997385
 20
456.1381442591934956
 30
0.0
 40
0.0501454589013152
 50
318.2745503088498822
 51
351.3650932171677255
  0
ARC
  5
1E2CB
  8
0
 10
4541.5980915121481303
 20
456.1447761066106068
 30
0.0
 40
0.0635880230355003
 50
296.0616296533335117
 51
321.0121539920554028
  0
ARC
  5
1E2CC
  8
0
 10
4541.5813587642187485
 20
456.135709131410124
 30
0.0
 40
0.0522371649301908
 50
195.6714856847004
 51
234.3431815742341939
  0
ARC
  5
1E2CD
  8
0
 10
4541.5908133814127723
 20
456.1472456053705855
 30
0.0
 40
0.0671290110594136
 50
233.5262102054554987
 51
258.693210647233002
  0
ARC
  5
1E2CE
  8
0
 10
4541.6249790402516737
 20
456.167340372081128
 30
0.0
 40
0.0397372116848125
 50
351.1299268265198066
 51
24.5684655756455115
  0
ARC
  5
1E2CF
  8
0
 10
4541.5641030924616643
 20
456.1619846558539848
 30
0.0
 40
0.0387825835369923
 50
142.9047412184092991
 51
187.7806811467715988
  0
ARC
  5
1E2D0
  8
0
 10
4541.6148531860280855
 20
456.16244310356808
 30
0.0
 40
0.0509830930910215
 50
24.8424132501217017
 51
61.4429734385638966
  0
ARC
  5
1E2D1
  8
0
 10
4541.5992368291699677
 20
456.1356771289068206
 30
0.0
 40
0.0819630836418835
 50
60.7988095624159683
 51
92.8953279458824142
  0
ARC
  5
1E2D2
  8
0
 10
4541.5948083447774479
 20
456.1423854320850069
 30
0.0
 40
0.0751507063047371
 50
89.7801153743121745
 51
145.1060777525250103
  0
LINE
  5
1E2D3
  8
0
 10
4541.6642410163258319
 20
456.1612131192545121
 30
0.0
 11
4541.6596685464828624
 21
456.1306155351329039
 31
0.0
  0
LINE
  5
1E2D4
  8
0
 10
4541.5256775649941119
 20
456.1567341647030958
 30
0.0
 11
4541.5297198990356264
 21
456.1283794951920072
 31
0.0
  0
ARC
  5
1E2D5
  8
0
 10
4541.1060186395961864
 20
456.1335864137881231
 30
0.0
 40
0.0183488800954237
 50
20.5097716776159089
 51
96.7395622722456068
  0
ARC
  5
1E2D6
  8
0
 10
4541.1038140546115756
 20
456.1307585281296042
 30
0.0
 40
0.021050034615198
 50
89.8605715530883344
 51
152.1385859595334011
  0
ARC
  5
1E2D7
  8
0
 10
4541.1103963028135695
 20
456.1367172259505764
 30
0.0
 40
0.013225925883269
 50
309.2335549724788279
 51
14.4397119735513808
  0
ARC
  5
1E2D8
  8
0
 10
4541.1037241285393975
 20
456.1439085689120247
 30
0.0
 40
0.0230245325582532
 50
266.7083856117271239
 51
310.7758232709181243
  0
ARC
  5
1E2D9
  8
0
 10
4541.1024207586888224
 20
456.1409998271356017
 30
0.0
 40
0.020077814279551
 50
221.8173595669474025
 51
269.9467766207221189
  0
ARC
  5
1E2DA
  8
0
 10
4541.0969586509272631
 20
456.1359487793280891
 30
0.0
 40
0.0126398129162412
 50
158.4286082417297052
 51
221.2620224212884921
  0
ARC
  5
1E2DB
  8
0
 10
4541.111123452567881
 20
456.1347220172639254
 30
0.0
 40
0.0636819151784016
 50
39.6712700158723877
 51
79.9594191144928459
  0
ARC
  5
1E2DC
  8
0
 10
4541.1056912507028755
 20
456.1171647971494849
 30
0.0
 40
0.0819472914912455
 50
78.3598643871986553
 51
119.3077313164802007
  0
ARC
  5
1E2DD
  8
0
 10
4541.0904271699109813
 20
456.1428833675813053
 30
0.0
 40
0.0520538403412452
 50
118.5140067258426058
 51
159.2190193509985079
  0
ARC
  5
1E2DE
  8
0
 10
4541.0786802124930546
 20
456.1483724509607782
 30
0.0
 40
0.0391354701457199
 50
160.6307896405947133
 51
196.2742641117731068
  0
ARC
  5
1E2DF
  8
0
 10
4541.1327017324247208
 20
456.1502384013425058
 30
0.0
 40
0.0372124262374156
 50
354.1136741571353923
 51
42.4930030283255178
  0
ARC
  5
1E2E0
  8
0
 10
4541.1028322368756562
 20
456.1706260753990136
 30
0.0
 40
0.0749434054705893
 50
258.3520291649048204
 51
296.3341411079192085
  0
ARC
  5
1E2E1
  8
0
 10
4541.1201408846072809
 20
456.1539507998572276
 30
0.0
 40
0.0501454589013152
 50
318.2745503088498822
 51
351.3650932171677255
  0
ARC
  5
1E2E2
  8
0
 10
4541.1081409151547632
 20
456.1605826472742251
 30
0.0
 40
0.0635880230355003
 50
296.0616296533335117
 51
321.0121539920554028
  0
ARC
  5
1E2E3
  8
0
 10
4541.091408167226291
 20
456.1515156720736854
 30
0.0
 40
0.0522371649301908
 50
195.6714856847004
 51
234.3431815742341939
  0
ARC
  5
1E2E4
  8
0
 10
4541.1008627844203147
 20
456.1630521460343175
 30
0.0
 40
0.0671290110594136
 50
233.5262102054554987
 51
258.693210647233002
  0
ARC
  5
1E2E5
  8
0
 10
4541.1350284432592161
 20
456.1831469127448031
 30
0.0
 40
0.0397372116848125
 50
351.1299268265198066
 51
24.5684655756455115
  0
ARC
  5
1E2E6
  8
0
 10
4541.0741524954701163
 20
456.1777911965177168
 30
0.0
 40
0.0387825835369923
 50
142.9047412184092991
 51
187.7806811467715988
  0
ARC
  5
1E2E7
  8
0
 10
4541.1249025890347184
 20
456.1782496442316983
 30
0.0
 40
0.0509830930910215
 50
24.8424132501217017
 51
61.4429734385638966
  0
ARC
  5
1E2E8
  8
0
 10
4541.1092862321766006
 20
456.1514836695703821
 30
0.0
 40
0.0819630836418835
 50
60.7988095624159683
 51
92.8953279458824142
  0
ARC
  5
1E2E9
  8
0
 10
4541.1048577477849904
 20
456.1581919727487957
 30
0.0
 40
0.0751507063047371
 50
89.7801153743121745
 51
145.1060777525250103
  0
LINE
  5
1E2EA
  8
0
 10
4541.1742904193342838
 20
456.1770196599183009
 30
0.0
 11
4541.1697179494913144
 21
456.1464220757965222
 31
0.0
  0
LINE
  5
1E2EB
  8
0
 10
4541.0357269680016543
 20
456.1725407053668278
 30
0.0
 11
4541.0397693020431689
 21
456.144186035855796
 31
0.0
  0
ARC
  5
1E2EC
  8
0
 10
4541.3974469423628761
 20
456.1906575036642266
 30
0.0
 40
0.0183488800954237
 50
20.5097716776159089
 51
96.7395622722456068
  0
ARC
  5
1E2ED
  8
0
 10
4541.3952423573800843
 20
456.1878296180055941
 30
0.0
 40
0.021050034615198
 50
89.8605715530883344
 51
152.1385859595334011
  0
ARC
  5
1E2EE
  8
0
 10
4541.4018246055811687
 20
456.1937883158266231
 30
0.0
 40
0.013225925883269
 50
309.2335549724788279
 51
14.4397119735513808
  0
ARC
  5
1E2EF
  8
0
 10
4541.3951524313069967
 20
456.2009796587881283
 30
0.0
 40
0.0230245325582532
 50
266.7083856117271239
 51
310.7758232709181243
  0
ARC
  5
1E2F0
  8
0
 10
4541.3938490614564216
 20
456.1980709170117052
 30
0.0
 40
0.020077814279551
 50
221.8173595669474025
 51
269.9467766207221189
  0
ARC
  5
1E2F1
  8
0
 10
4541.3883869536957718
 20
456.1930198692041927
 30
0.0
 40
0.0126398129162412
 50
158.4286082417297052
 51
221.2620224212884921
  0
ARC
  5
1E2F2
  8
0
 10
4541.4025517553345708
 20
456.1917931071399153
 30
0.0
 40
0.0636819151784016
 50
39.6712700158723877
 51
79.9594191144928459
  0
ARC
  5
1E2F3
  8
0
 10
4541.3971195534713843
 20
456.1742358870255885
 30
0.0
 40
0.0819472914912455
 50
78.3598643871986553
 51
119.3077313164802007
  0
ARC
  5
1E2F4
  8
0
 10
4541.3818554726776711
 20
456.1999544574574088
 30
0.0
 40
0.0520538403412452
 50
118.5140067258426058
 51
159.2190193509985079
  0
ARC
  5
1E2F5
  8
0
 10
4541.3701085152615633
 20
456.2054435408368818
 30
0.0
 40
0.0391354701457199
 50
160.6307896405947133
 51
196.2742641117731068
  0
ARC
  5
1E2F6
  8
0
 10
4541.4241300351932296
 20
456.2073094912186093
 30
0.0
 40
0.0372124262374156
 50
354.1136741571353923
 51
42.4930030283255178
  0
ARC
  5
1E2F7
  8
0
 10
4541.3942605396432555
 20
456.2276971652750035
 30
0.0
 40
0.0749434054705893
 50
258.3520291649048204
 51
296.3341411079192085
  0
ARC
  5
1E2F8
  8
0
 10
4541.4115691873739706
 20
456.2110218897332174
 30
0.0
 40
0.0501454589013152
 50
318.2745503088498822
 51
351.3650932171677255
  0
ARC
  5
1E2F9
  8
0
 10
4541.3995692179232719
 20
456.2176537371502718
 30
0.0
 40
0.0635880230355003
 50
296.0616296533335117
 51
321.0121539920554028
  0
ARC
  5
1E2FA
  8
0
 10
4541.3828364699938902
 20
456.2085867619499027
 30
0.0
 40
0.0522371649301908
 50
195.6714856847004
 51
234.3431815742341939
  0
ARC
  5
1E2FB
  8
0
 10
4541.3922910871879139
 20
456.2201232359103074
 30
0.0
 40
0.0671290110594136
 50
233.5262102054554987
 51
258.693210647233002
  0
ARC
  5
1E2FC
  8
0
 10
4541.4264567460268154
 20
456.2402180026209066
 30
0.0
 40
0.0397372116848125
 50
351.1299268265198066
 51
24.5684655756455115
  0
ARC
  5
1E2FD
  8
0
 10
4541.365580798236806
 20
456.2348622863938203
 30
0.0
 40
0.0387825835369923
 50
142.9047412184092991
 51
187.7806811467715988
  0
ARC
  5
1E2FE
  8
0
 10
4541.4163308918032271
 20
456.2353207341078019
 30
0.0
 40
0.0509830930910215
 50
24.8424132501217017
 51
61.4429734385638966
  0
ARC
  5
1E2FF
  8
0
 10
4541.4007145349451093
 20
456.2085547594463719
 30
0.0
 40
0.0819630836418835
 50
60.7988095624159683
 51
92.8953279458824142
  0
ARC
  5
1E300
  8
0
 10
4541.3962860505516801
 20
456.2152630626247856
 30
0.0
 40
0.0751507063047371
 50
89.7801153743121745
 51
145.1060777525250103
  0
LINE
  5
1E301
  8
0
 10
4541.4657187221009735
 20
456.2340907497942908
 30
0.0
 11
4541.4611462522589136
 21
456.2034931656726258
 31
0.0
  0
LINE
  5
1E302
  8
0
 10
4541.3271552707692535
 20
456.2296117952428745
 30
0.0
 11
4541.3311976048107681
 21
456.2012571257317859
 31
0.0
  0
ARC
  5
1E303
  8
0
 10
4541.928447696845069
 20
457.0383954632346786
 30
0.0
 40
0.0183488800954237
 50
20.5097716776159089
 51
96.7395622722456068
  0
ARC
  5
1E304
  8
0
 10
4541.9262431118595487
 20
457.0355675775762165
 30
0.0
 40
0.021050034615198
 50
89.8605715530883344
 51
152.1385859595334011
  0
ARC
  5
1E305
  8
0
 10
4541.9328253600633616
 20
457.0415262753971888
 30
0.0
 40
0.013225925883269
 50
309.2335549724788279
 51
14.4397119735513808
  0
ARC
  5
1E306
  8
0
 10
4541.9261531857873706
 20
457.0487176183585802
 30
0.0
 40
0.0230245325582532
 50
266.7083856117271239
 51
310.7758232709181243
  0
ARC
  5
1E307
  8
0
 10
4541.9248498159367955
 20
457.045808876582214
 30
0.0
 40
0.020077814279551
 50
221.8173595669474025
 51
269.9467766207221189
  0
ARC
  5
1E308
  8
0
 10
4541.9193877081770552
 20
457.0407578287747015
 30
0.0
 40
0.0126398129162412
 50
158.4286082417297052
 51
221.2620224212884921
  0
ARC
  5
1E309
  8
0
 10
4541.9335525098158541
 20
457.0395310667104809
 30
0.0
 40
0.0636819151784016
 50
39.6712700158723877
 51
79.9594191144928459
  0
ARC
  5
1E30A
  8
0
 10
4541.9281203079526676
 20
457.0219738465960972
 30
0.0
 40
0.0819472914912455
 50
78.3598643871986553
 51
119.3077313164802007
  0
ARC
  5
1E30B
  8
0
 10
4541.923706074254369
 20
457.0341448749799156
 30
0.0
 40
0.0692054748715547
 50
121.053640812415793
 51
159.5705153233159876
  0
ARC
  5
1E30C
  8
0
 10
4541.9625954922203164
 20
457.0688151706114013
 30
0.0
 40
0.1042734459061551
 50
185.7869307536844872
 51
195.0758553423519004
  0
ARC
  5
1E30D
  8
0
 10
4541.9513744661708188
 20
457.0553175907541004
 30
0.0
 40
0.039893680271318
 50
352.0983577134538223
 51
38.5595944690728771
  0
ARC
  5
1E30E
  8
0
 10
4541.9252612941236293
 20
457.075435124845626
 30
0.0
 40
0.0749434054705893
 50
258.3520291649048204
 51
296.3341411079192085
  0
ARC
  5
1E30F
  8
0
 10
4541.9382114590744095
 20
457.0586544145554058
 30
0.0
 40
0.0534113777044157
 50
321.4724307094870142
 51
350.4937947362869863
  0
ARC
  5
1E310
  8
0
 10
4541.9305699724045553
 20
457.0653916967207806
 30
0.0
 40
0.0635880230355003
 50
296.0616296533335117
 51
321.0121539920554028
  0
ARC
  5
1E311
  8
0
 10
4541.9289176784986921
 20
457.0712351904492152
 30
0.0
 40
0.0732297553169024
 50
203.7912547386845858
 51
231.5555462473232922
  0
ARC
  5
1E312
  8
0
 10
4541.9232918416682878
 20
457.067861195480873
 30
0.0
 40
0.0671290110594136
 50
233.5262102054554987
 51
258.693210647233002
  0
ARC
  5
1E313
  8
0
 10
4541.9360449740943295
 20
457.0863404879680729
 30
0.0
 40
0.059639013839682
 50
351.3367664746845094
 51
17.4150249028249213
  0
ARC
  5
1E314
  8
0
 10
4541.9000561701013794
 20
457.0769770208950717
 30
0.0
 40
0.0435820596022435
 50
150.2070925218453112
 51
191.6800020986487993
  0
ARC
  5
1E315
  8
0
 10
4541.9522452662768046
 20
457.0897811524250187
 30
0.0
 40
0.0431799462933523
 50
19.4929539609399782
 51
62.8018191982569931
  0
ARC
  5
1E316
  8
0
 10
4541.9356615509450421
 20
457.0591791880045207
 30
0.0
 40
0.0779819234275243
 50
62.2413288732654522
 51
95.6247916614802165
  0
ARC
  5
1E317
  8
0
 10
4541.9326527219027412
 20
457.0530072049444925
 30
0.0
 40
0.0839065164153885
 50
93.1662600097518663
 51
147.0606223085065949
  0
LINE
  5
1E318
  8
0
 10
4541.9950035513220428
 20
457.0773572734490813
 30
0.0
 11
4541.9908893768224516
 21
457.0498332893491806
 31
0.0
  0
LINE
  5
1E319
  8
0
 10
4541.8573765411229033
 20
457.0681540288020983
 30
0.0
 11
4541.8603303619329381
 21
457.0484486626028797
 31
0.0
  0
ARC
  5
1E31A
  8
0
 10
4541.9740765305068635
 20
456.8430233685775192
 30
0.0
 40
0.0183488800954237
 50
20.5097716776159089
 51
96.7395622722456068
  0
ARC
  5
1E31B
  8
0
 10
4541.9718719455231621
 20
456.8401954829188867
 30
0.0
 40
0.021050034615198
 50
89.8605715530883344
 51
152.1385859595334011
  0
ARC
  5
1E31C
  8
0
 10
4541.9784541937251561
 20
456.8461541807399158
 30
0.0
 40
0.013225925883269
 50
309.2335549724788279
 51
14.4397119735513808
  0
ARC
  5
1E31D
  8
0
 10
4541.9717820194509841
 20
456.8533455237014209
 30
0.0
 40
0.0230245325582532
 50
266.7083856117271239
 51
310.7758232709181243
  0
ARC
  5
1E31E
  8
0
 10
4541.970478649600409
 20
456.8504367819249978
 30
0.0
 40
0.020077814279551
 50
221.8173595669474025
 51
269.9467766207221189
  0
ARC
  5
1E31F
  8
0
 10
4541.9650165418397592
 20
456.8453857341174853
 30
0.0
 40
0.0126398129162412
 50
158.4286082417297052
 51
221.2620224212884921
  0
ARC
  5
1E320
  8
0
 10
4541.9791813434812866
 20
456.8441589720532079
 30
0.0
 40
0.0636819151784016
 50
39.6712700158723877
 51
79.9594191144928459
  0
ARC
  5
1E321
  8
0
 10
4541.9737491416153716
 20
456.8266017519388811
 30
0.0
 40
0.0819472914912455
 50
78.3598643871986553
 51
119.3077313164802007
  0
ARC
  5
1E322
  8
0
 10
4541.969334907917073
 20
456.8387727803226994
 30
0.0
 40
0.0692054748715547
 50
121.053640812415793
 51
159.5705153233159876
  0
ARC
  5
1E323
  8
0
 10
4542.0082243258839299
 20
456.8734430759541851
 30
0.0
 40
0.1042734459061551
 50
185.7869307536844872
 51
195.0758553423519004
  0
ARC
  5
1E324
  8
0
 10
4541.9970032998362512
 20
456.8599454960968842
 30
0.0
 40
0.039893680271318
 50
352.0983577134538223
 51
38.5595944690728771
  0
ARC
  5
1E325
  8
0
 10
4541.9708901277872428
 20
456.8800630301882961
 30
0.0
 40
0.0749434054705893
 50
258.3520291649048204
 51
296.3341411079192085
  0
ARC
  5
1E326
  8
0
 10
4541.9838402927352945
 20
456.8632823198981896
 30
0.0
 40
0.0534113777044157
 50
321.4724307094870142
 51
350.4937947362869863
  0
ARC
  5
1E327
  8
0
 10
4541.9761988060672593
 20
456.8700196020636213
 30
0.0
 40
0.0635880230355003
 50
296.0616296533335117
 51
321.0121539920554028
  0
ARC
  5
1E328
  8
0
 10
4541.9745465121623056
 20
456.8758630957918854
 30
0.0
 40
0.0732297553169024
 50
203.7912547386845858
 51
231.5555462473232922
  0
ARC
  5
1E329
  8
0
 10
4541.9689206753319013
 20
456.8724891008236
 30
0.0
 40
0.0671290110594136
 50
233.5262102054554987
 51
258.693210647233002
  0
ARC
  5
1E32A
  8
0
 10
4541.9816738077570335
 20
456.8909683933107999
 30
0.0
 40
0.059639013839682
 50
351.3367664746845094
 51
17.4150249028249213
  0
ARC
  5
1E32B
  8
0
 10
4541.9456850037640834
 20
456.8816049262377987
 30
0.0
 40
0.0435820596022435
 50
150.2070925218453112
 51
191.6800020986487993
  0
ARC
  5
1E32C
  8
0
 10
4541.9978740999413276
 20
456.8944090577676889
 30
0.0
 40
0.0431799462933523
 50
19.4929539609399782
 51
62.8018191982569931
  0
ARC
  5
1E32D
  8
0
 10
4541.9812903846068366
 20
456.8638070933471909
 30
0.0
 40
0.0779819234275243
 50
62.2413288732654522
 51
95.6247916614802165
  0
ARC
  5
1E32E
  8
0
 10
4541.9782815555672641
 20
456.8576351102872763
 30
0.0
 40
0.0839065164153885
 50
93.1662600097518663
 51
147.0606223085065949
  0
LINE
  5
1E32F
  8
0
 10
4542.0406323849856562
 20
456.881985178791922
 30
0.0
 11
4542.0365182104851556
 21
456.8544611946919076
 31
0.0
  0
LINE
  5
1E330
  8
0
 10
4541.9030053747874263
 20
456.8727819341448821
 30
0.0
 11
4541.9059591955956421
 21
456.8530765679456067
 31
0.0
  0
ARC
  5
1E331
  8
0
 10
4542.2277571181557505
 20
456.7290660982188797
 30
0.0
 40
0.0183488800954237
 50
20.5097716776159089
 51
96.7395622722456068
  0
ARC
  5
1E332
  8
0
 10
4542.2255525331720492
 20
456.726238212560304
 30
0.0
 40
0.021050034615198
 50
89.8605715530883344
 51
152.1385859595334011
  0
ARC
  5
1E333
  8
0
 10
4542.2321347813731336
 20
456.7321969103812762
 30
0.0
 40
0.013225925883269
 50
309.2335549724788279
 51
14.4397119735513808
  0
ARC
  5
1E334
  8
0
 10
4542.2254626070980521
 20
456.739388253342895
 30
0.0
 40
0.0230245325582532
 50
266.7083856117271239
 51
310.7758232709181243
  0
ARC
  5
1E335
  8
0
 10
4542.224159237249296
 20
456.7364795115664151
 30
0.0
 40
0.020077814279551
 50
221.8173595669474025
 51
269.9467766207221189
  0
ARC
  5
1E336
  8
0
 10
4542.2186971294868272
 20
456.7314284637589026
 30
0.0
 40
0.0126398129162412
 50
158.4286082417297052
 51
221.2620224212884921
  0
ARC
  5
1E337
  8
0
 10
4542.2328619311274451
 20
456.7302017016946252
 30
0.0
 40
0.0636819151784016
 50
39.6712700158723877
 51
79.9594191144928459
  0
ARC
  5
1E338
  8
0
 10
4542.2274297292633491
 20
456.7126444815802984
 30
0.0
 40
0.0819472914912455
 50
78.3598643871986553
 51
119.3077313164802007
  0
ARC
  5
1E339
  8
0
 10
4542.223015495564141
 20
456.7248155099641735
 30
0.0
 40
0.0692054748715547
 50
121.053640812415793
 51
159.5705153233159876
  0
ARC
  5
1E33A
  8
0
 10
4542.2619049135309979
 20
456.7594858055957161
 30
0.0
 40
0.1042734459061551
 50
185.7869307536844872
 51
195.0758553423519004
  0
ARC
  5
1E33B
  8
0
 10
4542.2506838874833193
 20
456.7459882257383015
 30
0.0
 40
0.039893680271318
 50
352.0983577134538223
 51
38.5595944690728771
  0
ARC
  5
1E33C
  8
0
 10
4542.2245707154352203
 20
456.7661057598298271
 30
0.0
 40
0.0749434054705893
 50
258.3520291649048204
 51
296.3341411079192085
  0
ARC
  5
1E33D
  8
0
 10
4542.2375208803841815
 20
456.7493250495396069
 30
0.0
 40
0.0534113777044157
 50
321.4724307094870142
 51
350.4937947362869863
  0
ARC
  5
1E33E
  8
0
 10
4542.2298793937152368
 20
456.7560623317049817
 30
0.0
 40
0.0635880230355003
 50
296.0616296533335117
 51
321.0121539920554028
  0
ARC
  5
1E33F
  8
0
 10
4542.2282270998102831
 20
456.7619058254333027
 30
0.0
 40
0.0732297553169024
 50
203.7912547386845858
 51
231.5555462473232922
  0
ARC
  5
1E340
  8
0
 10
4542.2226012629798788
 20
456.7585318304650173
 30
0.0
 40
0.0671290110594136
 50
233.5262102054554987
 51
258.693210647233002
  0
ARC
  5
1E341
  8
0
 10
4542.2353543954059205
 20
456.7770111229522172
 30
0.0
 40
0.059639013839682
 50
351.3367664746845094
 51
17.4150249028249213
  0
ARC
  5
1E342
  8
0
 10
4542.1993655914129704
 20
456.767647655879216
 30
0.0
 40
0.0435820596022435
 50
150.2070925218453112
 51
191.6800020986487993
  0
ARC
  5
1E343
  8
0
 10
4542.2515546875893051
 20
456.7804517874091061
 30
0.0
 40
0.0431799462933523
 50
19.4929539609399782
 51
62.8018191982569931
  0
ARC
  5
1E344
  8
0
 10
4542.2349709722557236
 20
456.7498498229887218
 30
0.0
 40
0.0779819234275243
 50
62.2413288732654522
 51
95.6247916614802165
  0
ARC
  5
1E345
  8
0
 10
4542.2319621432152417
 20
456.7436778399286936
 30
0.0
 40
0.0839065164153885
 50
93.1662600097518663
 51
147.0606223085065949
  0
LINE
  5
1E346
  8
0
 10
4542.2943129726318148
 20
456.7680279084333961
 30
0.0
 11
4542.2901987981331331
 21
456.7405039243333249
 31
0.0
  0
LINE
  5
1E347
  8
0
 10
4542.1566859624335848
 20
456.7588246637864131
 30
0.0
 11
4542.1596397832427101
 21
456.739119297587024
 31
0.0
  0
ARC
  5
1E348
  8
0
 10
4541.6867538298047293
 20
456.5604789243232062
 30
0.0
 40
0.0183488800954237
 50
20.5097716776159089
 51
96.7395622722456068
  0
ARC
  5
1E349
  8
0
 10
4541.6845492448201185
 20
456.5576510386645737
 30
0.0
 40
0.021050034615198
 50
89.8605715530883344
 51
152.1385859595334011
  0
ARC
  5
1E34A
  8
0
 10
4541.6911314930221124
 20
456.5636097364857164
 30
0.0
 40
0.013225925883269
 50
309.2335549724788279
 51
14.4397119735513808
  0
ARC
  5
1E34B
  8
0
 10
4541.6844593187470309
 20
456.5708010794472216
 30
0.0
 40
0.0230245325582532
 50
266.7083856117271239
 51
310.7758232709181243
  0
ARC
  5
1E34C
  8
0
 10
4541.6831559488955463
 20
456.5678923376706848
 30
0.0
 40
0.020077814279551
 50
221.8173595669474025
 51
269.9467766207221189
  0
ARC
  5
1E34D
  8
0
 10
4541.677693841135806
 20
456.5628412898631723
 30
0.0
 40
0.0126398129162412
 50
158.4286082417297052
 51
221.2620224212884921
  0
ARC
  5
1E34E
  8
0
 10
4541.6918586427764239
 20
456.5616145277988949
 30
0.0
 40
0.0636819151784016
 50
39.6712700158723877
 51
79.9594191144928459
  0
ARC
  5
1E34F
  8
0
 10
4541.686426440912328
 20
456.5440573076846817
 30
0.0
 40
0.0819472914912455
 50
78.3598643871986553
 51
119.3077313164802007
  0
ARC
  5
1E350
  8
0
 10
4541.6820122072131198
 20
456.5562283360685001
 30
0.0
 40
0.0692054748715547
 50
121.053640812415793
 51
159.5705153233159876
  0
ARC
  5
1E351
  8
0
 10
4541.7209016251799767
 20
456.5908986316999858
 30
0.0
 40
0.1042734459061551
 50
185.7869307536844872
 51
195.0758553423519004
  0
ARC
  5
1E352
  8
0
 10
4541.7096805991313886
 20
456.577401051842628
 30
0.0
 40
0.039893680271318
 50
352.0983577134538223
 51
38.5595944690728771
  0
ARC
  5
1E353
  8
0
 10
4541.6835674270841992
 20
456.5975185859342105
 30
0.0
 40
0.0749434054705893
 50
258.3520291649048204
 51
296.3341411079192085
  0
ARC
  5
1E354
  8
0
 10
4541.6965175920331603
 20
456.5807378756438766
 30
0.0
 40
0.0534113777044157
 50
321.4724307094870142
 51
350.4937947362869863
  0
ARC
  5
1E355
  8
0
 10
4541.6888761053633061
 20
456.5874751578093083
 30
0.0
 40
0.0635880230355003
 50
296.0616296533335117
 51
321.0121539920554028
  0
ARC
  5
1E356
  8
0
 10
4541.6872238114592619
 20
456.5933186515375724
 30
0.0
 40
0.0732297553169024
 50
203.7912547386845858
 51
231.5555462473232922
  0
ARC
  5
1E357
  8
0
 10
4541.6815979746288576
 20
456.589944656569287
 30
0.0
 40
0.0671290110594136
 50
233.5262102054554987
 51
258.693210647233002
  0
ARC
  5
1E358
  8
0
 10
4541.6943511070548993
 20
456.6084239490566006
 30
0.0
 40
0.059639013839682
 50
351.3367664746845094
 51
17.4150249028249213
  0
ARC
  5
1E359
  8
0
 10
4541.6583623030610397
 20
456.5990604819834857
 30
0.0
 40
0.0435820596022435
 50
150.2070925218453112
 51
191.6800020986487993
  0
ARC
  5
1E35A
  8
0
 10
4541.7105513992373744
 20
456.6118646135134895
 30
0.0
 40
0.0431799462933523
 50
19.4929539609399782
 51
62.8018191982569931
  0
ARC
  5
1E35B
  8
0
 10
4541.6939676839037929
 20
456.5812626490929915
 30
0.0
 40
0.0779819234275243
 50
62.2413288732654522
 51
95.6247916614802165
  0
ARC
  5
1E35C
  8
0
 10
4541.690958854863311
 20
456.575090666033077
 30
0.0
 40
0.0839065164153885
 50
93.1662600097518663
 51
147.0606223085065949
  0
LINE
  5
1E35D
  8
0
 10
4541.7533096842807936
 20
456.5994407345377226
 30
0.0
 11
4541.7491955097821119
 21
456.5719167504377083
 31
0.0
  0
LINE
  5
1E35E
  8
0
 10
4541.6156826740825636
 20
456.5902374898906828
 30
0.0
 11
4541.6186364948916889
 21
456.5705321236912937
 31
0.0
  0
ARC
  5
1E35F
  8
0
 10
4541.9614949635397352
 20
456.6282891555085826
 30
0.0
 40
0.0183488800954237
 50
20.5097716776159089
 51
96.7395622722456068
  0
ARC
  5
1E360
  8
0
 10
4541.9592903785560338
 20
456.6254612698500068
 30
0.0
 40
0.021050034615198
 50
89.8605715530883344
 51
152.1385859595334011
  0
ARC
  5
1E361
  8
0
 10
4541.9658726267571183
 20
456.6314199676709791
 30
0.0
 40
0.013225925883269
 50
309.2335549724788279
 51
14.4397119735513808
  0
ARC
  5
1E362
  8
0
 10
4541.9592004524829463
 20
456.6386113106324842
 30
0.0
 40
0.0230245325582532
 50
266.7083856117271239
 51
310.7758232709181243
  0
ARC
  5
1E363
  8
0
 10
4541.9578970826323712
 20
456.635702568856118
 30
0.0
 40
0.020077814279551
 50
221.8173595669474025
 51
269.9467766207221189
  0
ARC
  5
1E364
  8
0
 10
4541.9524349748726308
 20
456.6306515210486054
 30
0.0
 40
0.0126398129162412
 50
158.4286082417297052
 51
221.2620224212884921
  0
ARC
  5
1E365
  8
0
 10
4541.9665997765123393
 20
456.629424758984328
 30
0.0
 40
0.0636819151784016
 50
39.6712700158723877
 51
79.9594191144928459
  0
ARC
  5
1E366
  8
0
 10
4541.9611675746482433
 20
456.6118675388700012
 30
0.0
 40
0.0819472914912455
 50
78.3598643871986553
 51
119.3077313164802007
  0
ARC
  5
1E367
  8
0
 10
4541.9567533409499447
 20
456.6240385672538764
 30
0.0
 40
0.0692054748715547
 50
121.053640812415793
 51
159.5705153233159876
  0
ARC
  5
1E368
  8
0
 10
4541.995642758915892
 20
456.658708862885419
 30
0.0
 40
0.1042734459061551
 50
185.7869307536844872
 51
195.0758553423519004
  0
ARC
  5
1E369
  8
0
 10
4541.9844217328673039
 20
456.6452112830280043
 30
0.0
 40
0.039893680271318
 50
352.0983577134538223
 51
38.5595944690728771
  0
ARC
  5
1E36A
  8
0
 10
4541.958308560819205
 20
456.6653288171194163
 30
0.0
 40
0.0749434054705893
 50
258.3520291649048204
 51
296.3341411079192085
  0
ARC
  5
1E36B
  8
0
 10
4541.9712587257690757
 20
456.6485481068294234
 30
0.0
 40
0.0534113777044157
 50
321.4724307094870142
 51
350.4937947362869863
  0
ARC
  5
1E36C
  8
0
 10
4541.963617239100131
 20
456.6552853889946846
 30
0.0
 40
0.0635880230355003
 50
296.0616296533335117
 51
321.0121539920554028
  0
ARC
  5
1E36D
  8
0
 10
4541.9619649451951773
 20
456.6611288827230055
 30
0.0
 40
0.0732297553169024
 50
203.7912547386845858
 51
231.5555462473232922
  0
ARC
  5
1E36E
  8
0
 10
4541.956339108364773
 20
456.6577548877547201
 30
0.0
 40
0.0671290110594136
 50
233.5262102054554987
 51
258.693210647233002
  0
ARC
  5
1E36F
  8
0
 10
4541.9690922407899052
 20
456.6762341802419201
 30
0.0
 40
0.059639013839682
 50
351.3367664746845094
 51
17.4150249028249213
  0
ARC
  5
1E370
  8
0
 10
4541.9331034367969551
 20
456.6668707131689189
 30
0.0
 40
0.0435820596022435
 50
150.2070925218453112
 51
191.6800020986487993
  0
ARC
  5
1E371
  8
0
 10
4541.9852925329732898
 20
456.679674844698809
 30
0.0
 40
0.0431799462933523
 50
19.4929539609399782
 51
62.8018191982569931
  0
ARC
  5
1E372
  8
0
 10
4541.9687088176397083
 20
456.6490728802784247
 30
0.0
 40
0.0779819234275243
 50
62.2413288732654522
 51
95.6247916614802165
  0
ARC
  5
1E373
  8
0
 10
4541.9656999885992263
 20
456.6429008972185102
 30
0.0
 40
0.0839065164153885
 50
93.1662600097518663
 51
147.0606223085065949
  0
LINE
  5
1E374
  8
0
 10
4542.0280508180167089
 20
456.6672509657229853
 30
0.0
 11
4542.0239366435180273
 21
456.6397269816230278
 31
0.0
  0
LINE
  5
1E375
  8
0
 10
4541.8904238078193885
 20
456.658047721076116
 30
0.0
 11
4541.8933776286276043
 21
456.6383423548767269
 31
0.0
  0
ARC
  5
1E376
  8
0
 10
4541.8357787506538443
 20
456.4519634676934743
 30
0.0
 40
0.0183488800954237
 50
20.5097716776159089
 51
96.7395622722456068
  0
ARC
  5
1E377
  8
0
 10
4541.8335741656710525
 20
456.4491355820348986
 30
0.0
 40
0.021050034615198
 50
89.8605715530883344
 51
152.1385859595334011
  0
ARC
  5
1E378
  8
0
 10
4541.8401564138712274
 20
456.4550942798559277
 30
0.0
 40
0.013225925883269
 50
309.2335549724788279
 51
14.4397119735513808
  0
ARC
  5
1E379
  8
0
 10
4541.8334842395970554
 20
456.462285622817376
 30
0.0
 40
0.0230245325582532
 50
266.7083856117271239
 51
310.7758232709181243
  0
ARC
  5
1E37A
  8
0
 10
4541.8321808697455708
 20
456.459376881040896
 30
0.0
 40
0.020077814279551
 50
221.8173595669474025
 51
269.9467766207221189
  0
ARC
  5
1E37B
  8
0
 10
4541.8267187619858305
 20
456.4543258332333835
 30
0.0
 40
0.0126398129162412
 50
158.4286082417297052
 51
221.2620224212884921
  0
ARC
  5
1E37C
  8
0
 10
4541.8408835636246295
 20
456.4530990711692198
 30
0.0
 40
0.0636819151784016
 50
39.6712700158723877
 51
79.9594191144928459
  0
ARC
  5
1E37D
  8
0
 10
4541.8354513617623525
 20
456.4355418510547793
 30
0.0
 40
0.0819472914912455
 50
78.3598643871986553
 51
119.3077313164802007
  0
ARC
  5
1E37E
  8
0
 10
4541.8310371280631443
 20
456.4477128794387113
 30
0.0
 40
0.0692054748715547
 50
121.053640812415793
 51
159.5705153233159876
  0
ARC
  5
1E37F
  8
0
 10
4541.8699265460290917
 20
456.482383175070197
 30
0.0
 40
0.1042734459061551
 50
185.7869307536844872
 51
195.0758553423519004
  0
ARC
  5
1E380
  8
0
 10
4541.8587055199814131
 20
456.4688855952127824
 30
0.0
 40
0.039893680271318
 50
352.0983577134538223
 51
38.5595944690728771
  0
ARC
  5
1E381
  8
0
 10
4541.8325923479333142
 20
456.489003129304308
 30
0.0
 40
0.0749434054705893
 50
258.3520291649048204
 51
296.3341411079192085
  0
ARC
  5
1E382
  8
0
 10
4541.8455425128822753
 20
456.4722224190140878
 30
0.0
 40
0.0534113777044157
 50
321.4724307094870142
 51
350.4937947362869863
  0
ARC
  5
1E383
  8
0
 10
4541.8379010262133306
 20
456.4789597011795763
 30
0.0
 40
0.0635880230355003
 50
296.0616296533335117
 51
321.0121539920554028
  0
ARC
  5
1E384
  8
0
 10
4541.8362487323083769
 20
456.4848031949078973
 30
0.0
 40
0.0732297553169024
 50
203.7912547386845858
 51
231.5555462473232922
  0
ARC
  5
1E385
  8
0
 10
4541.8306228954779726
 20
456.4814291999396119
 30
0.0
 40
0.0671290110594136
 50
233.5262102054554987
 51
258.693210647233002
  0
ARC
  5
1E386
  8
0
 10
4541.8433760279040143
 20
456.4999084924266981
 30
0.0
 40
0.059639013839682
 50
351.3367664746845094
 51
17.4150249028249213
  0
ARC
  5
1E387
  8
0
 10
4541.8073872239110642
 20
456.4905450253536969
 30
0.0
 40
0.0435820596022435
 50
150.2070925218453112
 51
191.6800020986487993
  0
ARC
  5
1E388
  8
0
 10
4541.8595763200883084
 20
456.5033491568835871
 30
0.0
 40
0.0431799462933523
 50
19.4929539609399782
 51
62.8018191982569931
  0
ARC
  5
1E389
  8
0
 10
4541.8429926047529079
 20
456.4727471924632027
 30
0.0
 40
0.0779819234275243
 50
62.2413288732654522
 51
95.6247916614802165
  0
ARC
  5
1E38A
  8
0
 10
4541.8399837757133355
 20
456.4665752094031745
 30
0.0
 40
0.0839065164153885
 50
93.1662600097518663
 51
147.0606223085065949
  0
LINE
  5
1E38B
  8
0
 10
4541.9023346051308181
 20
456.490925277907877
 30
0.0
 11
4541.8982204306303174
 21
456.4634012938078058
 31
0.0
  0
LINE
  5
1E38C
  8
0
 10
4541.7647075949316786
 20
456.4817220332607803
 30
0.0
 11
4541.7676614157408039
 21
456.4620166670616186
 31
0.0
  0
ARC
  5
1E38D
  8
0
 10
4542.1820623766761855
 20
456.2782945561469887
 30
0.0
 40
0.0183488800954237
 50
20.5097716776159089
 51
96.7395622722456068
  0
ARC
  5
1E38E
  8
0
 10
4542.1798577916906652
 20
456.275466670488413
 30
0.0
 40
0.021050034615198
 50
89.8605715530883344
 51
152.1385859595334011
  0
ARC
  5
1E38F
  8
0
 10
4542.1864400398935686
 20
456.2814253683094989
 30
0.0
 40
0.013225925883269
 50
309.2335549724788279
 51
14.4397119735513808
  0
ARC
  5
1E390
  8
0
 10
4542.1797678656193966
 20
456.2886167112708904
 30
0.0
 40
0.0230245325582532
 50
266.7083856117271239
 51
310.7758232709181243
  0
ARC
  5
1E391
  8
0
 10
4542.178464495767912
 20
456.2857079694945241
 30
0.0
 40
0.020077814279551
 50
221.8173595669474025
 51
269.9467766207221189
  0
ARC
  5
1E392
  8
0
 10
4542.1730023880081717
 20
456.2806569216870116
 30
0.0
 40
0.0126398129162412
 50
158.4286082417297052
 51
221.2620224212884921
  0
ARC
  5
1E393
  8
0
 10
4542.1871671896478802
 20
456.2794301596226774
 30
0.0
 40
0.0636819151784016
 50
39.6712700158723877
 51
79.9594191144928459
  0
ARC
  5
1E394
  8
0
 10
4542.1817349877837842
 20
456.2618729395084074
 30
0.0
 40
0.0819472914912455
 50
78.3598643871986553
 51
119.3077313164802007
  0
ARC
  5
1E395
  8
0
 10
4542.177320754086395
 20
456.2740439678922826
 30
0.0
 40
0.0692054748715547
 50
121.053640812415793
 51
159.5705153233159876
  0
ARC
  5
1E396
  8
0
 10
4542.2162101720523424
 20
456.3087142635238251
 30
0.0
 40
0.1042734459061551
 50
185.7869307536844872
 51
195.0758553423519004
  0
ARC
  5
1E397
  8
0
 10
4542.2049891460028448
 20
456.2952166836664105
 30
0.0
 40
0.039893680271318
 50
352.0983577134538223
 51
38.5595944690728771
  0
ARC
  5
1E398
  8
0
 10
4542.1788759739547459
 20
456.3153342177578793
 30
0.0
 40
0.0749434054705893
 50
258.3520291649048204
 51
296.3341411079192085
  0
ARC
  5
1E399
  8
0
 10
4542.191826138903707
 20
456.2985535074677728
 30
0.0
 40
0.0534113777044157
 50
321.4724307094870142
 51
350.4937947362869863
  0
ARC
  5
1E39A
  8
0
 10
4542.1841846522347623
 20
456.3052907896330908
 30
0.0
 40
0.0635880230355003
 50
296.0616296533335117
 51
321.0121539920554028
  0
ARC
  5
1E39B
  8
0
 10
4542.1825323583307181
 20
456.3111342833614117
 30
0.0
 40
0.0732297553169024
 50
203.7912547386845858
 51
231.5555462473232922
  0
ARC
  5
1E39C
  8
0
 10
4542.1769065215003138
 20
456.3077602883931263
 30
0.0
 40
0.0671290110594136
 50
233.5262102054554987
 51
258.693210647233002
  0
ARC
  5
1E39D
  8
0
 10
4542.1896596539263555
 20
456.3262395808803262
 30
0.0
 40
0.059639013839682
 50
351.3367664746845094
 51
17.4150249028249213
  0
ARC
  5
1E39E
  8
0
 10
4542.1536708499334054
 20
456.3168761138072114
 30
0.0
 40
0.0435820596022435
 50
150.2070925218453112
 51
191.6800020986487993
  0
ARC
  5
1E39F
  8
0
 10
4542.2058599461088306
 20
456.3296802453372152
 30
0.0
 40
0.0431799462933523
 50
19.4929539609399782
 51
62.8018191982569931
  0
ARC
  5
1E3A0
  8
0
 10
4542.1892762307761586
 20
456.2990782809167172
 30
0.0
 40
0.0779819234275243
 50
62.2413288732654522
 51
95.6247916614802165
  0
ARC
  5
1E3A1
  8
0
 10
4542.1862674017338577
 20
456.292906297856689
 30
0.0
 40
0.0839065164153885
 50
93.1662600097518663
 51
147.0606223085065949
  0
LINE
  5
1E3A2
  8
0
 10
4542.2486182311531593
 20
456.3172563663613914
 30
0.0
 11
4542.2445040566526586
 21
456.2897323822614908
 31
0.0
  0
LINE
  5
1E3A3
  8
0
 10
4542.1109912209549293
 20
456.3080531217145221
 30
0.0
 11
4542.1139450417640546
 21
456.2883477555151899
 31
0.0
  0
ARC
  5
1E3A4
  8
0
 10
4542.0902255277233053
 20
456.4781201166504729
 30
0.0
 40
0.0183488800954237
 50
20.5097716776159089
 51
96.7395622722456068
  0
ARC
  5
1E3A5
  8
0
 10
4542.0880209427377849
 20
456.4752922309918972
 30
0.0
 40
0.021050034615198
 50
89.8605715530883344
 51
152.1385859595334011
  0
ARC
  5
1E3A6
  8
0
 10
4542.0946031909397789
 20
456.4812509288129263
 30
0.0
 40
0.013225925883269
 50
309.2335549724788279
 51
14.4397119735513808
  0
ARC
  5
1E3A7
  8
0
 10
4542.0879310166646974
 20
456.4884422717744883
 30
0.0
 40
0.0230245325582532
 50
266.7083856117271239
 51
310.7758232709181243
  0
ARC
  5
1E3A8
  8
0
 10
4542.0866276468150318
 20
456.4855335299980084
 30
0.0
 40
0.020077814279551
 50
221.8173595669474025
 51
269.9467766207221189
  0
ARC
  5
1E3A9
  8
0
 10
4542.081165539054382
 20
456.4804824821904958
 30
0.0
 40
0.0126398129162412
 50
158.4286082417297052
 51
221.2620224212884921
  0
ARC
  5
1E3AA
  8
0
 10
4542.0953303406949999
 20
456.4792557201262184
 30
0.0
 40
0.0636819151784016
 50
39.6712700158723877
 51
79.9594191144928459
  0
ARC
  5
1E3AB
  8
0
 10
4542.0898981388309039
 20
456.4616985000118916
 30
0.0
 40
0.0819472914912455
 50
78.3598643871986553
 51
119.3077313164802007
  0
ARC
  5
1E3AC
  8
0
 10
4542.0854839051326053
 20
456.4738695283958236
 30
0.0
 40
0.0692054748715547
 50
121.053640812415793
 51
159.5705153233159876
  0
ARC
  5
1E3AD
  8
0
 10
4542.1243733230976432
 20
456.5085398240273094
 30
0.0
 40
0.1042734459061551
 50
185.7869307536844872
 51
195.0758553423519004
  0
ARC
  5
1E3AE
  8
0
 10
4542.1131522970499645
 20
456.4950422441698947
 30
0.0
 40
0.039893680271318
 50
352.0983577134538223
 51
38.5595944690728771
  0
ARC
  5
1E3AF
  8
0
 10
4542.0870391250018656
 20
456.5151597782614203
 30
0.0
 40
0.0749434054705893
 50
258.3520291649048204
 51
296.3341411079192085
  0
ARC
  5
1E3B0
  8
0
 10
4542.0999892899499173
 20
456.4983790679713138
 30
0.0
 40
0.0534113777044157
 50
321.4724307094870142
 51
350.4937947362869863
  0
ARC
  5
1E3B1
  8
0
 10
4542.0923478032818821
 20
456.505116350136575
 30
0.0
 40
0.0635880230355003
 50
296.0616296533335117
 51
321.0121539920554028
  0
ARC
  5
1E3B2
  8
0
 10
4542.0906955093778379
 20
456.5109598438648959
 30
0.0
 40
0.0732297553169024
 50
203.7912547386845858
 51
231.5555462473232922
  0
ARC
  5
1E3B3
  8
0
 10
4542.0850696725456146
 20
456.5075858488966105
 30
0.0
 40
0.0671290110594136
 50
233.5262102054554987
 51
258.693210647233002
  0
ARC
  5
1E3B4
  8
0
 10
4542.0978228049716563
 20
456.5260651413838104
 30
0.0
 40
0.059639013839682
 50
351.3367664746845094
 51
17.4150249028249213
  0
ARC
  5
1E3B5
  8
0
 10
4542.0618340009787062
 20
456.5167016743106956
 30
0.0
 40
0.0435820596022435
 50
150.2070925218453112
 51
191.6800020986487993
  0
ARC
  5
1E3B6
  8
0
 10
4542.1140230971550409
 20
456.5295058058406994
 30
0.0
 40
0.0431799462933523
 50
19.4929539609399782
 51
62.8018191982569931
  0
ARC
  5
1E3B7
  8
0
 10
4542.0974393818232784
 20
456.4989038414203151
 30
0.0
 40
0.0779819234275243
 50
62.2413288732654522
 51
95.6247916614802165
  0
ARC
  5
1E3B8
  8
0
 10
4542.0944305527818869
 20
456.4927318583602869
 30
0.0
 40
0.0839065164153885
 50
93.1662600097518663
 51
147.0606223085065949
  0
LINE
  5
1E3B9
  8
0
 10
4542.156781382200279
 20
456.5170819268649893
 30
0.0
 11
4542.1526672077006879
 21
456.4895579427649182
 31
0.0
  0
LINE
  5
1E3BA
  8
0
 10
4542.0191543720020491
 20
456.5078786822180064
 30
0.0
 11
4542.0221081928111744
 21
456.4881733160186172
 31
0.0
  0
ARC
  5
1E3BB
  8
0
 10
4541.9099910250961329
 20
456.2637262646099998
 30
0.0
 40
0.0183488800954237
 50
20.5097716776159089
 51
96.7395622722456068
  0
ARC
  5
1E3BC
  8
0
 10
4541.9077864401124316
 20
456.2608983789514241
 30
0.0
 40
0.021050034615198
 50
89.8605715530883344
 51
152.1385859595334011
  0
ARC
  5
1E3BD
  8
0
 10
4541.914368688311697
 20
456.26685707677251
 30
0.0
 40
0.013225925883269
 50
309.2335549724788279
 51
14.4397119735513808
  0
ARC
  5
1E3BE
  8
0
 10
4541.9076965140384345
 20
456.2740484197339015
 30
0.0
 40
0.0230245325582532
 50
266.7083856117271239
 51
310.7758232709181243
  0
ARC
  5
1E3BF
  8
0
 10
4541.9063931441869499
 20
456.2711396779574784
 30
0.0
 40
0.020077814279551
 50
221.8173595669474025
 51
269.9467766207221189
  0
ARC
  5
1E3C0
  8
0
 10
4541.9009310364272096
 20
456.266088630149909
 30
0.0
 40
0.0126398129162412
 50
158.4286082417297052
 51
221.2620224212884921
  0
ARC
  5
1E3C1
  8
0
 10
4541.9150958380669181
 20
456.2648618680856885
 30
0.0
 40
0.0636819151784016
 50
39.6712700158723877
 51
79.9594191144928459
  0
ARC
  5
1E3C2
  8
0
 10
4541.9096636362028221
 20
456.2473046479714185
 30
0.0
 40
0.0819472914912455
 50
78.3598643871986553
 51
119.3077313164802007
  0
ARC
  5
1E3C3
  8
0
 10
4541.905249402503614
 20
456.25947567635518
 30
0.0
 40
0.0692054748715547
 50
121.053640812415793
 51
159.5705153233159876
  0
ARC
  5
1E3C4
  8
0
 10
4541.9441388204695613
 20
456.2941459719867225
 30
0.0
 40
0.1042734459061551
 50
185.7869307536844872
 51
195.0758553423519004
  0
ARC
  5
1E3C5
  8
0
 10
4541.9329177944218827
 20
456.2806483921294216
 30
0.0
 40
0.039893680271318
 50
352.0983577134538223
 51
38.5595944690728771
  0
ARC
  5
1E3C6
  8
0
 10
4541.9068046223737838
 20
456.3007659262208904
 30
0.0
 40
0.0749434054705893
 50
258.3520291649048204
 51
296.3341411079192085
  0
ARC
  5
1E3C7
  8
0
 10
4541.9197547873236545
 20
456.283985215930727
 30
0.0
 40
0.0534113777044157
 50
321.4724307094870142
 51
350.4937947362869863
  0
ARC
  5
1E3C8
  8
0
 10
4541.9121133006547097
 20
456.2907224980961018
 30
0.0
 40
0.0635880230355003
 50
296.0616296533335117
 51
321.0121539920554028
  0
ARC
  5
1E3C9
  8
0
 10
4541.9104610067488466
 20
456.2965659918244228
 30
0.0
 40
0.0732297553169024
 50
203.7912547386845858
 51
231.5555462473232922
  0
ARC
  5
1E3CA
  8
0
 10
4541.9048351699193518
 20
456.2931919968560806
 30
0.0
 40
0.0671290110594136
 50
233.5262102054554987
 51
258.693210647233002
  0
ARC
  5
1E3CB
  8
0
 10
4541.917588302346303
 20
456.3116712893432805
 30
0.0
 40
0.059639013839682
 50
351.3367664746845094
 51
17.4150249028249213
  0
ARC
  5
1E3CC
  8
0
 10
4541.8815994983524433
 20
456.3023078222702793
 30
0.0
 40
0.0435820596022435
 50
150.2070925218453112
 51
191.6800020986487993
  0
ARC
  5
1E3CD
  8
0
 10
4541.933788594528778
 20
456.3151119538002263
 30
0.0
 40
0.0431799462933523
 50
19.4929539609399782
 51
62.8018191982569931
  0
ARC
  5
1E3CE
  8
0
 10
4541.9172048791951966
 20
456.2845099893797851
 30
0.0
 40
0.0779819234275243
 50
62.2413288732654522
 51
95.6247916614802165
  0
ARC
  5
1E3CF
  8
0
 10
4541.9141960501547146
 20
456.2783380063198138
 30
0.0
 40
0.0839065164153885
 50
93.1662600097518663
 51
147.0606223085065949
  0
LINE
  5
1E3D0
  8
0
 10
4541.9765468795731067
 20
456.3026880748244025
 30
0.0
 11
4541.972432705072606
 21
456.2751640907245019
 31
0.0
  0
LINE
  5
1E3D1
  8
0
 10
4541.8389198693730577
 20
456.2934848301774196
 30
0.0
 11
4541.8418736901830925
 21
456.2737794639780873
 31
0.0
  0
ARC
  5
1E3D2
  8
0
 10
4541.802178213381012
 20
456.0558079854216089
 30
0.0
 40
0.0183488800954237
 50
20.5097716776159089
 51
96.7395622722456068
  0
ARC
  5
1E3D3
  8
0
 10
4541.7999736283973107
 20
456.05298009976309
 30
0.0
 40
0.021050034615198
 50
89.8605715530883344
 51
152.1385859595334011
  0
ARC
  5
1E3D4
  8
0
 10
4541.8065558765983951
 20
456.0589387975841191
 30
0.0
 40
0.013225925883269
 50
309.2335549724788279
 51
14.4397119735513808
  0
ARC
  5
1E3D5
  8
0
 10
4541.7998837023233136
 20
456.0661301405456243
 30
0.0
 40
0.0230245325582532
 50
266.7083856117271239
 51
310.7758232709181243
  0
ARC
  5
1E3D6
  8
0
 10
4541.798580332471829
 20
456.0632213987692012
 30
0.0
 40
0.020077814279551
 50
221.8173595669474025
 51
269.9467766207221189
  0
ARC
  5
1E3D7
  8
0
 10
4541.7931182247120887
 20
456.058170350961575
 30
0.0
 40
0.0126398129162412
 50
158.4286082417297052
 51
221.2620224212884921
  0
ARC
  5
1E3D8
  8
0
 10
4541.8072830263517972
 20
456.0569435888974112
 30
0.0
 40
0.0636819151784016
 50
39.6712700158723877
 51
79.9594191144928459
  0
ARC
  5
1E3D9
  8
0
 10
4541.8018508244877012
 20
456.0393863687830276
 30
0.0
 40
0.0819472914912455
 50
78.3598643871986553
 51
119.3077313164802007
  0
ARC
  5
1E3DA
  8
0
 10
4541.797436590790312
 20
456.0515573971669028
 30
0.0
 40
0.0692054748715547
 50
121.053640812415793
 51
159.5705153233159876
  0
ARC
  5
1E3DB
  8
0
 10
4541.8363260087562594
 20
456.0862276927983885
 30
0.0
 40
0.1042734459061551
 50
185.7869307536844872
 51
195.0758553423519004
  0
ARC
  5
1E3DC
  8
0
 10
4541.8251049827076713
 20
456.0727301129410876
 30
0.0
 40
0.039893680271318
 50
352.0983577134538223
 51
38.5595944690728771
  0
ARC
  5
1E3DD
  8
0
 10
4541.7989918106613914
 20
456.0928476470324995
 30
0.0
 40
0.0749434054705893
 50
258.3520291649048204
 51
296.3341411079192085
  0
ARC
  5
1E3DE
  8
0
 10
4541.811941975609443
 20
456.076066936742393
 30
0.0
 40
0.0534113777044157
 50
321.4724307094870142
 51
350.4937947362869863
  0
ARC
  5
1E3DF
  8
0
 10
4541.8043004889395888
 20
456.0828042189078246
 30
0.0
 40
0.0635880230355003
 50
296.0616296533335117
 51
321.0121539920554028
  0
ARC
  5
1E3E0
  8
0
 10
4541.8026481950346351
 20
456.0886477126360887
 30
0.0
 40
0.0732297553169024
 50
203.7912547386845858
 51
231.5555462473232922
  0
ARC
  5
1E3E1
  8
0
 10
4541.7970223582051403
 20
456.0852737176678033
 30
0.0
 40
0.0671290110594136
 50
233.5262102054554987
 51
258.693210647233002
  0
ARC
  5
1E3E2
  8
0
 10
4541.809775490631182
 20
456.1037530101548896
 30
0.0
 40
0.059639013839682
 50
351.3367664746845094
 51
17.4150249028249213
  0
ARC
  5
1E3E3
  8
0
 10
4541.7737866866382319
 20
456.0943895430820021
 30
0.0
 40
0.0435820596022435
 50
150.2070925218453112
 51
191.6800020986487993
  0
ARC
  5
1E3E4
  8
0
 10
4541.8259757828127476
 20
456.1071936746117785
 30
0.0
 40
0.0431799462933523
 50
19.4929539609399782
 51
62.8018191982569931
  0
ARC
  5
1E3E5
  8
0
 10
4541.8093920674809851
 20
456.0765917101913942
 30
0.0
 40
0.0779819234275243
 50
62.2413288732654522
 51
95.6247916614802165
  0
ARC
  5
1E3E6
  8
0
 10
4541.8063832384395937
 20
456.0704197271314797
 30
0.0
 40
0.0839065164153885
 50
93.1662600097518663
 51
147.0606223085065949
  0
LINE
  5
1E3E7
  8
0
 10
4541.8687340678579858
 20
456.0947697956361253
 30
0.0
 11
4541.8646198933593041
 21
456.067245811536111
 31
0.0
  0
LINE
  5
1E3E8
  8
0
 10
4541.7311070576597558
 20
456.0855665509890855
 30
0.0
 11
4541.7340608784688811
 21
456.0658611847898101
 31
0.0
  0
ARC
  5
1E3E9
  8
0
 10
4541.4518701243041505
 20
455.9234439480831043
 30
0.0
 40
0.0183488800954237
 50
20.5097716776159089
 51
96.7395622722456068
  0
ARC
  5
1E3EA
  8
0
 10
4541.4496655393186302
 20
455.9206160624244717
 30
0.0
 40
0.021050034615198
 50
89.8605715530883344
 51
152.1385859595334011
  0
ARC
  5
1E3EB
  8
0
 10
4541.4562477875206241
 20
455.9265747602455008
 30
0.0
 40
0.013225925883269
 50
309.2335549724788279
 51
14.4397119735513808
  0
ARC
  5
1E3EC
  8
0
 10
4541.4495756132464521
 20
455.9337661032071196
 30
0.0
 40
0.0230245325582532
 50
266.7083856117271239
 51
310.7758232709181243
  0
ARC
  5
1E3ED
  8
0
 10
4541.4482722433949675
 20
455.930857361430526
 30
0.0
 40
0.020077814279551
 50
221.8173595669474025
 51
269.9467766207221189
  0
ARC
  5
1E3EE
  8
0
 10
4541.4428101356361367
 20
455.9258063136231272
 30
0.0
 40
0.0126398129162412
 50
158.4286082417297052
 51
221.2620224212884921
  0
ARC
  5
1E3EF
  8
0
 10
4541.4569749372749357
 20
455.9245795515587929
 30
0.0
 40
0.0636819151784016
 50
39.6712700158723877
 51
79.9594191144928459
  0
ARC
  5
1E3F0
  8
0
 10
4541.4515427354108397
 20
455.9070223314445229
 30
0.0
 40
0.0819472914912455
 50
78.3598643871986553
 51
119.3077313164802007
  0
ARC
  5
1E3F1
  8
0
 10
4541.4471285017134505
 20
455.9191933598283981
 30
0.0
 40
0.0692054748715547
 50
121.053640812415793
 51
159.5705153233159876
  0
ARC
  5
1E3F2
  8
0
 10
4541.4860179196793979
 20
455.9538636554598838
 30
0.0
 40
0.1042734459061551
 50
185.7869307536844872
 51
195.0758553423519004
  0
ARC
  5
1E3F3
  8
0
 10
4541.4747968936308098
 20
455.9403660756024124
 30
0.0
 40
0.039893680271318
 50
352.0983577134538223
 51
38.5595944690728771
  0
ARC
  5
1E3F4
  8
0
 10
4541.4486837215836204
 20
455.9604836096939948
 30
0.0
 40
0.0749434054705893
 50
258.3520291649048204
 51
296.3341411079192085
  0
ARC
  5
1E3F5
  8
0
 10
4541.4616338865325815
 20
455.9437028994037746
 30
0.0
 40
0.0534113777044157
 50
321.4724307094870142
 51
350.4937947362869863
  0
ARC
  5
1E3F6
  8
0
 10
4541.4539923998636368
 20
455.95044018156932
 30
0.0
 40
0.0635880230355003
 50
296.0616296533335117
 51
321.0121539920554028
  0
ARC
  5
1E3F7
  8
0
 10
4541.4523401059577736
 20
455.9562836752975272
 30
0.0
 40
0.0732297553169024
 50
203.7912547386845858
 51
231.5555462473232922
  0
ARC
  5
1E3F8
  8
0
 10
4541.4467142691282788
 20
455.952909680329185
 30
0.0
 40
0.0671290110594136
 50
233.5262102054554987
 51
258.693210647233002
  0
ARC
  5
1E3F9
  8
0
 10
4541.459467401553411
 20
455.9713889728163849
 30
0.0
 40
0.059639013839682
 50
351.3367664746845094
 51
17.4150249028249213
  0
ARC
  5
1E3FA
  8
0
 10
4541.4234785975595514
 20
455.9620255057433269
 30
0.0
 40
0.0435820596022435
 50
150.2070925218453112
 51
191.6800020986487993
  0
ARC
  5
1E3FB
  8
0
 10
4541.4756676937358861
 20
455.974829637273217
 30
0.0
 40
0.0431799462933523
 50
19.4929539609399782
 51
62.8018191982569931
  0
ARC
  5
1E3FC
  8
0
 10
4541.4590839784041236
 20
455.9442276728527759
 30
0.0
 40
0.0779819234275243
 50
62.2413288732654522
 51
95.6247916614802165
  0
ARC
  5
1E3FD
  8
0
 10
4541.4560751493627322
 20
455.9380556897929182
 30
0.0
 40
0.0839065164153885
 50
93.1662600097518663
 51
147.0606223085065949
  0
LINE
  5
1E3FE
  8
0
 10
4541.5184259787811243
 20
455.9624057582976207
 30
0.0
 11
4541.5143118042806236
 21
455.9348817741974926
 31
0.0
  0
LINE
  5
1E3FF
  8
0
 10
4541.3807989685828943
 20
455.9532025136505808
 30
0.0
 11
4541.3837527893920196
 21
455.9334971474511917
 31
0.0
  0
ARC
  5
1E400
  8
0
 10
4541.2662629681617545
 20
456.0180018819422116
 30
0.0
 40
0.0183488800954237
 50
20.5097716776159089
 51
96.7395622722456068
  0
ARC
  5
1E401
  8
0
 10
4541.2640583831771437
 20
456.0151739962835791
 30
0.0
 40
0.021050034615198
 50
89.8605715530883344
 51
152.1385859595334011
  0
ARC
  5
1E402
  8
0
 10
4541.2706406313782281
 20
456.0211326941046082
 30
0.0
 40
0.013225925883269
 50
309.2335549724788279
 51
14.4397119735513808
  0
ARC
  5
1E403
  8
0
 10
4541.2639684571040561
 20
456.028324037066227
 30
0.0
 40
0.0230245325582532
 50
266.7083856117271239
 51
310.7758232709181243
  0
ARC
  5
1E404
  8
0
 10
4541.2626650872525715
 20
456.0254152952896902
 30
0.0
 40
0.020077814279551
 50
221.8173595669474025
 51
269.9467766207221189
  0
ARC
  5
1E405
  8
0
 10
4541.2572029794928312
 20
456.0203642474821777
 30
0.0
 40
0.0126398129162412
 50
158.4286082417297052
 51
221.2620224212884921
  0
ARC
  5
1E406
  8
0
 10
4541.2713677811334492
 20
456.0191374854179003
 30
0.0
 40
0.0636819151784016
 50
39.6712700158723877
 51
79.9594191144928459
  0
ARC
  5
1E407
  8
0
 10
4541.2659355792684437
 20
456.0015802653035735
 30
0.0
 40
0.0819472914912455
 50
78.3598643871986553
 51
119.3077313164802007
  0
ARC
  5
1E408
  8
0
 10
4541.2615213455701451
 20
456.0137512936875055
 30
0.0
 40
0.0692054748715547
 50
121.053640812415793
 51
159.5705153233159876
  0
ARC
  5
1E409
  8
0
 10
4541.3004107635370019
 20
456.0484215893189912
 30
0.0
 40
0.1042734459061551
 50
185.7869307536844872
 51
195.0758553423519004
  0
ARC
  5
1E40A
  8
0
 10
4541.2891897374884138
 20
456.0349240094615197
 30
0.0
 40
0.039893680271318
 50
352.0983577134538223
 51
38.5595944690728771
  0
ARC
  5
1E40B
  8
0
 10
4541.2630765654403149
 20
456.0550415435531022
 30
0.0
 40
0.0749434054705893
 50
258.3520291649048204
 51
296.3341411079192085
  0
ARC
  5
1E40C
  8
0
 10
4541.2760267303892761
 20
456.0382608332629957
 30
0.0
 40
0.0534113777044157
 50
321.4724307094870142
 51
350.4937947362869863
  0
ARC
  5
1E40D
  8
0
 10
4541.2683852437212408
 20
456.0449981154284274
 30
0.0
 40
0.0635880230355003
 50
296.0616296533335117
 51
321.0121539920554028
  0
ARC
  5
1E40E
  8
0
 10
4541.2667329498153777
 20
456.0508416091565778
 30
0.0
 40
0.0732297553169024
 50
203.7912547386845858
 51
231.5555462473232922
  0
ARC
  5
1E40F
  8
0
 10
4541.2611071129849734
 20
456.0474676141882924
 30
0.0
 40
0.0671290110594136
 50
233.5262102054554987
 51
258.693210647233002
  0
ARC
  5
1E410
  8
0
 10
4541.2738602454110151
 20
456.0659469066754923
 30
0.0
 40
0.059639013839682
 50
351.3367664746845094
 51
17.4150249028249213
  0
ARC
  5
1E411
  8
0
 10
4541.2378714414180649
 20
456.0565834396023774
 30
0.0
 40
0.0435820596022435
 50
150.2070925218453112
 51
191.6800020986487993
  0
ARC
  5
1E412
  8
0
 10
4541.2900605375943996
 20
456.0693875711323813
 30
0.0
 40
0.0431799462933523
 50
19.4929539609399782
 51
62.8018191982569931
  0
ARC
  5
1E413
  8
0
 10
4541.2734768222617276
 20
456.0387856067118832
 30
0.0
 40
0.0779819234275243
 50
62.2413288732654522
 51
95.6247916614802165
  0
ARC
  5
1E414
  8
0
 10
4541.2704679932203362
 20
456.0326136236520256
 30
0.0
 40
0.0839065164153885
 50
93.1662600097518663
 51
147.0606223085065949
  0
LINE
  5
1E415
  8
0
 10
4541.3328188226378188
 20
456.056963692156728
 30
0.0
 11
4541.3287046481382276
 21
456.0294397080566
 31
0.0
  0
LINE
  5
1E416
  8
0
 10
4541.1951918124395888
 20
456.0477604475096882
 30
0.0
 11
4541.1981456332487141
 21
456.0280550813102991
 31
0.0
  0
ARC
  5
1E417
  8
0
 10
4541.05128118981429
 20
456.4460202126218178
 30
0.0
 40
0.0183488800954237
 50
20.5097716776159089
 51
96.7395622722456068
  0
ARC
  5
1E418
  8
0
 10
4541.0490766048305886
 20
456.4431923269631852
 30
0.0
 40
0.021050034615198
 50
89.8605715530883344
 51
152.1385859595334011
  0
ARC
  5
1E419
  8
0
 10
4541.0556588530307636
 20
456.4491510247842143
 30
0.0
 40
0.013225925883269
 50
309.2335549724788279
 51
14.4397119735513808
  0
ARC
  5
1E41A
  8
0
 10
4541.0489866787584106
 20
456.4563423677457195
 30
0.0
 40
0.0230245325582532
 50
266.7083856117271239
 51
310.7758232709181243
  0
ARC
  5
1E41B
  8
0
 10
4541.047683308906926
 20
456.4534336259691827
 30
0.0
 40
0.020077814279551
 50
221.8173595669474025
 51
269.9467766207221189
  0
ARC
  5
1E41C
  8
0
 10
4541.0422212011480951
 20
456.4483825781617838
 30
0.0
 40
0.0126398129162412
 50
158.4286082417297052
 51
221.2620224212884921
  0
ARC
  5
1E41D
  8
0
 10
4541.0563860027868941
 20
456.4471558160975064
 30
0.0
 40
0.0636819151784016
 50
39.6712700158723877
 51
79.9594191144928459
  0
ARC
  5
1E41E
  8
0
 10
4541.0509538009218886
 20
456.4295985959831228
 30
0.0
 40
0.0819472914912455
 50
78.3598643871986553
 51
119.3077313164802007
  0
ARC
  5
1E41F
  8
0
 10
4541.0356897201299944
 20
456.455317166415
 30
0.0
 40
0.0520538403412452
 50
118.5140067258426058
 51
159.2190193509985079
  0
ARC
  5
1E420
  8
0
 10
4541.0239427627120676
 20
456.4608062497944729
 30
0.0
 40
0.0391354701457199
 50
160.6307896405947133
 51
196.2742641117731068
  0
ARC
  5
1E421
  8
0
 10
4541.0779642826446434
 20
456.4626722001762005
 30
0.0
 40
0.0372124262374156
 50
354.1136741571353923
 51
42.4930030283255178
  0
ARC
  5
1E422
  8
0
 10
4541.0480947870928503
 20
456.4830598742325947
 30
0.0
 40
0.0749434054705893
 50
258.3520291649048204
 51
296.3341411079192085
  0
ARC
  5
1E423
  8
0
 10
4541.065403434826294
 20
456.4663845986908086
 30
0.0
 40
0.0501454589013152
 50
318.2745503088498822
 51
351.3650932171677255
  0
ARC
  5
1E424
  8
0
 10
4541.0534034653728668
 20
456.4730164461079198
 30
0.0
 40
0.0635880230355003
 50
296.0616296533335117
 51
321.0121539920554028
  0
ARC
  5
1E425
  8
0
 10
4541.036670717445304
 20
456.4639494709073801
 30
0.0
 40
0.0522371649301908
 50
195.6714856847004
 51
234.3431815742341939
  0
ARC
  5
1E426
  8
0
 10
4541.0461253346384183
 20
456.4754859448678985
 30
0.0
 40
0.0671290110594136
 50
233.5262102054554987
 51
258.693210647233002
  0
ARC
  5
1E427
  8
0
 10
4541.0802909934782292
 20
456.4955807115783841
 30
0.0
 40
0.0397372116848125
 50
351.1299268265198066
 51
24.5684655756455115
  0
ARC
  5
1E428
  8
0
 10
4541.0194150456873103
 20
456.4902249953512978
 30
0.0
 40
0.0387825835369923
 50
142.9047412184092991
 51
187.7806811467715988
  0
ARC
  5
1E429
  8
0
 10
4541.070165139254641
 20
456.490683443065393
 30
0.0
 40
0.0509830930910215
 50
24.8424132501217017
 51
61.4429734385638966
  0
ARC
  5
1E42A
  8
0
 10
4541.0545487823956137
 20
456.4639174684040199
 30
0.0
 40
0.0819630836418835
 50
60.7988095624159683
 51
92.8953279458824142
  0
ARC
  5
1E42B
  8
0
 10
4541.0501202980021844
 20
456.4706257715823199
 30
0.0
 40
0.0751507063047371
 50
89.7801153743121745
 51
145.1060777525250103
  0
LINE
  5
1E42C
  8
0
 10
4541.1195529695523874
 20
456.4894534587518251
 30
0.0
 11
4541.1149804997094179
 21
456.4588558746302169
 31
0.0
  0
LINE
  5
1E42D
  8
0
 10
4540.9809895182197579
 20
456.4849745042004088
 30
0.0
 11
4540.9850318522612724
 21
456.4566198346893202
 31
0.0
  0
ARC
  5
1E42E
  8
0
 10
4541.0532517497085792
 20
457.0341195255393245
 30
0.0
 40
0.0183488800954237
 50
20.5097716776159089
 51
96.7395622722456068
  0
ARC
  5
1E42F
  8
0
 10
4541.0510471647239683
 20
457.0312916398805783
 30
0.0
 40
0.021050034615198
 50
89.8605715530883344
 51
152.1385859595334011
  0
ARC
  5
1E430
  8
0
 10
4541.0576294129268717
 20
457.037250337701721
 30
0.0
 40
0.013225925883269
 50
309.2335549724788279
 51
14.4397119735513808
  0
ARC
  5
1E431
  8
0
 10
4541.0509572386526997
 20
457.0444416806632262
 30
0.0
 40
0.0230245325582532
 50
266.7083856117271239
 51
310.7758232709181243
  0
ARC
  5
1E432
  8
0
 10
4541.0496538688012151
 20
457.0415329388866894
 30
0.0
 40
0.020077814279551
 50
221.8173595669474025
 51
269.9467766207221189
  0
ARC
  5
1E433
  8
0
 10
4541.0441917610405653
 20
457.0364818910792906
 30
0.0
 40
0.0126398129162412
 50
158.4286082417297052
 51
221.2620224212884921
  0
ARC
  5
1E434
  8
0
 10
4541.0583565626820928
 20
457.0352551290150132
 30
0.0
 40
0.0636819151784016
 50
39.6712700158723877
 51
79.9594191144928459
  0
ARC
  5
1E435
  8
0
 10
4541.0529243608170873
 20
457.0176979089006863
 30
0.0
 40
0.0819472914912455
 50
78.3598643871986553
 51
119.3077313164802007
  0
ARC
  5
1E436
  8
0
 10
4541.0376602800242836
 20
457.0434164793325067
 30
0.0
 40
0.0520538403412452
 50
118.5140067258426058
 51
159.2190193509985079
  0
ARC
  5
1E437
  8
0
 10
4541.0259133226063568
 20
457.0489055627119797
 30
0.0
 40
0.0391354701457199
 50
160.6307896405947133
 51
196.2742641117731068
  0
ARC
  5
1E438
  8
0
 10
4541.0799348425389326
 20
457.0507715130935935
 30
0.0
 40
0.0372124262374156
 50
354.1136741571353923
 51
42.4930030283255178
  0
ARC
  5
1E439
  8
0
 10
4541.0500653469889585
 20
457.0711591871501014
 30
0.0
 40
0.0749434054705893
 50
258.3520291649048204
 51
296.3341411079192085
  0
ARC
  5
1E43A
  8
0
 10
4541.0673739947196736
 20
457.0544839116083153
 30
0.0
 40
0.0501454589013152
 50
318.2745503088498822
 51
351.3650932171677255
  0
ARC
  5
1E43B
  8
0
 10
4541.0553740252680655
 20
457.0611157590254265
 30
0.0
 40
0.0635880230355003
 50
296.0616296533335117
 51
321.0121539920554028
  0
ARC
  5
1E43C
  8
0
 10
4541.0386412773395932
 20
457.0520487838248869
 30
0.0
 40
0.0522371649301908
 50
195.6714856847004
 51
234.3431815742341939
  0
ARC
  5
1E43D
  8
0
 10
4541.048095894533617
 20
457.0635852577852916
 30
0.0
 40
0.0671290110594136
 50
233.5262102054554987
 51
258.693210647233002
  0
ARC
  5
1E43E
  8
0
 10
4541.0822615533734279
 20
457.0836800244958908
 30
0.0
 40
0.0397372116848125
 50
351.1299268265198066
 51
24.5684655756455115
  0
ARC
  5
1E43F
  8
0
 10
4541.0213856055834185
 20
457.0783243082688045
 30
0.0
 40
0.0387825835369923
 50
142.9047412184092991
 51
187.7806811467715988
  0
ARC
  5
1E440
  8
0
 10
4541.0721356991480206
 20
457.0787827559827861
 30
0.0
 40
0.0509830930910215
 50
24.8424132501217017
 51
61.4429734385638966
  0
ARC
  5
1E441
  8
0
 10
4541.0565193422908123
 20
457.0520167813215267
 30
0.0
 40
0.0819630836418835
 50
60.7988095624159683
 51
92.8953279458824142
  0
ARC
  5
1E442
  8
0
 10
4541.0520908578982926
 20
457.0587250844998266
 30
0.0
 40
0.0751507063047371
 50
89.7801153743121745
 51
145.1060777525250103
  0
LINE
  5
1E443
  8
0
 10
4541.1215235294466765
 20
457.077552771669275
 30
0.0
 11
4541.1169510596037071
 21
457.04695518754761
 31
0.0
  0
LINE
  5
1E444
  8
0
 10
4540.9829600781149566
 20
457.0730738171179155
 30
0.0
 11
4540.9870024121573806
 21
457.0447191476068838
 31
0.0
  0
ARC
  5
1E445
  8
0
 10
4541.1319210791161822
 20
457.2537259416217239
 30
0.0
 40
0.0183488800954237
 50
20.5097716776159089
 51
96.7395622722456068
  0
ARC
  5
1E446
  8
0
 10
4541.1297164941306619
 20
457.2508980559630913
 30
0.0
 40
0.021050034615198
 50
89.8605715530883344
 51
152.1385859595334011
  0
ARC
  5
1E447
  8
0
 10
4541.1362987423317463
 20
457.2568567537841773
 30
0.0
 40
0.013225925883269
 50
309.2335549724788279
 51
14.4397119735513808
  0
ARC
  5
1E448
  8
0
 10
4541.1296265680566648
 20
457.2640480967456256
 30
0.0
 40
0.0230245325582532
 50
266.7083856117271239
 51
310.7758232709181243
  0
ARC
  5
1E449
  8
0
 10
4541.1283231982069992
 20
457.2611393549692025
 30
0.0
 40
0.020077814279551
 50
221.8173595669474025
 51
269.9467766207221189
  0
ARC
  5
1E44A
  8
0
 10
4541.1228610904463494
 20
457.25608830716169
 30
0.0
 40
0.0126398129162412
 50
158.4286082417297052
 51
221.2620224212884921
  0
ARC
  5
1E44B
  8
0
 10
4541.1370258920860579
 20
457.2548615450975262
 30
0.0
 40
0.0636819151784016
 50
39.6712700158723877
 51
79.9594191144928459
  0
ARC
  5
1E44C
  8
0
 10
4541.1315936902219619
 20
457.2373043249830857
 30
0.0
 40
0.0819472914912455
 50
78.3598643871986553
 51
119.3077313164802007
  0
ARC
  5
1E44D
  8
0
 10
4541.1163296094300676
 20
457.2630228954150198
 30
0.0
 40
0.0520538403412452
 50
118.5140067258426058
 51
159.2190193509985079
  0
ARC
  5
1E44E
  8
0
 10
4541.1045826520121409
 20
457.268511978794379
 30
0.0
 40
0.0391354701457199
 50
160.6307896405947133
 51
196.2742641117731068
  0
ARC
  5
1E44F
  8
0
 10
4541.1586041719438072
 20
457.2703779291761066
 30
0.0
 40
0.0372124262374156
 50
354.1136741571353923
 51
42.4930030283255178
  0
ARC
  5
1E450
  8
0
 10
4541.1287346763929236
 20
457.2907656032326145
 30
0.0
 40
0.0749434054705893
 50
258.3520291649048204
 51
296.3341411079192085
  0
ARC
  5
1E451
  8
0
 10
4541.1460433241263672
 20
457.2740903276907147
 30
0.0
 40
0.0501454589013152
 50
318.2745503088498822
 51
351.3650932171677255
  0
ARC
  5
1E452
  8
0
 10
4541.1340433546738495
 20
457.2807221751078828
 30
0.0
 40
0.0635880230355003
 50
296.0616296533335117
 51
321.0121539920554028
  0
ARC
  5
1E453
  8
0
 10
4541.1173106067453773
 20
457.2716551999072863
 30
0.0
 40
0.0522371649301908
 50
195.6714856847004
 51
234.3431815742341939
  0
ARC
  5
1E454
  8
0
 10
4541.126765223937582
 20
457.2831916738679183
 30
0.0
 40
0.0671290110594136
 50
233.5262102054554987
 51
258.693210647233002
  0
ARC
  5
1E455
  8
0
 10
4541.1609308827783025
 20
457.3032864405784039
 30
0.0
 40
0.0397372116848125
 50
351.1299268265198066
 51
24.5684655756455115
  0
ARC
  5
1E456
  8
0
 10
4541.1000549349892026
 20
457.2979307243513176
 30
0.0
 40
0.0387825835369923
 50
142.9047412184092991
 51
187.7806811467715988
  0
ARC
  5
1E457
  8
0
 10
4541.1508050285538047
 20
457.2983891720654128
 30
0.0
 40
0.0509830930910215
 50
24.8424132501217017
 51
61.4429734385638966
  0
ARC
  5
1E458
  8
0
 10
4541.1351886716947774
 20
457.2716231974039829
 30
0.0
 40
0.0819630836418835
 50
60.7988095624159683
 51
92.8953279458824142
  0
ARC
  5
1E459
  8
0
 10
4541.1307601873031672
 20
457.2783315005823965
 30
0.0
 40
0.0751507063047371
 50
89.7801153743121745
 51
145.1060777525250103
  0
LINE
  5
1E45A
  8
0
 10
4541.2001928588515511
 20
457.2971591877519018
 30
0.0
 11
4541.1956203890085817
 21
457.266561603630123
 31
0.0
  0
LINE
  5
1E45B
  8
0
 10
4541.0616294075207406
 20
457.2926802332004854
 30
0.0
 11
4541.0656717415613457
 21
457.2643255636893969
 31
0.0
  0
ARC
  5
1E45C
  8
0
 10
4540.9985910539089673
 20
457.4607002569468932
 30
0.0
 40
0.0183488800954237
 50
20.5097716776159089
 51
96.7395622722456068
  0
ARC
  5
1E45D
  8
0
 10
4540.9963864689252659
 20
457.4578723712883175
 30
0.0
 40
0.021050034615198
 50
89.8605715530883344
 51
152.1385859595334011
  0
ARC
  5
1E45E
  8
0
 10
4541.0029687171254409
 20
457.4638310691092897
 30
0.0
 40
0.013225925883269
 50
309.2335549724788279
 51
14.4397119735513808
  0
ARC
  5
1E45F
  8
0
 10
4540.9962965428512689
 20
457.4710224120707949
 30
0.0
 40
0.0230245325582532
 50
266.7083856117271239
 51
310.7758232709181243
  0
ARC
  5
1E460
  8
0
 10
4540.9949931729997843
 20
457.4681136702943718
 30
0.0
 40
0.020077814279551
 50
221.8173595669474025
 51
269.9467766207221189
  0
ARC
  5
1E461
  8
0
 10
4540.989531065240044
 20
457.4630626224869161
 30
0.0
 40
0.0126398129162412
 50
158.4286082417297052
 51
221.2620224212884921
  0
ARC
  5
1E462
  8
0
 10
4541.0036958668788429
 20
457.4618358604225818
 30
0.0
 40
0.0636819151784016
 50
39.6712700158723877
 51
79.9594191144928459
  0
ARC
  5
1E463
  8
0
 10
4540.9982636650156564
 20
457.4442786403083119
 30
0.0
 40
0.0819472914912455
 50
78.3598643871986553
 51
119.3077313164802007
  0
ARC
  5
1E464
  8
0
 10
4540.9829995842228527
 20
457.4699972107400754
 30
0.0
 40
0.0520538403412452
 50
118.5140067258426058
 51
159.2190193509985079
  0
ARC
  5
1E465
  8
0
 10
4540.971252626804926
 20
457.4754862941196052
 30
0.0
 40
0.0391354701457199
 50
160.6307896405947133
 51
196.2742641117731068
  0
ARC
  5
1E466
  8
0
 10
4541.0215178232347171
 20
457.4776223844662013
 30
0.0
 40
0.039893680271318
 50
352.0983577134538223
 51
38.5595944690728771
  0
ARC
  5
1E467
  8
0
 10
4540.9954046511866181
 20
457.4977399185577269
 30
0.0
 40
0.0749434054705893
 50
258.3520291649048204
 51
296.3341411079192085
  0
ARC
  5
1E468
  8
0
 10
4541.0083548161373983
 20
457.4809592082676204
 30
0.0
 40
0.0534113777044157
 50
321.4724307094870142
 51
350.4937947362869863
  0
ARC
  5
1E469
  8
0
 10
4541.0007133294666346
 20
457.4876964904329952
 30
0.0
 40
0.0635880230355003
 50
296.0616296533335117
 51
321.0121539920554028
  0
ARC
  5
1E46A
  8
0
 10
4540.9839805815381624
 20
457.4786295152326261
 30
0.0
 40
0.0522371649301908
 50
195.6714856847004
 51
234.3431815742341939
  0
ARC
  5
1E46B
  8
0
 10
4540.9934351987321861
 20
457.4901659891929739
 30
0.0
 40
0.0671290110594136
 50
233.5262102054554987
 51
258.693210647233002
  0
ARC
  5
1E46C
  8
0
 10
4541.0061883311582278
 20
457.5086452816801739
 30
0.0
 40
0.059639013839682
 50
351.3367664746845094
 51
17.4150249028249213
  0
ARC
  5
1E46D
  8
0
 10
4540.9912678736982343
 20
457.4995937899153091
 30
0.0
 40
0.062462543104048
 50
152.6439996625763058
 51
188.1438661338737006
  0
ARC
  5
1E46E
  8
0
 10
4541.0076255244966887
 20
457.5088737183405101
 30
0.0
 40
0.0581997164572345
 50
17.6239034660693896
 51
51.0749651507797608
  0
ARC
  5
1E46F
  8
0
 10
4541.0026708318109741
 20
457.5018551819832169
 30
0.0
 40
0.0667752744001085
 50
51.5513297553593404
 51
94.5112163518937081
  0
ARC
  5
1E470
  8
0
 10
4541.0019628227755675
 20
457.4940562101037926
 30
0.0
 40
0.0745060772178573
 50
93.4966586576581875
 51
152.6410897446299941
  0
LINE
  5
1E471
  8
0
 10
4541.0651469083850316
 20
457.4996620671612959
 30
0.0
 11
4541.0610327338854404
 21
457.4721380830612816
 31
0.0
  0
LINE
  5
1E472
  8
0
 10
4540.9294352821852954
 20
457.4907451105613063
 30
0.0
 11
4540.9323417163550403
 21
457.4712998790145093
 31
0.0
  0
ARC
  5
1E473
  8
0
 10
4541.1246148851578255
 20
457.8410590965145843
 30
0.0
 40
0.0183488800954237
 50
20.5097716776159089
 51
96.7395622722456068
  0
ARC
  5
1E474
  8
0
 10
4541.1224103001732146
 20
457.8382312108558949
 30
0.0
 40
0.021050034615198
 50
89.8605715530883344
 51
152.1385859595334011
  0
ARC
  5
1E475
  8
0
 10
4541.1289925483742991
 20
457.8441899086769808
 30
0.0
 40
0.013225925883269
 50
309.2335549724788279
 51
14.4397119735513808
  0
ARC
  5
1E476
  8
0
 10
4541.1223203741001271
 20
457.851381251638486
 30
0.0
 40
0.0230245325582532
 50
266.7083856117271239
 51
310.7758232709181243
  0
ARC
  5
1E477
  8
0
 10
4541.1210170042486425
 20
457.8484725098620061
 30
0.0
 40
0.020077814279551
 50
221.8173595669474025
 51
269.9467766207221189
  0
ARC
  5
1E478
  8
0
 10
4541.1155548964898117
 20
457.8434214620544935
 30
0.0
 40
0.0126398129162412
 50
158.4286082417297052
 51
221.2620224212884921
  0
ARC
  5
1E479
  8
0
 10
4541.1297196981286106
 20
457.842194699990273
 30
0.0
 40
0.0636819151784016
 50
39.6712700158723877
 51
79.9594191144928459
  0
ARC
  5
1E47A
  8
0
 10
4541.1242874962654241
 20
457.824637479876003
 30
0.0
 40
0.0819472914912455
 50
78.3598643871986553
 51
119.3077313164802007
  0
ARC
  5
1E47B
  8
0
 10
4541.1090234154717109
 20
457.8503560503078234
 30
0.0
 40
0.0520538403412452
 50
118.5140067258426058
 51
159.2190193509985079
  0
ARC
  5
1E47C
  8
0
 10
4541.0972764580546936
 20
457.8558451336871826
 30
0.0
 40
0.0391354701457199
 50
160.6307896405947133
 51
196.2742641117731068
  0
ARC
  5
1E47D
  8
0
 10
4541.1475416544835753
 20
457.8579812240338924
 30
0.0
 40
0.039893680271318
 50
352.0983577134538223
 51
38.5595944690728771
  0
ARC
  5
1E47E
  8
0
 10
4541.1214284824363858
 20
457.8780987581254749
 30
0.0
 40
0.0749434054705893
 50
258.3520291649048204
 51
296.3341411079192085
  0
ARC
  5
1E47F
  8
0
 10
4541.134378647385347
 20
457.8613180478351978
 30
0.0
 40
0.0534113777044157
 50
321.4724307094870142
 51
350.4937947362869863
  0
ARC
  5
1E480
  8
0
 10
4541.1267371607173118
 20
457.8680553300006864
 30
0.0
 40
0.0635880230355003
 50
296.0616296533335117
 51
321.0121539920554028
  0
ARC
  5
1E481
  8
0
 10
4541.1100044127879301
 20
457.8589883548002035
 30
0.0
 40
0.0522371649301908
 50
195.6714856847004
 51
234.3431815742341939
  0
ARC
  5
1E482
  8
0
 10
4541.1194590299810443
 20
457.8705248287607219
 30
0.0
 40
0.0671290110594136
 50
233.5262102054554987
 51
258.693210647233002
  0
ARC
  5
1E483
  8
0
 10
4541.132212162407086
 20
457.8890041212479218
 30
0.0
 40
0.059639013839682
 50
351.3367664746845094
 51
17.4150249028249213
  0
ARC
  5
1E484
  8
0
 10
4541.117291704948002
 20
457.8799526294830002
 30
0.0
 40
0.062462543104048
 50
152.6439996625763058
 51
188.1438661338737006
  0
ARC
  5
1E485
  8
0
 10
4541.1336493557482754
 20
457.8892325579082012
 30
0.0
 40
0.0581997164572345
 50
17.6239034660693896
 51
51.0749651507797608
  0
ARC
  5
1E486
  8
0
 10
4541.1286946630598322
 20
457.8822140215510217
 30
0.0
 40
0.0667752744001085
 50
51.5513297553593404
 51
94.5112163518937081
  0
ARC
  5
1E487
  8
0
 10
4541.1279866540262447
 20
457.8744150496714838
 30
0.0
 40
0.0745060772178573
 50
93.4966586576581875
 51
152.6410897446299941
  0
LINE
  5
1E488
  8
0
 10
4541.1911707396347992
 20
457.880020906728987
 30
0.0
 11
4541.1870565651352081
 21
457.8524969226289727
 31
0.0
  0
LINE
  5
1E489
  8
0
 10
4541.055459113435063
 20
457.8711039501289974
 30
0.0
 11
4541.0583655476038984
 21
457.8516587185822004
 31
0.0
  0
ARC
  5
1E48A
  8
0
 10
4540.9785630323704027
 20
455.8962537519387865
 30
0.0
 40
0.0183488800954237
 50
83.2604377277543932
 51
159.4902283223840982
  0
ARC
  5
1E48B
  8
0
 10
4540.980767617354104
 20
455.8934258662802108
 30
0.0
 40
0.021050034615198
 50
27.8614140404665811
 51
90.1394284469116798
  0
ARC
  5
1E48C
  8
0
 10
4540.9741853691530196
 20
455.8993845641011831
 30
0.0
 40
0.013225925883269
 50
165.5602880264486032
 51
230.7664450275212005
  0
ARC
  5
1E48D
  8
0
 10
4540.9808575434271916
 20
455.9065759070626882
 30
0.0
 40
0.0230245325582532
 50
229.2241767290819041
 51
273.2916143882728761
  0
ARC
  5
1E48E
  8
0
 10
4540.9821609132768572
 20
455.9036671652862083
 30
0.0
 40
0.020077814279551
 50
270.0532233792778811
 51
318.1826404330525975
  0
ARC
  5
1E48F
  8
0
 10
4540.9876230210384165
 20
455.8986161174788094
 30
0.0
 40
0.0126398129162412
 50
318.7379775787114795
 51
21.571391758270309
  0
ARC
  5
1E490
  8
0
 10
4540.973458219396889
 20
455.8973893554144752
 30
0.0
 40
0.0636819151784016
 50
100.0405808855071967
 51
140.328729984127591
  0
ARC
  5
1E491
  8
0
 10
4540.9788904212618945
 20
455.8798321353002052
 30
0.0
 40
0.0819472914912455
 50
60.692268683519778
 51
101.640135612801302
  0
ARC
  5
1E492
  8
0
 10
4540.9833046549601931
 20
455.8920031636840804
 30
0.0
 40
0.0692054748715547
 50
20.429484676683991
 51
58.9463591875842212
  0
ARC
  5
1E493
  8
0
 10
4540.9444152369942458
 20
455.9266734593156229
 30
0.0
 40
0.1042734459061551
 50
344.924144657648128
 51
354.2130692463153991
  0
ARC
  5
1E494
  8
0
 10
4540.9556362630428339
 20
455.9131758794580946
 30
0.0
 40
0.039893680271318
 50
141.4404055309271087
 51
187.9016422865462062
  0
ARC
  5
1E495
  8
0
 10
4540.9817494350909328
 20
455.9332934135496203
 30
0.0
 40
0.0749434054705893
 50
243.6658588920807915
 51
281.6479708350951796
  0
ARC
  5
1E496
  8
0
 10
4540.9687992701410622
 20
455.9165127032595137
 30
0.0
 40
0.0534113777044157
 50
189.5062052637129
 51
218.5275692905129858
  0
ARC
  5
1E497
  8
0
 10
4540.9764407568109164
 20
455.9232499854248886
 30
0.0
 40
0.0635880230355003
 50
218.9878460079447109
 51
243.9383703466664883
  0
ARC
  5
1E498
  8
0
 10
4540.97809305071587
 20
455.9290934791532095
 30
0.0
 40
0.0732297553169024
 50
308.4444537526766794
 51
336.2087452613154142
  0
ARC
  5
1E499
  8
0
 10
4540.9837188875462743
 20
455.9257194841848104
 30
0.0
 40
0.0671290110594136
 50
281.3067893527671117
 51
306.4737897945444729
  0
ARC
  5
1E49A
  8
0
 10
4540.9709657551202326
 20
455.944198776672124
 30
0.0
 40
0.059639013839682
 50
162.5849750971750041
 51
188.6632335253154054
  0
ARC
  5
1E49B
  8
0
 10
4541.0069545591131828
 20
455.9348353095990092
 30
0.0
 40
0.0435820596022435
 50
348.319997901351087
 51
29.7929074781546817
  0
ARC
  5
1E49C
  8
0
 10
4540.9547654629368481
 20
455.947639441129013
 30
0.0
 40
0.0431799462933523
 50
117.1981808017430069
 51
160.5070460390599862
  0
ARC
  5
1E49D
  8
0
 10
4540.9713491782704295
 20
455.917037476708515
 30
0.0
 40
0.0779819234275243
 50
84.3752083385197835
 51
117.7586711267344981
  0
ARC
  5
1E49E
  8
0
 10
4540.9743580073109115
 20
455.9108654936486005
 30
0.0
 40
0.0839065164153885
 50
32.9393776914934122
 51
86.8337399902481337
  0
LINE
  5
1E49F
  8
0
 10
4540.9120071778934289
 20
455.9352155621531892
 30
0.0
 11
4540.9161213523930201
 21
455.9076915780531749
 31
0.0
  0
LINE
  5
1E4A0
  8
0
 10
4541.0496341880898399
 20
455.92601231750632
 30
0.0
 11
4541.0466803672816241
 21
455.906306951306874
 31
0.0
  0
ARC
  5
1E4A1
  8
0
 10
4541.0446634573254414
 20
456.086001452205096
 30
0.0
 40
2.6240600173007809
 50
77.1501876647555633
 51
89.8555030978756548
  0
ARC
  5
1E4A2
  8
0
 10
4541.1274482880426149
 20
456.4740829141318272
 30
0.0
 40
2.2272935212821832
 50
62.0714153528237205
 51
77.0062275361902948
  0
ARC
  5
1E4A3
  8
0
 10
4541.4348569658659471
 20
457.0194895736366902
 30
0.0
 40
1.6015095011428231
 50
32.3969389576263822
 51
62.6493147570277671
  0
ARC
  5
1E4A4
  8
0
 10
4541.7969812880683094
 20
457.2779124686643968
 30
0.0
 40
1.1575418108059541
 50
6.8938754198766024
 51
31.1999214615977287
  0
ARC
  5
1E4A5
  8
0
 10
4541.0567149512962715
 20
458.1962203746892897
 30
0.0
 40
2.4361070653096211
 50
269.8722010775655917
 51
289.6510225123763007
  0
ARC
  5
1E4A6
  8
0
 10
4541.7157994043736835
 20
457.2977965580112141
 30
0.0
 40
1.2361017601290141
 50
335.5733576541073262
 51
5.5270734795779353
  0
ARC
  5
1E4A7
  8
0
 10
4541.4216490141670874
 20
457.3691559111359197
 30
0.0
 40
1.5344789611642831
 50
316.8916200122445161
 51
337.6897342370917841
  0
ARC
  5
1E4A8
  8
0
 10
4541.2949168166587697
 20
457.56564514422098
 30
0.0
 40
1.7621953179631189
 50
289.2520015743647264
 51
315.0431115427069813
  0
ARC
  5
1E4A9
  8
0
 10
4541.0578478734596501
 20
455.8846195562950925
 30
0.0
 40
2.426618308731165
 50
68.0454755305339631
 51
90.154665922865135
  0
ARC
  5
1E4AA
  8
0
 10
4541.4702569360897542
 20
456.7631523791503128
 30
0.0
 40
1.4586098486467201
 50
28.9575239559284014
 51
70.1688668032620058
  0
ARC
  5
1E4AB
  8
0
 10
4541.8696010338453561
 20
457.0492106802142871
 30
0.0
 40
0.9841271503822532
 50
325.9956840998931966
 51
358.3294695779699737
  0
ARC
  5
1E4AC
  8
0
 10
4541.896644513270985
 20
457.0300053054766067
 30
0.0
 40
0.9567124129832034
 50
359.4320096569088037
 51
27.3373084052974313
  0
ARC
  5
1E4AD
  8
0
 10
-199.0163755813437092
 20
340.0862990818541789
 30
0.0
 40
4743.231304779022139
 50
1.4129664567984279
 51
1.4146587523250189
  0
ARC
  5
1E4AE
  8
0
 10
4541.8477283109150449
 20
457.0197999593801796
 30
0.0
 40
0.9365270785533933
 50
10.2799130478046301
 51
30.7649946617928514
  0
ARC
  5
1E4AF
  8
0
 10
4541.0529988459938977
 20
455.8471607745336769
 30
0.0
 40
2.4063554923149022
 50
75.7534693587491006
 51
90.0408977220355382
  0
ARC
  5
1E4B0
  8
0
 10
4541.6378420766941417
 20
456.8977463174849731
 30
0.0
 40
1.179311810030738
 50
30.6443488502148007
 51
45.3795350206353305
  0
ARC
  5
1E4B1
  8
0
 10
4541.3777460752398838
 20
456.6299442812658071
 30
0.0
 40
1.5526228498149199
 50
45.4893655881910988
 51
62.1581180183290769
  0
ARC
  5
1E4B2
  8
0
 10
4541.1546759928378378
 20
456.2276652208589098
 30
0.0
 40
2.0125369433549412
 50
61.8913641118249629
 51
75.8932560446461508
  0
ARC
  5
1E4B3
  8
0
 10
4541.8644542835636457
 20
457.028128380812916
 30
0.0
 40
0.9084189479203665
 50
331.8644228559417115
 51
1.1820690494941131
  0
ARC
  5
1E4B4
  8
0
 10
4541.0525711929867612
 20
458.191685015305211
 30
0.0
 40
2.389475329904263
 50
269.9690677949267865
 51
281.8059008658872813
  0
ARC
  5
1E4B5
  8
0
 10
4541.6420100384912075
 20
457.1415886804683737
 30
0.0
 40
1.158091307594969
 50
315.7920534719925172
 51
332.1040044090734114
  0
ARC
  5
1E4B6
  8
0
 10
4541.3581247942847767
 20
457.4296240583515214
 30
0.0
 40
1.5624443058863451
 50
296.0439978313185065
 51
315.479447669138608
  0
ARC
  5
1E4B7
  8
0
 10
4541.1216834719425606
 20
457.888434437414503
 30
0.0
 40
2.0785070219335808
 50
281.6513615712131013
 51
296.3468528806262725
  0
ARC
  5
1E4B8
  8
0
 10
4541.8963634075507798
 20
457.0244159748675088
 30
0.0
 40
0.8766029462545406
 50
1.4684187632118819
 51
15.0316271036547704
  0
ARC
  5
1E4B9
  8
0
 10
4541.0529877721528464
 20
455.8499370360581224
 30
0.0
 40
2.3930806279683789
 50
78.2222530270563539
 51
90.0408594564579374
  0
ARC
  5
1E4BA
  8
0
 10
4541.0948252865618997
 20
456.0542353776870073
 30
0.0
 40
2.1845438592663728
 50
70.0678453942496589
 51
78.2027439369491191
  0
ARC
  5
1E4BB
  8
0
 10
4541.7225326719608347
 20
456.9632698325623892
 30
0.0
 40
1.060436098890025
 50
15.7864811232399695
 51
45.5354248573986311
  0
ARC
  5
1E4BC
  8
0
 10
4541.2837116792888992
 20
456.5122715487610208
 30
0.0
 40
1.6896885413325879
 50
45.628015418394483
 51
70.7943227289227224
  0
ARC
  5
1E4BD
  8
0
 10
4541.1460014225513078
 20
458.8829032141010771
 30
0.0
 40
0.4714766312659549
 50
32.7976240155629526
 51
76.6735966056691609
  0
ARC
  5
1E4BE
  8
0
 10
4541.5513919830045779
 20
459.1048191081168852
 30
0.0
 40
0.0071461975280972
 50
8.116394557633523
 51
76.4395032261044207
  0
ARC
  5
1E4BF
  8
0
 10
4541.5653728845118167
 20
459.0687131854293739
 30
0.0
 40
0.0065842619924563
 50
5.6262132891601642
 51
72.4125520804500553
  0
ARC
  5
1E4C0
  8
0
 10
4541.5738143199114347
 20
459.0316189303921988
 30
0.0
 40
0.0062621197848315
 50
4.490924692620279
 51
66.7967400713015707
  0
ARC
  5
1E4C1
  8
0
 10
4541.5769293727289551
 20
458.9941421190792994
 30
0.0
 40
0.0058569388508268
 50
3.1870786768897492
 51
57.63129685146599
  0
ARC
  5
1E4C2
  8
0
 10
4541.0522654008582322
 20
457.9353037747210919
 30
0.0
 40
0.930049113859699
 50
71.5796579205202619
 51
90.0606324425755957
  0
ARC
  5
1E4C3
  8
0
 10
4541.0542953242838848
 20
458.3495030491988018
 30
0.0
 40
0.551712781336501
 50
58.0625239113164326
 51
90.3130216461667459
  0
ARC
  5
1E4C4
  8
0
 10
4541.1029728022440395
 20
458.0935159183406995
 30
0.0
 40
0.7639226436791288
 50
55.9759104088887227
 51
71.4383946906752811
  0
ARC
  5
1E4C5
  8
0
 10
4541.1571920258766113
 20
458.1837970698611002
 30
0.0
 40
0.6587831321385446
 50
44.3540062677537534
 51
55.4906851843850433
  0
ARC
  5
1E4C6
  8
0
 10
4541.1357926203845636
 20
458.4731541223919749
 30
0.0
 40
0.4879231309536386
 50
33.5733888605031083
 51
75.8978317872697801
  0
ARC
  5
1E4C7
  8
0
 10
4541.157079144925774
 20
458.9557200663077765
 30
0.0
 40
0.0116249966536225
 50
45.987279508121027
 51
117.3504723815138959
  0
ARC
  5
1E4C8
  8
0
 10
4541.130861955995897
 20
458.9686724708606107
 30
0.0
 40
0.0119354532368922
 50
230.8377422522418101
 51
296.7035520123486094
  0
ARC
  5
1E4C9
  8
0
 10
4541.1044379661270796
 20
458.9611253356885072
 30
0.0
 40
0.0119320990271487
 50
50.9167612991795835
 51
120.7954638408857022
  0
ARC
  5
1E4CA
  8
0
 10
4541.0515017877423816
 20
458.9637053365175916
 30
0.0
 40
0.0112773698766429
 50
53.9863739709570396
 51
91.1208408091141564
  0
ARC
  5
1E4CB
  8
0
 10
4541.0779043496540908
 20
458.9726675061812102
 30
0.0
 40
0.0120864563384882
 50
235.2699885940546949
 51
300.5915222844608934
  0
ARC
  5
1E4CC
  8
0
 10
4541.1829604514578023
 20
458.9607497813908026
 30
0.0
 40
0.0116558564224282
 50
226.111803054428492
 51
292.9786732999962169
  0
ARC
  5
1E4CD
  8
0
 10
4541.2086397262801256
 20
458.9465178443248874
 30
0.0
 40
0.0113257622017535
 50
41.163856861037381
 51
113.6242721354405063
  0
ARC
  5
1E4CE
  8
0
 10
4541.2337143544882565
 20
458.9492193129477187
 30
0.0
 40
0.0114633473643951
 50
221.6448249889664055
 51
295.4474416732984992
  0
ARC
  5
1E4CF
  8
0
 10
4541.2337075189825555
 20
459.3444972411559206
 30
0.0
 40
0.0114358395011101
 50
221.5412714269745891
 51
295.5509946629518936
  0
ARC
  5
1E4D0
  8
0
 10
4541.2086894449121246
 20
459.3420518295041006
 30
0.0
 40
0.011142811615221
 50
40.4715081894320576
 51
114.3166208102459933
  0
ARC
  5
1E4D1
  8
0
 10
4541.1829521831941747
 20
459.356016637509299
 30
0.0
 40
0.0116178579840376
 50
225.9879922113198916
 51
293.102484438850297
  0
ARC
  5
1E4D2
  8
0
 10
4541.1570814344759128
 20
459.3510473657639182
 30
0.0
 40
0.0116121654727817
 50
45.9418039968134693
 51
117.3959480877162065
  0
ARC
  5
1E4D3
  8
0
 10
4541.1308696921250885
 20
459.3640550106429146
 30
0.0
 40
0.0119953548874933
 50
231.0228818049766915
 51
296.5184132711008829
  0
ARC
  5
1E4D4
  8
0
 10
4541.1044406725113731
 20
459.3564743544686166
 30
0.0
 40
0.0119014170389226
 50
50.8135024586363215
 51
120.898723550394493
  0
ARC
  5
1E4D5
  8
0
 10
4541.0779043497468592
 20
459.3679791715794067
 30
0.0
 40
0.0120864566368918
 50
235.2699890341729088
 51
300.591520932205583
  0
ARC
  5
1E4D6
  8
0
 10
4541.0514766036403671
 20
459.3589368664938775
 30
0.0
 40
0.0113570285341786
 50
54.1213107678360927
 51
90.9859040121902041
  0
ARC
  5
1E4D7
  8
0
 10
4541.5504685461228291
 20
458.7077843996227102
 30
0.0
 40
0.0090512013923965
 50
44.4362462396934106
 51
73.3128099686236823
  0
ARC
  5
1E4D8
  8
0
 10
4541.553256594076629
 20
458.7106236504309891
 30
0.0
 40
0.005211109427209
 50
319.3473778112842751
 51
358.8204354891760772
  0
ARC
  5
1E4D9
  8
0
 10
4541.5531232286148224
 20
458.7103701480039035
 30
0.0
 40
0.0053453710671087
 50
1.567573490752834
 51
44.5678923551057196
  0
ARC
  5
1E4DA
  8
0
 10
4541.5580762626586875
 20
458.7089198130545924
 30
0.0
 40
0.0348067332064383
 50
134.5362302508449943
 51
140.3698472434186044
  0
ARC
  5
1E4DB
  8
0
 10
4541.5352660786129491
 20
458.7279643407255776
 30
0.0
 40
0.0050930615341517
 50
141.7049141090452906
 51
179.187540230545693
  0
LINE
  5
1E4DC
  8
0
 10
4541.5304191606246604
 20
458.726656831749608
 30
0.0
 11
4541.530173529115018
 21
458.7280365584172159
 31
0.0
  0
LINE
  5
1E4DD
  8
0
 10
4541.5336642074207703
 20
458.7337302994590118
 30
0.0
 11
4541.542319524013692
 21
458.7429778766170898
 31
0.0
  0
LINE
  5
1E4DE
  8
0
 10
4541.542319524013692
 20
458.7429778766170898
 30
0.0
 11
4541.542319524013692
 21
459.1382895416172119
 31
0.0
  0
LINE
  5
1E4DF
  8
0
 10
4541.542319524013692
 20
459.1152335285171944
 30
0.0
 11
4541.5530675657137181
 21
459.1117660903171895
 31
0.0
  0
LINE
  5
1E4E0
  8
0
 10
4541.5584665992146256
 20
459.1058280405172241
 30
0.0
 11
4541.5584665992146256
 21
458.7105163754702062
 31
0.0
  0
LINE
  5
1E4E1
  8
0
 10
4541.5584665992146256
 20
459.0786764116172094
 30
0.0
 11
4541.5673623921147737
 21
459.0749896785172268
 31
0.0
  0
LINE
  5
1E4E2
  8
0
 10
4541.5719254278137669
 20
459.0693586947172093
 30
0.0
 11
4541.5719254278137669
 21
458.6956480447618105
 31
0.0
  0
LINE
  5
1E4E3
  8
0
 10
4541.5719254278137669
 20
459.0396309717172016
 30
0.0
 11
4541.5762815588150261
 21
459.0373745256171105
 31
0.0
  0
LINE
  5
1E4E4
  8
0
 10
4541.5800572134148752
 20
459.0321092618171974
 30
0.0
 11
4541.5800572134148752
 21
458.6889507577208178
 31
0.0
  0
LINE
  5
1E4E5
  8
0
 10
4541.5827772528145942
 20
458.9944677434170899
 30
0.0
 11
4541.5827772528145942
 21
458.6866612958723977
 31
0.0
  0
LINE
  5
1E4E6
  8
0
 10
4541.5530675657137181
 20
458.7164544252170799
 30
0.0
 11
4541.5382242666801176
 21
458.7212430392124816
 31
0.0
  0
LINE
  5
1E4E7
  8
0
 10
4541.5355725626141066
 20
458.7357692383171752
 30
0.0
 11
4541.5355725626141066
 21
458.723100679232175
 31
0.0
  0
LINE
  5
1E4E8
  8
0
 10
4541.2386399595152398
 20
458.9388681416170925
 30
0.0
 11
4541.2546759275137447
 21
458.9463726142171822
 31
0.0
  0
LINE
  5
1E4E9
  8
0
 10
4541.2546759275137447
 20
458.9463726142171822
 30
0.0
 11
4541.2546759275137447
 21
459.3416842793171782
 31
0.0
  0
LINE
  5
1E4EA
  8
0
 10
4541.2546759275137447
 20
459.3416842793171782
 30
0.0
 11
4541.2386399597162381
 21
459.3341798067111768
 31
0.0
  0
LINE
  5
1E4EB
  8
0
 10
4541.225148042114597
 20
459.3369134570854158
 30
0.0
 11
4541.2171661029151437
 21
459.3492842924172237
 31
0.0
  0
LINE
  5
1E4EC
  8
0
 10
4541.2041010721150087
 20
459.3522060939171752
 30
0.0
 11
4541.1875107634696178
 21
459.3453304796402108
 31
0.0
  0
LINE
  5
1E4ED
  8
0
 10
4541.1651564025942207
 20
459.3593922610216964
 30
0.0
 11
4541.1748799896149649
 21
459.3476611414167792
 31
0.0
  0
LINE
  5
1E4EE
  8
0
 10
4541.1517382475140039
 20
459.3613572028170893
 30
0.0
 11
4541.1362254427776861
 21
459.3533216759460061
 31
0.0
  0
LINE
  5
1E4EF
  8
0
 10
4541.1119605431149466
 20
459.3656990644171856
 30
0.0
 11
4541.1233244942150122
 21
459.3547298551172275
 31
0.0
  0
LINE
  5
1E4F0
  8
0
 10
4541.0581326290139259
 20
459.3681390088170815
 30
0.0
 11
4541.0710185736152198
 21
459.3580459686172048
 31
0.0
  0
LINE
  5
1E4F1
  8
0
 10
4541.0983290314161422
 20
459.3666866789171763
 30
0.0
 11
4541.0840553171146894
 21
459.3575749401172175
 31
0.0
  0
LINE
  5
1E4F2
  8
0
 10
4541.217166102956071
 20
458.9539726273692963
 30
0.0
 11
4541.225148042114597
 21
458.9416017920170816
 31
0.0
  0
LINE
  5
1E4F3
  8
0
 10
4541.2041010720959093
 20
458.9568944289098908
 30
0.0
 11
4541.1875107634150481
 21
458.9500188145171933
 31
0.0
  0
LINE
  5
1E4F4
  8
0
 10
4541.1651564025150947
 20
458.9640805960170837
 30
0.0
 11
4541.1748799895813136
 21
458.9523494763581084
 31
0.0
  0
LINE
  5
1E4F5
  8
0
 10
4541.1517382475140039
 20
458.9660455378170809
 30
0.0
 11
4541.1362254429141103
 21
458.9580100109171781
 31
0.0
  0
LINE
  5
1E4F6
  8
0
 10
4541.1119605431149466
 20
458.9703873993171896
 30
0.0
 11
4541.1233244941058729
 21
458.9594181901246088
 31
0.0
  0
LINE
  5
1E4F7
  8
0
 10
4541.0840553171146894
 20
458.9622632750172215
 30
0.0
 11
4541.0983290314161422
 21
458.9713750138171804
 31
0.0
  0
LINE
  5
1E4F8
  8
0
 10
4541.0581326290139259
 20
458.9728273437171993
 30
0.0
 11
4541.0710185736152198
 21
458.9627343035170952
 31
0.0
  0
LINE
  5
1E4F9
  8
0
 10
4541.4572811901070963
 20
459.2370149480781834
 30
0.0
 11
4541.4572811898151485
 21
460.471411109217172
 31
0.0
  0
ARC
  5
1E4FA
  8
0
 10
4541.05128118981429
 20
460.471411109217172
 30
0.0
 40
0.4059999999999997
 50
0.0
 51
90.0
  0
ARC
  5
1E4FB
  8
0
 10
4541.05128118981429
 20
460.471411109217172
 30
0.0
 40
0.4507107875000003
 50
334.2633425216092746
 51
90.0
  0
LINE
  5
1E4FC
  8
0
 10
4541.1808440167660592
 20
459.344591653551106
 30
0.0
 11
4541.1808453898365769
 21
458.949287429831088
 31
0.0
  0
LINE
  5
1E4FD
  8
0
 10
4541.2171661029151437
 20
459.3492842924172237
 30
0.0
 11
4541.2171661029151437
 21
458.9539726274491045
 31
0.0
  0
LINE
  5
1E4FE
  8
0
 10
4541.2041010720213308
 20
458.9568944288782859
 30
0.0
 11
4541.2041010721150087
 21
459.3522060939171752
 31
0.0
  0
LINE
  5
1E4FF
  8
0
 10
4541.2314366030077508
 20
459.333289147396215
 30
0.0
 11
4541.2314379760873635
 21
458.9379842591350211
 31
0.0
  0
LINE
  5
1E500
  8
0
 10
4541.1651564025942207
 20
459.3593922610216964
 30
0.0
 11
4541.1651564025132757
 21
458.9640805960190164
 31
0.0
  0
LINE
  5
1E501
  8
0
 10
4541.151807037747858
 20
458.9660808304245734
 30
0.0
 11
4541.1517382703577823
 21
459.3613572146501838
 31
0.0
  0
LINE
  5
1E502
  8
0
 10
4541.1119605431149466
 20
459.3656990644171856
 30
0.0
 11
4541.1119605431149466
 21
458.9703873993171896
 31
0.0
  0
LINE
  5
1E503
  8
0
 10
4541.0983290338690495
 20
458.9713750153836145
 30
0.0
 11
4541.0983290314161422
 21
459.3666866789171763
 31
0.0
  0
LINE
  5
1E504
  8
0
 10
4541.1295680924531553
 20
459.3521304822592128
 30
0.0
 11
4541.1295668560878767
 21
458.9568074904477726
 31
0.0
  0
LINE
  5
1E505
  8
0
 10
4541.0774679405731149
 20
459.3559005962879951
 30
0.0
 11
4541.0774679405867573
 21
458.9605889311845885
 31
0.0
  0
LINE
  5
1E506
  8
0
 10
4541.0581326290139259
 20
459.3681390088171952
 30
0.0
 11
4541.0581326290139259
 21
458.9728273437171993
 31
0.0
  0
ARC
  5
1E507
  8
0
 10
4541.05128118981429
 20
460.471411109217172
 30
0.0
 40
0.6447928774000001
 50
309.0250100281461982
 51
230.9749899718538018
  0
ARC
  5
1E508
  8
0
 10
4541.05128118981429
 20
460.471411109217172
 30
0.0
 40
1.2598425197000001
 50
288.7998066226621745
 51
251.2001933773377971
  0
ENDSEC
  0
EOF
