  0
SECTION
  2
HEADER
  9
$ACADVER
  1
AC1009
  9
$INSBASE
 10
4535.4733846956596608
 20
462.2921183714300923
 30
0.0
  9
$EXTMIN
 10
4527.4765292234205845
 20
457.105295851759081
 30
0.0
  9
$EXTMAX
 10
4545.718802291036809
 20
466.7531338182358809
 30
0.0
  9
$LIMMIN
 10
0.0
 20
0.0
  9
$LIMMAX
 10
11.6929133858000007
 20
8.2677165353999982
  9
$ORTHOMODE
 70
     0
  9
$REGENMODE
 70
     1
  9
$FILLMODE
 70
     1
  9
$QTEXTMODE
 70
     0
  9
$MIRRTEXT
 70
     0
  9
$DRAGMODE
 70
     2
  9
$LTSCALE
 40
0.6431102362
  9
$OSMODE
 70
  2039
  9
$ATTMODE
 70
     1
  9
$TEXTSIZE
 40
0.2
  9
$TRACEWID
 40
0.05
  9
$TEXTSTYLE
  7
STANDARD
  9
$CLAYER
  8
0
  9
$CELTYPE
  6
BYLAYER
  9
$CECOLOR
 62
   256
  9
$DIMSCALE
 40
1.0
  9
$DIMASZ
 40
0.1875
  9
$DIMEXO
 40
0.0625
  9
$DIMDLI
 40
0.4443307087
  9
$DIMRND
 40
0.0
  9
$DIMDLE
 40
0.0
  9
$DIMEXE
 40
0.125
  9
$DIMTP
 40
0.01
  9
$DIMTM
 40
0.01
  9
$DIMTXT
 40
2.0
  9
$DIMCEN
 40
0.1052362205
  9
$DIMTSZ
 40
0.0
  9
$DIMTOL
 70
     1
  9
$DIMLIM
 70
     0
  9
$DIMTIH
 70
     1
  9
$DIMTOH
 70
     1
  9
$DIMSE1
 70
     0
  9
$DIMSE2
 70
     0
  9
$DIMTAD
 70
     0
  9
$DIMZIN
 70
     0
  9
$DIMBLK
  1

  9
$DIMASO
 70
     1
  9
$DIMSHO
 70
     1
  9
$DIMPOST
  1
\X
  9
$DIMAPOST
  1

  9
$DIMALT
 70
     1
  9
$DIMALTD
 70
     2
  9
$DIMALTF
 40
25.3999999999999986
  9
$DIMLFAC
 40
1.0
  9
$DIMTOFL
 70
     0
  9
$DIMTVP
 40
0.0
  9
$DIMTIX
 70
     0
  9
$DIMSOXD
 70
     0
  9
$DIMSAH
 70
     0
  9
$DIMBLK1
  1

  9
$DIMBLK2
  1

  9
$DIMSTYLE
  2
STANDARD
  9
$DIMCLRD
 70
     0
  9
$DIMCLRE
 70
     0
  9
$DIMCLRT
 70
     0
  9
$DIMTFAC
 40
1.0
  9
$DIMGAP
 40
0.09
  9
$LUNITS
 70
     2
  9
$LUPREC
 70
     4
  9
$SKETCHINC
 40
0.1
  9
$FILLETRAD
 40
0.0
  9
$AUNITS
 70
     0
  9
$AUPREC
 70
     0
  9
$MENU
  1
.
  9
$ELEVATION
 40
0.0
  9
$PELEVATION
 40
0.0
  9
$THICKNESS
 40
0.0
  9
$LIMCHECK
 70
     0
  9
$BLIPMODE
 70
     0
  9
$CHAMFERA
 40
0.0
  9
$CHAMFERB
 40
0.0
  9
$SKPOLY
 70
     0
  9
$TDCREATE
 40
2458060.468368056230247
  9
$TDUPDATE
 40
2459667.4642476858571172
  9
$TDINDWG
 40
1.5302574073999999
  9
$TDUSRTIMER
 40
1.5302574073999999
  9
$USRTIMER
 70
     1
  9
$ANGBASE
 50
0.0
  9
$ANGDIR
 70
     0
  9
$PDMODE
 70
     0
  9
$PDSIZE
 40
0.3125
  9
$PLINEWID
 40
0.0
  9
$COORDS
 70
     1
  9
$SPLFRAME
 70
     0
  9
$SPLINETYPE
 70
     6
  9
$SPLINESEGS
 70
     8
  9
$ATTDIA
 70
     1
  9
$ATTREQ
 70
     1
  9
$HANDLING
 70
     1
  9
$HANDSEED
  5
1DE81
  9
$SURFTAB1
 70
     6
  9
$SURFTAB2
 70
     6
  9
$SURFTYPE
 70
     6
  9
$SURFU
 70
     6
  9
$SURFV
 70
     6
  9
$UCSNAME
  2

  9
$UCSORG
 10
0.0
 20
0.0
 30
0.0
  9
$UCSXDIR
 10
1.0
 20
0.0
 30
0.0
  9
$UCSYDIR
 10
0.0
 20
1.0
 30
0.0
  9
$PUCSNAME
  2

  9
$PUCSORG
 10
0.0
 20
0.0
 30
0.0
  9
$PUCSXDIR
 10
1.0
 20
0.0
 30
0.0
  9
$PUCSYDIR
 10
0.0
 20
1.0
 30
0.0
  9
$USERI1
 70
     0
  9
$USERI2
 70
     0
  9
$USERI3
 70
     0
  9
$USERI4
 70
     0
  9
$USERI5
 70
     0
  9
$USERR1
 40
0.0
  9
$USERR2
 40
0.0
  9
$USERR3
 40
0.0
  9
$USERR4
 40
0.0
  9
$USERR5
 40
0.0
  9
$WORLDVIEW
 70
     1
  9
$SHADEDGE
 70
     3
  9
$SHADEDIF
 70
    70
  9
$TILEMODE
 70
     1
  9
$MAXACTVP
 70
    64
  9
$PLIMCHECK
 70
     0
  9
$PEXTMIN
 10
1.0000000000000000E+20
 20
1.0000000000000000E+20
 30
1.0000000000000000E+20
  9
$PEXTMAX
 10
-1.0000000000000000E+20
 20
-1.0000000000000000E+20
 30
-1.0000000000000000E+20
  9
$PLIMMIN
 10
0.0
 20
0.0
  9
$PLIMMAX
 10
12.0
 20
9.0
  9
$UNITMODE
 70
     0
  9
$VISRETAIN
 70
     1
  9
$PLINEGEN
 70
     0
  9
$PSLTSCALE
 70
     1
  0
ENDSEC
  0
SECTION
  2
TABLES
  0
TABLE
  2
VPORT
 70
     1
  0
VPORT
  2
*ACTIVE
 70
     0
 10
0.0
 20
0.0
 11
1.0
 21
1.0
 12
633.0827326592720965
 22
329.5142266822024908
 13
0.0
 23
0.0
 14
1.0
 24
1.0
 15
0.0
 25
0.0
 16
0.0
 26
0.0
 36
60.4960186965801583
 17
3911.3653564453120453
 27
132.5796051025390057
 37
0.0
 40
24.8040400033997983
 41
2.5410052910052912
 42
50.0
 43
0.0
 44
0.0
 50
0.0
 51
0.0
 71
     0
 72
   100
 73
     1
 74
     1
 75
     0
 76
     0
 77
     0
 78
     0
  0
ENDTAB
  0
TABLE
  2
LTYPE
 70
     2
  0
LTYPE
  2
CONTINUOUS
 70
     0
  3
Solid line
 72
    65
 73
     0
 40
0.0
  0
LTYPE
  2
PHANTOM2
 70
     0
  3
___ _ _ ___ _ _ ___ _ _ ___ _ _
 72
    65
 73
     6
 40
1.25
 49
0.625
 49
-0.125
 49
0.125
 49
-0.125
 49
0.125
 49
-0.125
  0
ENDTAB
  0
TABLE
  2
LAYER
 70
     2
  0
LAYER
  2
0
 70
     0
 62
   255
  6
CONTINUOUS
  0
LAYER
  2
DEFPOINTS
 70
     0
 62
     7
  6
CONTINUOUS
  0
ENDTAB
  0
TABLE
  2
STYLE
 70
     1
  0
STYLE
  2
STANDARD
 70
     0
 40
0.0
 41
0.8
 50
0.0
 71
     0
 42
0.2
  3
txt
  4

  0
ENDTAB
  0
TABLE
  2
VIEW
 70
     0
  0
ENDTAB
  0
TABLE
  2
UCS
 70
     0
  0
ENDTAB
  0
TABLE
  2
APPID
 70
    11
  0
APPID
  2
ACAD
 70
     0
  0
APPID
  2
ACAD_MLEADERVER
 70
     0
  0
APPID
  2
ACAD_EXEMPT_FROM_CAD_STANDARDS
 70
     0
  0
APPID
  2
ACAD_NAV_VCDISPLAY
 70
     0
  0
APPID
  2
ACAECLAYERSTANDARD
 70
     0
  0
APPID
  2
ACCMTRANSPARENCY
 70
     0
  0
APPID
  2
ACAD_DSTYLE_DIMJAG
 70
     0
  0
APPID
  2
ACAD_DSTYLE_DIMTALN
 70
     0
  0
APPID
  2
ACDBATTR
 70
     0
  0
APPID
  2
ACADANNOTATIVE
 70
     0
  0
APPID
  2
DCO15
 70
     0
  0
ENDTAB
  0
TABLE
  2
DIMSTYLE
 70
     1
  0
DIMSTYLE
  2
STANDARD
 70
     0
  3

  4

  5

  6

  7

 40
1.0
 41
0.1875
 42
0.0625
 43
0.38
 44
0.125
 45
0.0
 46
0.0
 47
0.01
 48
0.01
140
0.15625
141
0.09
142
0.0
143
25.3999999999999986
144
1.0
145
0.0
146
1.0
147
0.09
 71
     1
 72
     0
 73
     1
 74
     1
 75
     0
 76
     0
 77
     0
 78
     4
170
     0
171
     2
172
     0
173
     0
174
     0
175
     0
176
     0
177
     0
178
     0
  0
ENDTAB
  0
ENDSEC
  0
SECTION
  2
BLOCKS
  0
BLOCK
  8
0
  2
$MODEL_SPACE
 70
     0
 10
0.0
 20
0.0
 30
0.0
  3
$MODEL_SPACE
  1

  0
ENDBLK
  5
21
  8
0
  0
BLOCK
 67
     1
  8
0
  2
$PAPER_SPACE
 70
     0
 10
0.0
 20
0.0
 30
0.0
  3
$PAPER_SPACE
  1

  0
ENDBLK
  5
1D
 67
     1
  8
0
  0
BLOCK
  8
0
  2
_FILLED
 70
     0
 10
0.0
 20
0.0
 30
0.0
  3
_FILLED
  1

  0
SOLID
  5
1B77F
  8
0
  6
BYBLOCK
 62
     0
 10
0.0
 20
0.0
 30
0.0
 11
-1.0
 21
0.1666666667
 31
0.0
 12
-1.0
 22
-0.1666666667
 32
0.0
 13
-1.0
 23
-0.1666666667
 33
0.0
  0
ENDBLK
  5
1B780
  8
0
  6
BYBLOCK
 62
     0
  0
ENDSEC
  0
SECTION
  2
ENTITIES
  0
ATTDEF
  5
159BF
  8
DEFPOINTS
 10
4535.4760100430612511
 20
462.2982443575394882
 30
0.0
 40
0.001
  1
K-16356IN-A
  3

  2
MODELNUMBER
 70
     0
1001
ACDBATTR
1070
     0
1070
     1
  0
ATTDEF
  5
159C0
  8
DEFPOINTS
 10
4535.4760100430612511
 20
462.2965775171603013
 30
0.0
 40
0.001
  1

  3

  2
TRADENAME
 70
     0
1001
ACDBATTR
1070
     0
1070
     1
  0
ATTDEF
  5
159C1
  8
DEFPOINTS
 10
4535.4760100430612511
 20
462.294911024206101
 30
0.0
 40
0.001
  1
SHOWERHEAD
  3

  2
PRODUCT
 70
     0
1001
ACDBATTR
1070
     0
1070
     1
  0
ARC
  5
1DB94
  8
0
 10
4535.1072429633595675
 20
462.9171183714300923
 30
0.0
 40
0.0787401574998087
 50
165.438419932775588
 51
180.0000000000163141
  0
ARC
  5
1DB95
  8
0
 10
4535.2943594987500546
 20
463.4929057727218833
 30
0.0
 40
0.0590551184081401
 50
90.000000086919826
 51
154.8488972621746882
  0
ARC
  5
1DB96
  8
0
 10
4538.2699938388414012
 20
462.0955477728093115
 30
0.0
 40
3.3464566918515288
 50
154.8453126187201008
 51
165.4384199274674927
  0
LINE
  5
1DB97
  8
0
 10
4535.0285028058597163
 20
462.9171183714300923
 30
0.0
 11
4535.0285028058597163
 21
461.6671183714299787
 31
0.0
  0
LINE
  5
1DB98
  8
0
 10
4535.2409033907069897
 20
463.5180046079220233
 30
0.0
 11
4535.2409033907597404
 21
461.0662321349300896
 31
0.0
  0
LINE
  5
1DB99
  8
0
 10
4535.2943594987500546
 20
463.5519608911300793
 30
0.0
 11
4535.4733846956596608
 21
463.5519608911300793
 31
0.0
  0
LINE
  5
1DB9A
  8
0
 10
4535.4733846956596608
 20
463.5519608911300793
 30
0.0
 11
4535.4733846956596608
 21
461.0322758517301054
 31
0.0
  0
LINE
  5
1DB9B
  8
0
 10
4533.0521248531604215
 20
462.6981183714300983
 30
0.0
 11
4535.0310315619599351
 21
462.6981183714300983
 31
0.0
  0
LINE
  5
1DB9C
  8
0
 10
4533.0521248531604215
 20
461.8861183714299727
 30
0.0
 11
4535.0285028058597163
 21
461.8861183714299727
 31
0.0
  0
LINE
  5
1DB9D
  8
0
 10
4531.2895804683603274
 20
461.9680485829301233
 30
0.0
 11
4530.423792244159813
 21
461.1022603587301205
 31
0.0
  0
LINE
  5
1DB9E
  8
0
 10
4531.8637511746601376
 20
461.3938778766300857
 30
0.0
 11
4530.9979629504596232
 21
460.5280896524300829
 31
0.0
  0
ARC
  5
1DB9F
  8
0
 10
4533.0521248532022582
 20
460.2055041980252099
 30
0.0
 40
1.6806141734049149
 50
90.0000000014069741
 51
134.9999999984570138
  0
ARC
  5
1DBA0
  8
0
 10
4533.0521248531604215
 20
460.2055041982300736
 30
0.0
 40
2.4926141732000171
 50
90.0
 51
135.0000000000046043
  0
LINE
  5
1DBA1
  8
0
 10
4530.3350531269597923
 20
461.1909994759300844
 30
0.0
 11
4531.0867020675650565
 21
460.43935053513502
 31
0.0
  0
LINE
  5
1DBA2
  8
0
 10
4530.6913602514596278
 20
460.0440690212300865
 30
0.0
 11
4529.9397414618160838
 21
460.795687810685024
 31
0.0
  0
LINE
  5
1DBA3
  8
0
 10
4529.9397414618160838
 20
460.795687810685024
 30
0.0
 11
4530.3350531269597923
 21
461.1909994759300844
 31
0.0
  0
LINE
  5
1DBA4
  8
0
 10
4529.8255022216362704
 20
460.5424542356798838
 30
0.0
 11
4530.561033311760184
 21
459.8021779737301244
 31
0.0
  0
LINE
  5
1DBA5
  8
0
 10
4530.0135144135556402
 20
460.7219148589636006
 30
0.0
 11
4530.0127467428601449
 21
460.6806096553301018
 31
0.0
  0
ARC
  5
1DBA6
  8
0
 10
4529.8901143534603762
 20
460.682888818230083
 30
0.0
 40
0.1226535669999929
 50
278.0873959469162173
 51
358.935261821603774
  0
ARC
  5
1DBA7
  8
0
 10
4529.9750196624536329
 20
460.0841086378006253
 30
0.0
 40
0.4821163264235003
 50
98.0662940943382182
 51
108.0669031220140965
  0
LINE
  5
1DBA8
  8
0
 10
4529.7211030061607744
 20
460.6468534511300845
 30
0.0
 11
4529.8255022216362704
 21
460.542454235679827
 31
0.0
  0
ARC
  5
1DBA9
  8
0
 10
4529.6264509173515762
 20
460.5522013623527755
 30
0.0
 40
0.1338582676772994
 50
44.9999999977223695
 51
127.5000000033046064
  0
ARC
  5
1DBAA
  8
0
 10
4527.8348938918597923
 20
460.2945399144301177
 30
0.0
 40
0.2362204724000028
 50
87.6798154632512876
 51
142.7219677952155052
  0
ARC
  5
1DBAB
  8
0
 10
4529.0231417953591517
 20
460.2256929059300887
 30
0.0
 40
0.0393700786999966
 50
44.9999999999953886
 51
100.7294101433583933
  0
ARC
  5
1DBAC
  8
0
 10
4527.7906629701346901
 20
459.5150030865693793
 30
0.0
 40
1.016987372136724
 50
67.943190745945671
 51
86.9678979044351195
  0
ARC
  5
1DBAD
  8
0
 10
4526.7930226460475751
 20
456.9882524574626927
 30
0.0
 40
3.733528366148529
 50
63.2010292843288894
 51
68.3151082249179638
  0
ARC
  5
1DBAE
  8
0
 10
4528.6151286372651157
 20
462.021248741844488
 30
0.0
 40
1.801986062209602
 50
277.4518576299421966
 51
282.8474884643059113
  0
ARC
  5
1DBAF
  8
0
 10
4528.9612140073486444
 20
461.3375348460356236
 30
0.0
 40
1.126459813043273
 50
244.5037367013624134
 51
255.9479965326572142
  0
ARC
  5
1DBB0
  8
0
 10
4528.7988014910615675
 20
460.7171714197560277
 30
0.0
 40
0.4852755741000193
 50
256.7658465236794996
 51
275.9177553397348106
  0
LINE
  5
1DBB1
  8
0
 10
4529.5449631670562667
 20
460.6583982661269943
 30
0.0
 11
4529.0363707906599302
 21
460.2681416099301259
 31
0.0
  0
LINE
  5
1DBB2
  8
0
 10
4529.0363707906599302
 20
460.2681416099301259
 30
0.0
 11
4530.1638442016601402
 21
459.1406681989299727
 31
0.0
  0
LINE
  5
1DBB3
  8
0
 10
4527.4880604513682556
 20
460.0904432708733225
 30
0.0
 11
4529.9861314345607752
 21
457.592372287530111
 31
0.0
  0
ARC
  5
1DBB4
  8
0
 10
4527.5158993025734162
 20
460.1182821195565111
 30
0.0
 40
0.0393700791528639
 50
159.7073202852203906
 51
224.9999974033626131
  0
ARC
  5
1DBB5
  8
0
 10
4528.5867418551979426
 20
459.7222406758108946
 30
0.0
 40
1.181102358404599
 50
142.7219677767600103
 51
159.7036674383649029
  0
LINE
  5
1DBB6
  8
0
 10
4527.8444569925331962
 20
460.5305667321571832
 30
0.0
 11
4530.4262693239597866
 21
457.9487544007300812
 31
0.0
  0
LINE
  5
1DBB7
  8
0
 10
4530.3636610613566518
 20
461.1623915415265174
 30
0.0
 11
4529.9683493963084402
 21
460.7670798764781921
 31
0.0
  0
LINE
  5
1DBB8
  8
0
 10
4530.356061048232732
 20
461.1699915546524267
 30
0.0
 11
4529.9607493831836109
 21
460.7746798896041014
 31
0.0
  0
LINE
  5
1DBB9
  8
0
 10
4530.3522433550060668
 20
461.1738092479264992
 30
0.0
 11
4529.9569316899578553
 21
460.7784975828781739
 31
0.0
  0
LINE
  5
1DBBA
  8
0
 10
4530.3459530795571482
 20
461.1800995233264757
 30
0.0
 11
4529.9506414145071176
 21
460.7847878582782073
 31
0.0
  0
LINE
  5
1DBBB
  8
0
 10
4530.3427265260570493
 20
461.1833260768265177
 30
0.0
 11
4529.9474148610079283
 21
460.7880144117781924
 31
0.0
  0
LINE
  5
1DBBC
  8
0
 10
4530.3396462762566443
 20
461.1864063266264111
 30
0.0
 11
4529.9443346112084328
 21
460.7910946615780858
 31
0.0
  0
LINE
  5
1DBBD
  8
0
 10
4530.3369764853350716
 20
461.1890761175549187
 30
0.0
 11
4529.94166482028686
 21
460.7937644525064798
 31
0.0
  0
ARC
  5
1DBBE
  8
0
 10
4527.6029986775683938
 20
459.7152328822231766
 30
0.0
 40
0.0197789152903228
 50
141.1402514217064947
 51
218.4115363798510998
  0
ARC
  5
1DBBF
  8
0
 10
4527.6611792544363198
 20
459.6427932167578092
 30
0.0
 40
0.0193432936715509
 50
223.4222321575091996
 51
309.9474736442826952
  0
ARC
  5
1DBC0
  8
0
 10
4527.4030638342283055
 20
459.5573574768616254
 30
0.0
 40
0.3450988465024634
 50
15.2866270604156806
 51
39.3555032520179822
  0
ARC
  5
1DBC1
  8
0
 10
4530.6197617053194335
 20
462.103824314837027
 30
0.0
 40
3.867665109045872
 50
218.3714355809854908
 51
219.7729552700228055
  0
ARC
  5
1DBC2
  8
0
 10
4527.6516557780478252
 20
459.721764246554585
 30
0.0
 40
0.0200738379332914
 50
141.2984144669993896
 51
183.4859593586548101
  0
ARC
  5
1DBC3
  8
0
 10
4527.7075622154561643
 20
459.6517482635505871
 30
0.0
 40
0.0205193687483977
 50
238.717714821106199
 51
307.631486630842403
  0
ARC
  5
1DBC4
  8
0
 10
4527.6536694650849313
 20
459.7222425556101939
 30
0.0
 40
0.0221157313200771
 50
184.4056646706856952
 51
205.0704023832088865
  0
ARC
  5
1DBC5
  8
0
 10
4527.6791554896717571
 20
459.7353152762653963
 30
0.0
 40
0.0507506818195582
 50
206.2467292888175052
 51
215.9571238821147006
  0
ARC
  5
1DBC6
  8
0
 10
4527.7150658797736469
 20
459.662163219973479
 30
0.0
 40
0.0333316545550111
 50
219.8285961508688899
 51
236.990310908169306
  0
ARC
  5
1DBC7
  8
0
 10
4528.3133209326379074
 20
460.1891157055327994
 30
0.0
 40
0.8305577657567845
 50
215.6096254003714137
 51
221.3120915586864044
  0
ARC
  5
1DBC8
  8
0
 10
4527.8532533020334085
 20
459.8201664667075192
 30
0.0
 40
0.2398103587493793
 50
213.7000352316252929
 51
223.1162834766381877
  0
ARC
  5
1DBC9
  8
0
 10
4527.480898192908171
 20
459.524955096886913
 30
0.0
 40
0.2369997811954446
 50
33.6440733762268991
 51
43.1722453320415411
  0
ARC
  5
1DBCA
  8
0
 10
4527.0521534654517382
 20
459.4503965893491113
 30
0.0
 40
0.6737854538300548
 50
26.9104380443014612
 51
29.9746639113348117
  0
LINE
  5
1DBCB
  8
0
 10
4527.6358177014599278
 20
459.7870312539300812
 30
0.0
 11
4527.635723411483923
 21
459.787073476419323
 31
0.0
  0
LINE
  5
1DBCC
  8
0
 10
4527.635723411483923
 20
459.787073476419323
 30
0.0
 11
4527.5875971504601694
 21
459.7276424935307091
 31
0.0
  0
LINE
  5
1DBCD
  8
0
 10
4527.6359898918599356
 20
459.734315699830006
 30
0.0
 11
4527.6699033320601302
 21
459.7761950793300798
 31
0.0
  0
LINE
  5
1DBCE
  8
0
 10
4527.6735992943604288
 20
459.6279640017298789
 30
0.0
 11
4527.6894683706450451
 21
459.6408145262947755
 31
0.0
  0
LINE
  5
1DBCF
  8
0
 10
4527.7359527317603352
 20
459.6483420676300966
 30
0.0
 11
4527.7200909412886176
 21
459.6354978628543222
 31
0.0
  0
LINE
  5
1DBD0
  8
0
 10
4527.7377801818129228
 20
459.5900558205025277
 30
0.0
 11
4527.705681533760071
 21
459.5504174835299978
 31
0.0
  0
LINE
  5
1DBD1
  8
0
 10
4527.7525596153600418
 20
459.569689506630084
 30
0.0
 11
4527.7519674973600559
 21
459.5700171976300794
 31
0.0
  0
LINE
  5
1DBD2
  8
0
 10
4527.7519674973600559
 20
459.5700171976300794
 30
0.0
 11
4527.7174923126585782
 21
459.5274487393301115
 31
0.0
  0
LINE
  5
1DBD3
  8
0
 10
4527.8090359575598995
 20
459.5239105562300779
 30
0.0
 11
4527.7744390406596722
 21
459.4811867743301264
 31
0.0
  0
LINE
  5
1DBD4
  8
0
 10
4527.882952100860166
 20
459.4010912178301282
 30
0.0
 11
4527.8597295292565832
 21
459.3824763108337947
 31
0.0
  0
LINE
  5
1DBD5
  8
0
 10
4527.8474405991601088
 20
459.5675833198300779
 30
0.0
 11
4527.8021010257607486
 21
459.5115936095301095
 31
0.0
  0
LINE
  5
1DBD6
  8
0
 10
4527.9232256186605809
 20
459.4406527799300761
 30
0.0
 11
4527.8896157682602279
 21
459.4134338813300928
 31
0.0
  0
LINE
  5
1DBD7
  8
0
 10
4527.8069614818095943
 20
459.411287582329976
 30
0.0
 11
4527.840818723960183
 21
459.370035154230095
 31
0.0
  0
LINE
  5
1DBD8
  8
0
 10
4527.8484416818600948
 20
459.3794487231301105
 30
0.0
 11
4527.8219035708607407
 21
459.3466703100299924
 31
0.0
  0
LINE
  5
1DBD9
  8
0
 10
4527.88376498406069
 20
459.3549659155301015
 30
0.0
 11
4527.8512948679599504
 21
459.3148229095301076
 31
0.0
  0
LINE
  5
1DBDA
  8
0
 10
4527.9465164065613862
 20
459.2675221659300746
 30
0.0
 11
4527.9259236684602001
 21
459.2420922522300089
 31
0.0
  0
LINE
  5
1DBDB
  8
0
 10
4528.0410302629607031
 20
459.1639574057301161
 30
0.0
 11
4528.0173544071003562
 21
459.144785075667528
 31
0.0
  0
LINE
  5
1DBDC
  8
0
 10
4528.0473208482590053
 20
459.2294912246301237
 30
0.0
 11
4528.0243873763602096
 21
459.2109186090301023
 31
0.0
  0
LINE
  5
1DBDD
  8
0
 10
4527.9683621953599868
 20
459.3461817335301021
 30
0.0
 11
4527.936528643859674
 21
459.3068723573301213
 31
0.0
  0
ARC
  5
1DBDE
  8
0
 10
4526.983147217268197
 20
459.0493602179730033
 30
0.0
 40
0.9288369108578692
 50
29.3160990657127698
 51
34.0692467862046016
  0
ARC
  5
1DBDF
  8
0
 10
4527.8098175659151821
 20
459.5232665456197196
 30
0.0
 40
0.0010127493698901
 50
82.381540730635308
 51
140.5129913208155017
  0
ARC
  5
1DBE0
  8
0
 10
4527.8091998223053452
 20
459.5199607313223282
 30
0.0
 40
0.0043747431358887
 50
54.2917730339939624
 51
80.1018088516605644
  0
ARC
  5
1DBE1
  8
0
 10
4527.8497740220009291
 20
459.5656761234070018
 30
0.0
 40
0.003011879148115
 50
82.7271045747557707
 51
140.764947998618112
  0
ARC
  5
1DBE2
  8
0
 10
4527.8486941483397459
 20
459.5581088741694202
 30
0.0
 40
0.0106555540210528
 50
52.4591283532041288
 51
82.1183709759341127
  0
ARC
  5
1DBE3
  8
0
 10
4527.7044223778193555
 20
459.3989783972257896
 30
0.0
 40
0.2254169670446611
 50
12.1109773959920997
 51
48.023562209853182
  0
ARC
  5
1DBE4
  8
0
 10
4527.9139181667778757
 20
459.446331031577472
 30
0.0
 40
0.0109042443201198
 50
328.608332813155414
 51
359.6909003159256031
  0
ARC
  5
1DBE5
  8
0
 10
4528.1692371411718341
 20
459.7311428772061959
 30
0.0
 40
0.4410100041658025
 50
220.2998722165272056
 51
225.153622943584196
  0
ARC
  5
1DBE6
  8
0
 10
4527.8766510303576069
 20
459.4295852154511977
 30
0.0
 40
0.0207111086798625
 50
284.8814479780950251
 51
308.7541462752395773
  0
ARC
  5
1DBE7
  8
0
 10
4527.8771390411648099
 20
459.4295637285184171
 30
0.0
 40
0.0205702934438358
 50
245.4870915056542913
 51
283.5830104256879736
  0
ARC
  5
1DBE8
  8
0
 10
4527.8858005183046771
 20
459.445122876084497
 30
0.0
 40
0.0383471912479641
 50
224.0373178930809956
 51
243.3569596813078135
  0
ARC
  5
1DBE9
  8
0
 10
4527.8548508616167965
 20
459.3997450999930265
 30
0.0
 40
0.0288436330156152
 50
7.0199382030484507
 51
19.9124420037192884
  0
ARC
  5
1DBEA
  8
0
 10
4527.8807064729571721
 20
459.4027865079021922
 30
0.0
 40
0.0028136903007229
 50
322.9497793614921761
 51
9.8990416177632756
  0
ARC
  5
1DBEB
  8
0
 10
4527.8518119248719813
 20
459.4042638252694246
 30
0.0
 40
0.0254828733582692
 50
226.3145338316390962
 51
245.5388311769065126
  0
ARC
  5
1DBEC
  8
0
 10
4527.8491255495091536
 20
459.3994552449387925
 30
0.0
 40
0.020018206459268
 50
268.0422643991349787
 51
301.9863203911208984
  0
ARC
  5
1DBED
  8
0
 10
4527.8492298994442535
 20
459.3996768979336025
 30
0.0
 40
0.0202435259488242
 50
246.815214981527788
 51
267.7685231273865725
  0
ARC
  5
1DBEE
  8
0
 10
4527.7898236918163093
 20
459.46873587835222
 30
0.0
 40
0.0197917230637499
 50
141.0165334326700872
 51
179.6770954116639132
  0
ARC
  5
1DBEF
  8
0
 10
4527.7910872023767297
 20
459.4689237026129263
 30
0.0
 40
0.0210550575076554
 50
180.2075863544442882
 51
205.9583097398397911
  0
ARC
  5
1DBF0
  8
0
 10
4527.9731180297649189
 20
459.588164396502691
 30
0.0
 40
0.2385094694105039
 50
212.587145629510303
 51
222.639147773617907
  0
ARC
  5
1DBF1
  8
0
 10
4528.3188747024478289
 20
459.8571159829813269
 30
0.0
 40
0.6760205024729145
 50
219.5561411991540979
 51
224.1978720584367863
  0
ARC
  5
1DBF2
  8
0
 10
4527.8267513047658213
 20
459.4278117701837232
 30
0.0
 40
0.0257815026106329
 50
193.5354738060619013
 51
219.8613452439373077
  0
ARC
  5
1DBF3
  8
0
 10
4527.7916020304419362
 20
459.4457761492765826
 30
0.0
 40
0.0201949980441839
 50
222.8744921038762072
 51
267.4600743897801749
  0
ARC
  5
1DBF4
  8
0
 10
4527.7914533614157335
 20
459.4450578531207157
 30
0.0
 40
0.0194711688753283
 50
267.8034517249687951
 51
288.5949674653199963
  0
ARC
  5
1DBF5
  8
0
 10
4527.7210008415777338
 20
459.5380157199493851
 30
0.0
 40
0.0197100211047023
 50
141.008058915516699
 51
190.530728620518687
  0
ARC
  5
1DBF6
  8
0
 10
4527.7327338923396383
 20
459.5150987908564275
 30
0.0
 40
0.0196170073772455
 50
140.9828387381550101
 51
177.2799935279591921
  0
ARC
  5
1DBF7
  8
0
 10
4527.7328880032418965
 20
459.5150215192171004
 30
0.0
 40
0.0197747350378907
 50
177.0775466222827959
 51
214.8589830318989868
  0
ARC
  5
1DBF8
  8
0
 10
4527.7223549329801244
 20
459.5383951772499813
 30
0.0
 40
0.0211110298404663
 50
190.871580547549911
 51
218.8420345306801948
  0
ARC
  5
1DBF9
  8
0
 10
4527.9777396609706557
 20
459.7330138667738879
 30
0.0
 40
0.3421923965426211
 50
217.4041340888707055
 51
219.3532534458327916
  0
ARC
  5
1DBFA
  8
0
 10
4529.2909241066499817
 20
460.763413976558013
 30
0.0
 40
2.0162176356926551
 50
218.666130034876403
 51
221.3254012187495903
  0
ARC
  5
1DBFB
  8
0
 10
4528.009650411131588
 20
459.5940831241259161
 30
0.0
 40
0.2690403755620104
 50
216.3603423468103983
 51
224.7455164014033926
  0
ARC
  5
1DBFC
  8
0
 10
4527.6146910103689152
 20
459.2561244209625215
 30
0.0
 40
0.2522639069475004
 50
36.0809702841663196
 51
45.0248884640512514
  0
ARC
  5
1DBFD
  8
0
 10
4528.1489493488761582
 20
459.7244230653097929
 30
0.0
 40
0.4212667334581885
 50
214.6688986670532984
 51
221.3875831132762926
  0
ARC
  5
1DBFE
  8
0
 10
4527.8189643345840523
 20
459.4984254458058786
 30
0.0
 40
0.0213956004905668
 50
142.0145544319431963
 51
164.1332824350488977
  0
ARC
  5
1DBFF
  8
0
 10
4527.8185572324064196
 20
459.4989141007312128
 30
0.0
 40
0.0208734931553055
 50
165.118025836827087
 51
192.364208699757711
  0
ARC
  5
1DC00
  8
0
 10
4527.8233656767397406
 20
459.5003116880005791
 30
0.0
 40
0.0258718464037793
 50
193.1073670585224136
 51
208.0133077864691131
  0
ARC
  5
1DC01
  8
0
 10
4527.8496975648986336
 20
459.5144160606428159
 30
0.0
 40
0.0557432098588871
 50
208.1000699956875053
 51
212.1019670688087899
  0
ARC
  5
1DC02
  8
0
 10
4527.9483341399700294
 20
459.5468601279113727
 30
0.0
 40
0.1516887221841962
 50
212.8699739744517956
 51
227.782021743196708
  0
ARC
  5
1DC03
  8
0
 10
4527.7211319449061193
 20
459.3540013483054167
 30
0.0
 40
0.1489195051983224
 50
32.7305159613525873
 51
47.9214797957172465
  0
LINE
  5
1DC04
  8
0
 10
4527.7145046455398187
 20
459.6324390129606172
 30
0.0
 11
4527.7500693625343047
 21
459.5676780455905828
 31
0.0
  0
ARC
  5
1DC05
  8
0
 10
4528.3253921132582036
 20
459.5570570534089256
 30
0.0
 40
0.4762725983138448
 50
221.245622919997686
 51
225.7415420576683971
  0
ARC
  5
1DC06
  8
0
 10
4528.0114151583347848
 20
459.2270852210293128
 30
0.0
 40
0.0207277057101004
 50
284.8862441361040965
 51
308.7438347903246836
  0
ARC
  5
1DC07
  8
0
 10
4528.0119091084652609
 20
459.227048139418514
 30
0.0
 40
0.0205702934438358
 50
245.4870915056542913
 51
283.5830104256879736
  0
ARC
  5
1DC08
  8
0
 10
4528.0205705856060376
 20
459.2426072869844802
 30
0.0
 40
0.0383471912479641
 50
224.0373178930809956
 51
243.3569596813078135
  0
ARC
  5
1DC09
  8
0
 10
4528.5886439436517321
 20
459.7916200102851008
 30
0.0
 40
0.8288584465088593
 50
219.2209670997133912
 51
221.439640362881903
  0
ARC
  5
1DC0A
  8
0
 10
4527.9535027204701692
 20
459.2936722281489779
 30
0.0
 40
0.0215026204719776
 50
142.1290765767043922
 51
166.7970466011188932
  0
ARC
  5
1DC0B
  8
0
 10
4527.9530363827243491
 20
459.2943093944949169
 30
0.0
 40
0.0209093938810357
 50
168.2051329881641948
 51
192.0358004288106031
  0
ARC
  5
1DC0C
  8
0
 10
4527.9617860419448334
 20
459.2972355985751278
 30
0.0
 40
0.0300947786845077
 50
194.0111926203609016
 51
216.9327878588030956
  0
ARC
  5
1DC0D
  8
0
 10
4528.5397865430877573
 20
459.724860311340592
 30
0.0
 40
0.7490845307066195
 50
216.5128890433817901
 51
217.627793458959701
  0
ARC
  5
1DC0E
  8
0
 10
4528.0804295774569255
 20
459.3444121123724813
 30
0.0
 40
0.1503831126787359
 50
213.6296600060431956
 51
228.5819944047266858
  0
ARC
  5
1DC0F
  8
0
 10
4527.8372919440789701
 20
459.1322660859939901
 30
0.0
 40
0.1746738513859373
 50
34.6740708063219927
 51
47.5375836439893007
  0
ARC
  5
1DC10
  8
0
 10
4527.8526965532282702
 20
459.1828576094280265
 30
0.0
 40
0.2001332313323301
 50
13.4745161517129493
 51
54.6939913645140123
  0
ARC
  5
1DC11
  8
0
 10
4527.8371812776140359
 20
459.3342843466701879
 30
0.0
 40
0.0196677505574612
 50
140.9675791264079976
 51
216.5212368734642894
  0
ARC
  5
1DC12
  8
0
 10
4527.8673344532817282
 20
459.3031871263366952
 30
0.0
 40
0.0198156440180056
 50
144.0413052871834907
 51
218.3260244506950016
  0
ARC
  5
1DC13
  8
0
 10
4527.9285018227146793
 20
459.236315564492088
 30
0.0
 40
0.0204289335139618
 50
223.3261964236278914
 51
264.9156368109469213
  0
ARC
  5
1DC14
  8
0
 10
4527.9414109634335546
 20
459.2296327741472055
 30
0.0
 40
0.0198769942316499
 50
141.1834363773783991
 51
180.6226948412929119
  0
ARC
  5
1DC15
  8
0
 10
4528.0047108370317801
 20
459.1607175168858817
 30
0.0
 40
0.0203396926570365
 50
278.7417713752976169
 51
308.4307522963391079
  0
ARC
  5
1DC16
  8
0
 10
4528.0070174134507397
 20
459.1643565910363805
 30
0.0
 40
0.0244241316266456
 50
226.7013610216432085
 51
248.8152628647636107
  0
ARC
  5
1DC17
  8
0
 10
4528.004920215961647
 20
459.1601790828536878
 30
0.0
 40
0.0197760874915225
 50
250.1070047548905109
 51
278.3792835736510938
  0
ARC
  5
1DC18
  8
0
 10
4529.078317362328562
 20
460.2080727241773843
 30
0.0
 40
1.5203716561136671
 50
222.0727102650915867
 51
223.7761266013318959
  0
ARC
  5
1DC19
  8
0
 10
4528.1377612462665638
 20
459.3053065430153197
 30
0.0
 40
0.2166754823757613
 50
223.478787851661906
 51
227.1005755016296916
  0
ARC
  5
1DC1A
  8
0
 10
4528.4549241354779952
 20
459.6496928047757251
 30
0.0
 40
0.6834822069453984
 50
219.3890201002909066
 51
222.344015571305988
  0
ARC
  5
1DC1B
  8
0
 10
4529.3436525450142653
 20
460.5406864884130869
 30
0.0
 40
1.9438367422921889
 50
222.8705029084242994
 51
223.7959418412530965
  0
ARC
  5
1DC1C
  8
0
 10
4527.9564892064763626
 20
459.2090445226039037
 30
0.0
 40
0.0208501623166687
 50
231.7824198638867017
 51
251.1507914030970028
  0
ARC
  5
1DC1D
  8
0
 10
4527.9660060054939095
 20
459.2206598547567751
 30
0.0
 40
0.0358646919663748
 50
224.8356637419688866
 51
231.3171804634746138
  0
ARC
  5
1DC1E
  8
0
 10
4528.2155411303356232
 20
459.4153292250632035
 30
0.0
 40
0.3479272403208657
 50
219.2325288942506916
 51
225.7192517138556127
  0
ARC
  5
1DC1F
  8
0
 10
4527.7046364179595912
 20
458.947566658428002
 30
0.0
 40
0.3458849891069526
 50
39.2133580539835123
 51
45.738422554122927
  0
ARC
  5
1DC20
  8
0
 10
4527.9429578945655521
 20
459.229916340273121
 30
0.0
 40
0.0214285759701266
 50
181.335916772839596
 51
220.6146603157831976
  0
ARC
  5
1DC21
  8
0
 10
4532.3175659124517551
 20
463.2999080638144278
 30
0.0
 40
6.0029050400029176
 50
221.4959625219588872
 51
222.4242632069309877
  0
ARC
  5
1DC22
  8
0
 10
4529.0597931669935861
 20
460.3096524239504106
 30
0.0
 40
1.5798749406669881
 50
222.2715326967233125
 51
223.492003563035297
  0
ARC
  5
1DC23
  8
0
 10
4529.4126303628790993
 20
460.6352547889978837
 30
0.0
 40
2.0599801849881421
 50
220.7383951296359896
 51
222.3716712694792079
  0
ARC
  5
1DC24
  8
0
 10
4527.9003704161550559
 20
459.2641126234153717
 30
0.0
 40
0.0196731949525824
 50
224.7679718294751012
 51
240.6922939957756
  0
ARC
  5
1DC25
  8
0
 10
4527.9225910243048929
 20
459.1342455914086145
 30
0.0
 40
0.1221091526613095
 50
14.0826768155570399
 51
37.2355680156415332
  0
LINE
  5
1DC26
  8
0
 10
4528.1287654424586435
 20
459.2725225760776766
 30
0.0
 11
4528.1058319705580288
 21
459.253949960477712
 31
0.0
  0
LINE
  5
1DC27
  8
0
 10
4528.049806789557806
 20
459.3892130849777118
 30
0.0
 11
4528.0179732380584028
 21
459.3499037087776742
 31
0.0
  0
ARC
  5
1DC28
  8
0
 10
4528.4068367074560229
 20
459.6000884048564785
 30
0.0
 40
0.4762725983138448
 50
221.245622919997686
 51
225.7415420576683971
  0
ARC
  5
1DC29
  8
0
 10
4528.092859752534423
 20
459.2701165724769226
 30
0.0
 40
0.0207277057101004
 50
284.8862441361040965
 51
308.7438347903246836
  0
ARC
  5
1DC2A
  8
0
 10
4528.0933537026630802
 20
459.2700794908661237
 30
0.0
 40
0.0205702934438358
 50
245.4870915056542913
 51
283.5830104256879736
  0
ARC
  5
1DC2B
  8
0
 10
4528.1020151798029474
 20
459.2856386384320899
 30
0.0
 40
0.0383471912479641
 50
224.0373178930809956
 51
243.3569596813078135
  0
ARC
  5
1DC2C
  8
0
 10
4528.6700885378495514
 20
459.8346513617327105
 30
0.0
 40
0.8288584465088593
 50
219.2209670997133912
 51
221.439640362881903
  0
ARC
  5
1DC2D
  8
0
 10
4528.0349473146688979
 20
459.3367035795965876
 30
0.0
 40
0.0215026204719776
 50
142.1290765767043922
 51
166.7970466011188932
  0
ARC
  5
1DC2E
  8
0
 10
4528.0344809769230778
 20
459.3373407459425266
 30
0.0
 40
0.0209093938810357
 50
168.2051329881641948
 51
192.0358004288106031
  0
ARC
  5
1DC2F
  8
0
 10
4528.0432306361426527
 20
459.3402669500226807
 30
0.0
 40
0.0300947786845077
 50
194.0111926203609016
 51
216.9327878588030956
  0
ARC
  5
1DC30
  8
0
 10
4528.6212311372855766
 20
459.7678916627883154
 30
0.0
 40
0.7490845307066195
 50
216.5128890433817901
 51
217.627793458959701
  0
ARC
  5
1DC31
  8
0
 10
4528.1618741716547447
 20
459.387443463820091
 30
0.0
 40
0.1503831126787359
 50
213.6296600060431956
 51
228.5819944047266858
  0
ARC
  5
1DC32
  8
0
 10
4527.9187365382776989
 20
459.1752974374417136
 30
0.0
 40
0.1746738513859373
 50
34.6740708063219927
 51
47.5375836439893007
  0
ARC
  5
1DC33
  8
0
 10
4527.9341411474260894
 20
459.2258889608755794
 30
0.0
 40
0.2001332313323301
 50
13.4745161517129493
 51
54.6939913645140123
  0
LINE
  5
1DC34
  8
0
 10
4528.2429306902840835
 20
459.0454265216641261
 30
0.0
 11
4528.2199972183852879
 21
459.0268539060642183
 31
0.0
  0
LINE
  5
1DC35
  8
0
 10
4528.1639720373841556
 20
459.1621170305642181
 30
0.0
 11
4528.1321384858847523
 21
459.1228076543641237
 31
0.0
  0
ARC
  5
1DC36
  8
0
 10
4528.5210019552805534
 20
459.3729923504429848
 30
0.0
 40
0.4762725983138448
 50
221.245622919997686
 51
225.7415420576683971
  0
ARC
  5
1DC37
  8
0
 10
4528.207025000359863
 20
459.043020518063372
 30
0.0
 40
0.0207277057101004
 50
284.8862441361040965
 51
308.7438347903246836
  0
ARC
  5
1DC38
  8
0
 10
4528.2075189504894297
 20
459.0429834364525732
 30
0.0
 40
0.0205702934438358
 50
245.4870915056542913
 51
283.5830104256879736
  0
ARC
  5
1DC39
  8
0
 10
4528.2161804276302064
 20
459.0585425840185962
 30
0.0
 40
0.0383471912479641
 50
224.0373178930809956
 51
243.3569596813078135
  0
ARC
  5
1DC3A
  8
0
 10
4528.7842537856749914
 20
459.6075553073192168
 30
0.0
 40
0.8288584465088593
 50
219.2209670997133912
 51
221.439640362881903
  0
ARC
  5
1DC3B
  8
0
 10
4528.1491125624943379
 20
459.1096075251829802
 30
0.0
 40
0.0215026204719776
 50
142.1290765767043922
 51
166.7970466011188932
  0
ARC
  5
1DC3C
  8
0
 10
4528.1486462247494273
 20
459.1102446915289761
 30
0.0
 40
0.0209093938810357
 50
168.2051329881641948
 51
192.0358004288106031
  0
ARC
  5
1DC3D
  8
0
 10
4528.1573958839699117
 20
459.113170895609187
 30
0.0
 40
0.0300947786845077
 50
194.0111926203609016
 51
216.9327878588030956
  0
ARC
  5
1DC3E
  8
0
 10
4528.7353963851128356
 20
459.5407956083747081
 30
0.0
 40
0.7490845307066195
 50
216.5128890433817901
 51
217.627793458959701
  0
ARC
  5
1DC3F
  8
0
 10
4528.2760394194801847
 20
459.1603474094065973
 30
0.0
 40
0.1503831126787359
 50
213.6296600060431956
 51
228.5819944047266858
  0
ARC
  5
1DC40
  8
0
 10
4528.0329017861040484
 20
458.9482013830282199
 30
0.0
 40
0.1746738513859373
 50
34.6740708063219927
 51
47.5375836439893007
  0
ARC
  5
1DC41
  8
0
 10
4528.048306395252439
 20
458.9987929064620857
 30
0.0
 40
0.2001332313323301
 50
13.4745161517129493
 51
54.6939913645140123
  0
ARC
  5
1DC42
  8
0
 10
4527.3330466819361391
 20
458.9067857927875025
 30
0.0
 40
0.7100394853219163
 50
31.9340444101454608
 51
39.1390448338265386
  0
ARC
  5
1DC43
  8
0
 10
4531.0852491839732465
 20
461.3974996166564893
 30
0.0
 40
3.8031954940515038
 50
211.993547227174389
 51
212.5660458397188108
  0
ARC
  5
1DC44
  8
0
 10
4528.3513743519079071
 20
458.7014190568456797
 30
0.0
 40
0.0197315606645125
 50
141.029933015967714
 51
189.9666369462981947
  0
ARC
  5
1DC45
  8
0
 10
4528.4155707337722561
 20
458.6365260696982205
 30
0.0
 40
0.0197236968205644
 50
254.2109195469581095
 51
308.9663205913067259
  0
ARC
  5
1DC46
  8
0
 10
4528.3527943078088356
 20
458.7019558134621207
 30
0.0
 40
0.0212248719754118
 50
190.7303320637041111
 51
221.5273474969527001
  0
ARC
  5
1DC47
  8
0
 10
4529.1961473354022019
 20
459.4809985555742173
 30
0.0
 40
1.1693282563977481
 50
222.7082072645418123
 51
225.2558946574044114
  0
ARC
  5
1DC48
  8
0
 10
4529.2769092537273536
 20
459.54228532359582
 30
0.0
 40
1.269788959495429
 50
224.614266104250305
 51
226.3545943622488039
  0
ARC
  5
1DC49
  8
0
 10
4528.416466736842267
 20
458.6387839766509842
 30
0.0
 40
0.0221415992567616
 50
223.8885926347520012
 51
253.5696037034009862
  0
ARC
  5
1DC4A
  8
0
 10
4528.7896614357932776
 20
459.0705023471850268
 30
0.0
 40
0.5911850287923985
 50
222.7790910456679967
 51
226.5952578369225137
  0
ARC
  5
1DC4B
  8
0
 10
4527.9467745205265601
 20
458.2367695912910222
 30
0.0
 40
0.5950352493000165
 50
42.7914419653450082
 51
46.5829069172299697
  0
LINE
  5
1DC4C
  8
0
 10
4528.3495869382832097
 20
458.7305673186759236
 30
0.0
 11
4528.3360335640600169
 21
458.7138285175299757
 31
0.0
  0
LINE
  5
1DC4D
  8
0
 10
4528.3536959411603675
 20
458.7463701325301031
 30
0.0
 11
4528.3811543819601866
 21
458.7802772625300918
 31
0.0
  0
LINE
  5
1DC4E
  8
0
 10
4528.4657488040938915
 20
458.6702789108932166
 30
0.0
 11
4528.4453751113696853
 21
458.6537798771381063
 31
0.0
  0
LINE
  5
1DC4F
  8
0
 10
4528.4593628831598835
 20
458.6466086018301098
 30
0.0
 11
4528.4279742460603302
 21
458.6211905847300727
 31
0.0
  0
ARC
  5
1DC50
  8
0
 10
4528.3690188574555577
 20
458.7339502986851016
 30
0.0
 40
0.0197241992626244
 50
140.9738562628683951
 51
189.8758687926018922
  0
ARC
  5
1DC51
  8
0
 10
4528.4329365353651156
 20
458.6691733403745275
 30
0.0
 40
0.0197908282658335
 50
260.398966093811282
 51
308.939692278010682
  0
ARC
  5
1DC52
  8
0
 10
4528.4363555103191175
 20
458.6773582018475963
 30
0.0
 40
0.0285019607488241
 50
225.9211329529317993
 51
256.363167101894021
  0
ARC
  5
1DC53
  8
0
 10
4528.3712616321699898
 20
458.7344827297749248
 30
0.0
 40
0.0220255033829321
 50
190.2397299003559965
 51
220.4275182255234995
  0
ARC
  5
1DC54
  8
0
 10
4529.0299872553414389
 20
459.3199507390107215
 30
0.0
 40
0.9033222131357875
 50
221.6010123127269082
 51
227.22552642332289
  0
ARC
  5
1DC55
  8
0
 10
4528.5929025503119192
 20
458.8906218348419088
 30
0.0
 40
0.2897394229619456
 50
220.6442466958363866
 51
228.426800987680906
  0
ARC
  5
1DC56
  8
0
 10
4528.1887351618579487
 20
458.4929547706356061
 30
0.0
 40
0.2786244163280388
 50
40.4887605181345691
 51
48.5822871653357424
  0
ARC
  5
1DC57
  8
0
 10
4528.4287481179389943
 20
458.6383877668847049
 30
0.0
 40
0.0316988247714832
 50
15.0329281994694899
 51
41.7093923996996025
  0
ARC
  5
1DC58
  8
0
 10
4527.9802424561630687
 20
459.12455083203821
 30
0.0
 40
0.019699524553697
 50
141.0444131770194076
 51
215.0340457193111092
  0
ARC
  5
1DC59
  8
0
 10
4528.0424312451650621
 20
459.0578676353351852
 30
0.0
 40
0.0196878300091311
 50
250.7722021230715086
 51
308.999335362895124
  0
ARC
  5
1DC5A
  8
0
 10
4519.6203681160977794
 20
451.2986523658744886
 30
0.0
 40
11.4317924483853108
 50
42.6536168573393866
 51
43.1243433842811825
  0
ARC
  5
1DC5B
  8
0
 10
4528.0425917923530506
 20
459.058144005805616
 30
0.0
 40
0.0200017475193902
 50
223.2892604086329982
 51
250.5986804517600888
  0
LINE
  5
1DC5C
  8
0
 10
4527.9805351968752802
 20
459.1562151815779771
 30
0.0
 11
4527.964923444960732
 21
459.1369362736299991
 31
0.0
  0
LINE
  5
1DC5D
  8
0
 10
4528.077594565700565
 20
459.0610051418325952
 30
0.0
 11
4528.054821020559757
 21
459.0425671740301254
 31
0.0
  0
LINE
  5
1DC5E
  8
0
 10
4528.0949090139602049
 20
459.1367553738301126
 30
0.0
 11
4528.0657024331603679
 21
459.100688250230121
 31
0.0
  0
ARC
  5
1DC5F
  8
0
 10
4524.9203370221812293
 20
456.8471946996648967
 30
0.0
 40
3.8598743591388769
 50
35.5331122145683196
 51
36.5729845714683108
  0
ARC
  5
1DC60
  8
0
 10
4528.0813575130623576
 20
459.0881343847033804
 30
0.0
 40
0.0200669147206737
 50
141.2737471211054014
 51
173.3712763870113065
  0
ARC
  5
1DC61
  8
0
 10
4528.2370679659434245
 20
459.2046817029299746
 30
0.0
 40
0.2146502261710092
 50
216.9856471028145108
 51
222.0170725816635979
  0
ARC
  5
1DC62
  8
0
 10
4528.0814940100226522
 20
459.0882137229751834
 30
0.0
 40
0.020193562197546
 50
173.6395878015293874
 51
204.4742482507562045
  0
ARC
  5
1DC63
  8
0
 10
4528.0870119234250524
 20
459.0908216243284983
 30
0.0
 40
0.0262962358857325
 50
204.6650964222546065
 51
215.5171380409902895
  0
ARC
  5
1DC64
  8
0
 10
4528.1431105159499566
 20
459.0219661744761197
 30
0.0
 40
0.0198984943648827
 50
269.3268260443396116
 51
308.8957690290806113
  0
ARC
  5
1DC65
  8
0
 10
4528.144479773137391
 20
459.026277309842726
 30
0.0
 40
0.0242612740026287
 50
227.8513702422139033
 51
266.2114742783792849
  0
ARC
  5
1DC66
  8
0
 10
4528.132906857321359
 20
459.0238306931112788
 30
0.0
 40
0.0464902366698141
 50
2.320224509511998
 51
32.3567605752081917
  0
LINE
  5
1DC67
  8
0
 10
4528.1556048917364024
 20
459.0064793848890758
 30
0.0
 11
4528.1793589797607638
 21
459.0257128266300128
 31
0.0
  0
ARC
  5
1DC68
  8
0
 10
4528.6645877984956314
 20
459.5738478414876909
 30
0.0
 40
0.7794669267793752
 50
221.1429765126644895
 51
226.5163051218034127
  0
ARC
  5
1DC69
  8
0
 10
4528.1056565991966636
 20
458.9985410812399209
 30
0.0
 40
0.0197410050410216
 50
140.9995410912370915
 51
179.650143633599896
  0
ARC
  5
1DC6A
  8
0
 10
4528.1383783163300905
 20
459.0200169088054736
 30
0.0
 40
0.0588336002804512
 50
211.701746319395312
 51
224.2911264787665004
  0
ARC
  5
1DC6B
  8
0
 10
4528.1056344973885643
 20
458.9985417258487814
 30
0.0
 40
0.01971889971539
 50
179.6516244600454968
 51
208.6081250790711863
  0
ARC
  5
1DC6C
  8
0
 10
4528.10679694794635
 20
459.0038350227080741
 30
0.0
 40
0.0270374150541164
 50
221.8221038455540963
 51
247.0749934952806086
  0
ARC
  5
1DC6D
  8
0
 10
4529.5576514292870343
 20
460.4313378576176206
 30
0.0
 40
2.062380461803373
 50
222.4523800857643039
 51
224.4996242158987059
  0
LINE
  5
1DC6E
  8
0
 10
4528.0903150563599411
 20
459.0109646211300856
 30
0.0
 11
4528.1059385586613644
 21
459.0302673812300895
 31
0.0
  0
ARC
  5
1DC6F
  8
0
 10
4528.2520992661711716
 20
459.1839241562586267
 30
0.0
 40
0.2109170629357252
 50
217.673187036443494
 51
228.3805033087828917
  0
ARC
  5
1DC70
  8
0
 10
4527.9165763802466245
 20
458.8707499673178063
 30
0.0
 40
0.2497497726412994
 50
38.507499742094268
 51
47.5461906031341002
  0
ARC
  5
1DC71
  8
0
 10
4528.0661989903655922
 20
459.0676941002233207
 30
0.0
 40
0.0747912091556661
 50
34.634356807950148
 51
67.4264582174859441
  0
ARC
  5
1DC72
  8
0
 10
4527.9257718770568317
 20
458.8038286305209112
 30
0.0
 40
0.3128952132888402
 50
25.6216435171634096
 51
41.3534818791704524
  0
ARC
  5
1DC73
  8
0
 10
4528.1683063100863365
 20
458.9327298582886101
 30
0.0
 40
0.0199430758280835
 50
228.0716004416075009
 51
308.7373066536803776
  0
ARC
  5
1DC74
  8
0
 10
4529.0676508938558982
 20
459.8545535455863273
 30
0.0
 40
1.3077848849549909
 50
222.0319320335744067
 51
225.7432252487774917
  0
ARC
  5
1DC75
  8
0
 10
4527.8208982011437911
 20
458.6662826608957744
 30
0.0
 40
0.4160835077825646
 50
40.8117769436924505
 51
46.2350955381540274
  0
ARC
  5
1DC76
  8
0
 10
4528.4255016702682042
 20
459.2405001273568246
 30
0.0
 40
0.4186745607203464
 50
220.8285710250592899
 51
226.218301456845694
  0
LINE
  5
1DC77
  8
0
 10
4528.1807857033600158
 20
458.9171737978298893
 30
0.0
 11
4528.2078998666602274
 21
458.939132776730105
 31
0.0
  0
LINE
  5
1DC78
  8
0
 10
4528.2191983710599743
 20
458.8971231733299874
 30
0.0
 11
4528.1892120485763371
 21
458.8600602503044001
 31
0.0
  0
LINE
  5
1DC79
  8
0
 10
4528.2716410936600369
 20
458.9591296378300171
 30
0.0
 11
4528.2428108857102416
 21
458.9235269907343877
 31
0.0
  0
LINE
  5
1DC7A
  8
0
 10
4528.1433804274611248
 20
458.9286173050301159
 30
0.0
 11
4528.133825422960399
 21
458.9168178572300008
 31
0.0
  0
LINE
  5
1DC7B
  8
0
 10
4528.2810912246595763
 20
458.7675109581301172
 30
0.0
 11
4528.3102770913592394
 21
458.7911441470300815
 31
0.0
  0
LINE
  5
1DC7C
  8
0
 10
4528.3642281666607232
 20
458.8508224653301113
 30
0.0
 11
4528.3359094050601925
 21
458.8278902776301038
 31
0.0
  0
LINE
  5
1DC7D
  8
0
 10
4528.4362130106592303
 20
458.9440677794300996
 30
0.0
 11
4528.3954767870600335
 21
458.9110802414301133
 31
0.0
  0
LINE
  5
1DC7E
  8
0
 10
4528.3434412410606456
 20
459.0538761507301047
 30
0.0
 11
4528.3044187952609718
 21
459.0056881653301275
 31
0.0
  0
LINE
  5
1DC7F
  8
0
 10
4528.4056869118603572
 20
458.8941974300300899
 30
0.0
 11
4528.3790322012600882
 21
458.8612812283300855
 31
0.0
  0
LINE
  5
1DC80
  8
0
 10
4528.498878816960314
 20
458.7918176405300983
 30
0.0
 11
4528.4699496952598565
 21
458.7683912996300819
 31
0.0
  0
LINE
  5
1DC81
  8
0
 10
4528.46393216765955
 20
458.7556534811300821
 30
0.0
 11
4528.4392608202606425
 21
458.7251912681301178
 31
0.0
  0
LINE
  5
1DC82
  8
0
 10
4528.5602373506590084
 20
458.6565086686301242
 30
0.0
 11
4528.5310889315596796
 21
458.6329009173301188
 31
0.0
  0
LINE
  5
1DC83
  8
0
 10
4528.6382645019602933
 20
458.7747707888300965
 30
0.0
 11
4528.6156966797598216
 21
458.7469027627299738
 31
0.0
  0
LINE
  5
1DC84
  8
0
 10
4528.7374148863600567
 20
458.6802815556300743
 30
0.0
 11
4528.7073959865601864
 21
458.655703724530099
 31
0.0
  0
ARC
  5
1DC85
  8
0
 10
4528.6260804907742568
 20
458.6627203890881788
 30
0.0
 40
0.1127108788489652
 50
8.9636142467609616
 51
83.7942173513318522
  0
ARC
  5
1DC86
  8
0
 10
4528.3649053566887233
 20
458.7634715599945139
 30
0.0
 40
0.1369393600785807
 50
11.9464453075580508
 51
72.6740418523018263
  0
ARC
  5
1DC87
  8
0
 10
4528.1909310623177589
 20
458.7964062464998847
 30
0.0
 40
0.1816397843130792
 50
17.4325679011034396
 51
63.61880631779227
  0
ARC
  5
1DC88
  8
0
 10
4528.3131993087172305
 20
458.9342327640501935
 30
0.0
 40
0.1234062332029087
 50
4.5711070324068519
 51
75.8149134942957801
  0
ARC
  5
1DC89
  8
0
 10
4527.7836262358996464
 20
458.4306648744752124
 30
0.0
 40
0.6382056326124678
 50
34.3906594854533409
 51
46.9610820776717688
  0
ARC
  5
1DC8A
  8
0
 10
4528.2050346429723504
 20
458.8483055068444969
 30
0.0
 40
0.0197111259758669
 50
143.3910206846188089
 51
214.4761498834268139
  0
ARC
  5
1DC8B
  8
0
 10
4528.1491267367200635
 20
458.9044294153931105
 30
0.0
 40
0.0196876533371805
 50
141.0052419710065124
 51
199.8784558088082974
  0
ARC
  5
1DC8C
  8
0
 10
4528.1491270182114022
 20
458.9044306671473805
 30
0.0
 40
0.0196883437149718
 50
199.8816029985198099
 51
223.992958523352911
  0
ARC
  5
1DC8D
  8
0
 10
10768.6874394360002043
 20
6485.2538578372541451
 30
0.0
 40
8675.341344899026808
 50
223.9996751700045934
 51
224.0002786785751141
  0
ARC
  5
1DC8E
  8
0
 10
4528.3318344813797012
 20
458.953355733072101
 30
0.0
 40
0.1843021728404744
 50
219.0892033414442039
 51
225.7031665207123865
  0
ARC
  5
1DC8F
  8
0
 10
4528.2125993995614408
 20
458.8386983915301016
 30
0.0
 40
0.0196849763000481
 50
224.0039339712986077
 51
241.2206802825602949
  0
ARC
  5
1DC90
  8
0
 10
4528.2685881681209139
 20
458.780779793976194
 30
0.0
 40
0.0182315229077985
 50
219.8585733534449105
 51
313.2980288867811964
  0
ARC
  5
1DC91
  8
0
 10
4524.966713970336059
 20
455.5878869867548246
 30
0.0
 40
4.5749574556686889
 50
44.0553173117632468
 51
44.9747574958094702
  0
ARC
  5
1DC92
  8
0
 10
4528.7507097131820046
 20
459.3166501756094249
 30
0.0
 40
0.6581030786418312
 50
219.4498815045816116
 51
227.3992833410567869
  0
ARC
  5
1DC93
  8
0
 10
4528.3233831348879903
 20
458.8434336936796853
 30
0.0
 40
0.0199625956953135
 50
274.0463898883161278
 51
308.8649636167716039
  0
ARC
  5
1DC94
  8
0
 10
4528.3249001262320235
 20
458.8500479566994841
 30
0.0
 40
0.0265273181149211
 50
222.2029819583299002
 51
269.7659807317672858
  0
ARC
  5
1DC95
  8
0
 10
4528.2586164951089813
 20
458.9108331742372116
 30
0.0
 40
0.0202724830919688
 50
141.236317501582505
 51
217.5091597567297867
  0
ARC
  5
1DC96
  8
0
 10
4528.42187011239821
 20
459.0025868638193174
 30
0.0
 40
0.2020734984317233
 50
218.3078233296288033
 51
229.4882630728311028
  0
ARC
  5
1DC97
  8
0
 10
4528.134169724142339
 20
458.7257455182942749
 30
0.0
 40
0.1991280227116676
 50
38.2248642290152318
 51
49.5712221734502378
  0
ARC
  5
1DC98
  8
0
 10
4528.3950224848349535
 20
458.8484749972669192
 30
0.0
 40
0.0204863057392689
 50
141.3096076611724925
 51
198.8050337151910867
  0
ARC
  5
1DC99
  8
0
 10
4528.4570027491017754
 20
458.7849155280638911
 30
0.0
 40
0.020992225707842
 50
238.9385380318838941
 51
308.0791573747015946
  0
ARC
  5
1DC9A
  8
0
 10
4528.431743005889075
 20
458.865150071150822
 30
0.0
 40
0.0607503419265632
 50
202.5313044553464863
 51
224.3560934723774949
  0
ARC
  5
1DC9B
  8
0
 10
4528.7359137429857583
 20
459.1180415270981143
 30
0.0
 40
0.4561473835999763
 50
220.3546192302117959
 51
229.1347638914969025
  0
ARC
  5
1DC9C
  8
0
 10
4528.4774596107181424
 20
458.8204951993274108
 30
0.0
 40
0.0620307542477176
 50
229.8523417756838114
 51
239.7088532068574125
  0
ARC
  5
1DC9D
  8
0
 10
4528.4936836680590204
 20
458.8816785512897241
 30
0.0
 40
0.1155567217595704
 50
214.3531806135341924
 51
233.9671756330868106
  0
ARC
  5
1DC9E
  8
0
 10
4528.3309144081740669
 20
458.7236123246954094
 30
0.0
 40
0.1147223021413832
 50
34.2811378313204571
 51
54.0392184152774604
  0
ARC
  5
1DC9F
  8
0
 10
4528.3201898771740161
 20
458.9929335734817073
 30
0.0
 40
0.0202832389390849
 50
141.0379762544010021
 51
187.3236528386960913
  0
ARC
  5
1DCA0
  8
0
 10
4528.3288064847656642
 20
458.9942789056516972
 30
0.0
 40
0.0290020063037576
 50
187.7898212728510998
 51
216.1818385501950956
  0
ARC
  5
1DCA1
  8
0
 10
4528.6026533588237726
 20
459.1970757669237742
 30
0.0
 40
0.3697634431606658
 50
216.4950788907586059
 51
229.9738665653171097
  0
ARC
  5
1DCA2
  8
0
 10
4528.3871631859337867
 20
458.9411965530537145
 30
0.0
 40
0.035236770404428
 50
230.6998684915340903
 51
256.697808851310981
  0
ARC
  5
1DCA3
  8
0
 10
4528.3825959864188917
 20
458.9273614528045755
 30
0.0
 40
0.0207603677461289
 50
260.1812069386651274
 51
308.349110544086102
  0
ARC
  5
1DCA4
  8
0
 10
4528.2685734323977158
 20
458.8803902702836126
 30
0.0
 40
0.0969535118955544
 50
31.7313827906002786
 51
55.1563885535817207
  0
ARC
  5
1DCA5
  8
0
 10
4528.4083915335486381
 20
459.0128126860009274
 30
0.0
 40
0.0996032522577041
 50
212.0472050895629934
 51
234.8405662546005033
  0
ARC
  5
1DCA6
  8
0
 10
4528.5185962440500589
 20
458.6483604035350936
 30
0.0
 40
0.0198732175052233
 50
264.5113669522909277
 51
308.938915361840202
  0
ARC
  5
1DCA7
  8
0
 10
4528.5192005844783125
 20
458.6513037505432067
 30
0.0
 40
0.0228631140902454
 50
231.9360751428027072
 51
263.7093001208210126
  0
ARC
  5
1DCA8
  8
0
 10
4528.454850875991724
 20
458.7126385252536807
 30
0.0
 40
0.020015523761749
 50
141.1598074182772962
 51
179.0271269006962882
  0
ARC
  5
1DCA9
  8
0
 10
4528.4565440849928564
 20
458.7128656240615783
 30
0.0
 40
0.0217061402545633
 50
179.7023950509909866
 51
217.2175744294125082
  0
ARC
  5
1DCAA
  8
0
 10
4528.8954202846825865
 20
459.0833046735421021
 30
0.0
 40
0.5959931726702146
 50
220.0591136016558949
 51
226.7533512208713091
  0
ARC
  5
1DCAB
  8
0
 10
4528.6790251100355817
 20
458.8489457163387897
 30
0.0
 40
0.2770380906550187
 50
226.1444435416408112
 51
231.113055010282693
  0
ARC
  5
1DCAC
  8
0
 10
4528.6119221974122411
 20
458.8046902197568215
 30
0.0
 40
0.1971521173867712
 50
219.0613253039254005
 51
230.5213274049565939
  0
ARC
  5
1DCAD
  8
0
 10
4528.340369361590092
 20
458.535108228512172
 30
0.0
 40
0.1875116160364094
 50
38.7656658477839926
 51
50.8169868610930067
  0
ARC
  5
1DCAE
  8
0
 10
4528.4030135665589114
 20
458.6001331914649768
 30
0.0
 40
0.1670254852190625
 50
19.72622822554019
 51
68.6090612802590414
  0
ARC
  5
1DCAF
  8
0
 10
4528.3140420546333189
 20
458.6340522443115901
 30
0.0
 40
0.1608904659986191
 50
36.6197738668563701
 51
65.3466100879098235
  0
ARC
  5
1DCB0
  8
0
 10
4531.6438951138443372
 20
461.7481925221146071
 30
0.0
 40
4.462793112377053
 50
221.5704255021124993
 51
222.4246578179925109
  0
ARC
  5
1DCB1
  8
0
 10
4528.3273251255377545
 20
458.775416438424827
 30
0.0
 40
0.0210294950435361
 50
220.9724393389558088
 51
286.9120699511614134
  0
ARC
  5
1DCB2
  8
0
 10
4528.6748346040685647
 20
459.1560759632022837
 30
0.0
 40
0.5363207191555359
 50
224.7688468695504014
 51
227.3470525668356004
  0
LINE
  5
1DCB3
  8
0
 10
4528.1890638404602214
 20
458.9238773011301191
 30
0.0
 11
4528.215268209961323
 21
458.8922698286299919
 31
0.0
  0
ARC
  5
1DCB4
  8
0
 10
4528.6937908441095715
 20
458.6732147126630821
 30
0.0
 40
0.0221750897735335
 50
235.3359706201011079
 51
307.8453800353142924
  0
ARC
  5
1DCB5
  8
0
 10
4528.6324683293541966
 20
458.7337130809979726
 30
0.0
 40
0.0213367273563392
 50
141.8175259729111133
 51
185.2846811220659902
  0
ARC
  5
1DCB6
  8
0
 10
4528.6445039139480286
 20
458.7366921637865858
 30
0.0
 40
0.0336468725295482
 50
188.4500100641909057
 51
217.7923064018079913
  0
ARC
  5
1DCB7
  8
0
 10
4528.8444955138365913
 20
458.8873842677389234
 30
0.0
 40
0.2840531859822846
 50
217.0918542120541872
 51
234.9037048495083013
  0
ARC
  5
1DCB8
  8
0
 10
4528.5938507190712699
 20
458.6332042363246728
 30
0.0
 40
0.0806095107055136
 50
31.0970126248090786
 51
59.3610039161890128
  0
ARC
  5
1DCB9
  8
0
 10
4528.7058894919664453
 20
458.7461422345385813
 30
0.0
 40
0.0832731714981511
 50
211.5579866706966072
 51
238.9000298702673888
  0
ARC
  5
1DCBA
  8
0
 10
4528.3285735117588047
 20
458.2356752616241238
 30
0.0
 40
0.3914817334371353
 50
36.3990818080253717
 51
56.9088066841119371
  0
ARC
  5
1DCBB
  8
0
 10
4528.5322277230343389
 20
458.5198613321904872
 30
0.0
 40
0.019727250565347
 50
141.0166191467612862
 51
213.4835128761708916
  0
ARC
  5
1DCBC
  8
0
 10
4528.5970885594670108
 20
458.4557444207489993
 30
0.0
 40
0.0198088731157862
 50
229.8462133724532066
 51
308.9127764067790736
  0
ARC
  5
1DCBD
  8
0
 10
4529.4425482940741858
 20
459.3694741658846965
 30
0.0
 40
1.264659593186183
 50
222.8762629890387927
 51
227.2634828631491075
  0
ARC
  5
1DCBE
  8
0
 10
4528.155067664903072
 20
458.0739811958565042
 30
0.0
 40
0.5628748074574538
 50
43.3040565025446469
 51
47.3122164726019818
  0
ARC
  5
1DCBF
  8
0
 10
4528.9635893791210037
 20
458.8912464707079266
 30
0.0
 40
0.5874210043500337
 50
223.3878318041687123
 51
227.2284411709837002
  0
ARC
  5
1DCC0
  8
0
 10
4528.6700809965122971
 20
458.4317007844965133
 30
0.0
 40
0.0199983648613745
 50
141.1426320757194048
 51
215.9665621168666974
  0
ARC
  5
1DCC1
  8
0
 10
4528.7350070214397419
 20
458.3686401749819765
 30
0.0
 40
0.0200396362897448
 50
231.7232108130324946
 51
308.7252964000437032
  0
ARC
  5
1DCC2
  8
0
 10
4528.834163400446414
 20
458.5680317321813959
 30
0.0
 40
0.2332878634653731
 50
219.4004202496624885
 51
226.5962644678232039
  0
ARC
  5
1DCC3
  8
0
 10
4529.1453859702587579
 20
458.853234807258616
 30
0.0
 40
0.6550420511521937
 50
223.9590646024010141
 51
229.8010540737224972
  0
ARC
  5
1DCC4
  8
0
 10
4528.678536813894425
 20
458.372991887655985
 30
0.0
 40
0.0197107632452778
 50
141.0266305106408993
 51
198.0130496153672084
  0
ARC
  5
1DCC5
  8
0
 10
4528.743997611373743
 20
458.3093759319933156
 30
0.0
 40
0.0197553795059829
 50
228.0337563544462114
 51
308.9450686082806214
  0
ARC
  5
1DCC6
  8
0
 10
4528.8001316667287028
 20
458.2534215061078271
 30
0.0
 40
0.019685136835883
 50
226.0044749912607074
 51
309.0000084971367187
  0
ARC
  5
1DCC7
  8
0
 10
4528.7344060928007821
 20
458.3169001309133819
 30
0.0
 40
0.0196910181891512
 50
207.8041985346941942
 51
225.9920075884703863
  0
LINE
  5
1DCC8
  8
0
 10
4528.7864583276614212
 20
458.2392601357300919
 30
0.0
 11
4528.7207255864595936
 21
458.3027375060299846
 31
0.0
  0
ARC
  5
1DCC9
  8
0
 10
4530.5488295624281818
 20
460.234096881776793
 30
0.0
 40
2.658305491173786
 50
224.8952594671935117
 51
226.8500396333083131
  0
ARC
  5
1DCCA
  8
0
 10
4528.6802098669786574
 20
458.3737284927822202
 30
0.0
 40
0.0215303754378457
 50
198.5004124560961998
 51
227.595509533335786
  0
ARC
  5
1DCCB
  8
0
 10
4528.6362182623079207
 20
458.5110483729965836
 30
0.0
 40
0.1332069257701275
 50
15.62784758912216
 51
78.5805271676407386
  0
ARC
  5
1DCCC
  8
0
 10
4528.6539998273583478
 20
458.5987999816450156
 30
0.0
 40
0.0202691435384286
 50
141.1319714601997077
 51
188.5824115664719045
  0
ARC
  5
1DCCD
  8
0
 10
4528.6600407349396846
 20
458.6002882647077854
 30
0.0
 40
0.0264706459812209
 50
189.8165375769839898
 51
214.1283502938447896
  0
ARC
  5
1DCCE
  8
0
 10
4528.7184468517061759
 20
458.5362023952143886
 30
0.0
 40
0.0206450671346827
 50
267.0030637545066838
 51
308.3032999697024934
  0
ARC
  5
1DCCF
  8
0
 10
4528.7202447101790312
 20
458.5442645537813746
 30
0.0
 40
0.0288229588453053
 50
230.8775283044410003
 51
264.2709396679201745
  0
ARC
  5
1DCD0
  8
0
 10
4528.9389924170745871
 20
458.8242453743553142
 30
0.0
 40
0.3841202793916483
 50
218.4405463383079109
 51
231.9154600007296096
  0
ARC
  5
1DCD1
  8
0
 10
4528.7511036656396755
 20
458.6342198349881869
 30
0.0
 40
0.1147579057401423
 50
215.8402825701184042
 51
235.592198888842006
  0
ARC
  5
1DCD2
  8
0
 10
4528.5908472365699708
 20
458.4699058176390167
 30
0.0
 40
0.1181180262283435
 50
36.1239201124973732
 51
55.3085613464377914
  0
ARC
  5
1DCD3
  8
0
 10
4528.6320876293875699
 20
458.3848711919532093
 30
0.0
 40
0.1616434245180446
 50
22.6461352363790205
 51
54.7011959967355281
  0
ARC
  5
1DCD4
  8
0
 10
4528.7340354820871653
 20
458.4353246009695226
 30
0.0
 40
0.0205680021259561
 50
231.4877018827438064
 51
308.2730764471102134
  0
ARC
  5
1DCD5
  8
0
 10
4528.6671197057567042
 20
458.5000863698201101
 30
0.0
 40
0.0200350720562228
 50
141.1333378161610881
 51
210.216917033979513
  0
ARC
  5
1DCD6
  8
0
 10
4529.1259589335850251
 20
458.9068985611075959
 30
0.0
 40
0.6337404750647427
 50
224.1824305279085934
 51
230.3096620032634121
  0
ARC
  5
1DCD7
  8
0
 10
4528.8182140455373883
 20
458.6154336765040966
 30
0.0
 40
0.2099851794554505
 50
216.6789156161833887
 51
225.6736944476008091
  0
ARC
  5
1DCD8
  8
0
 10
4528.8201789566473963
 20
458.5908948297321217
 30
0.0
 40
0.1926274537007294
 50
219.9451119602645974
 51
231.6743682984264012
  0
ARC
  5
1DCD9
  8
0
 10
4528.5498768818024473
 20
458.3128425489413758
 30
0.0
 40
0.1971495033211757
 50
40.0800854245635705
 51
51.5393948339200705
  0
LINE
  5
1DCDA
  8
0
 10
4528.6714882033884351
 20
458.4652161580966094
 30
0.0
 11
4528.6545080661799147
 21
458.4442474349659165
 31
0.0
  0
LINE
  5
1DCDB
  8
0
 10
4528.7830398493597386
 20
458.381750674830073
 30
0.0
 11
4528.7475435605865641
 21
458.3530061668961935
 31
0.0
  0
ARC
  5
1DCDC
  8
0
 10
4528.6763896819920774
 20
458.3316805136045105
 30
0.0
 40
0.1178188407885498
 50
25.1491343845620001
 51
50.599109461209288
  0
LINE
  5
1DCDD
  8
0
 10
4528.7812684232603715
 20
458.4471101462301021
 30
0.0
 11
4528.7467755122597737
 21
458.4191773305300899
 31
0.0
  0
LINE
  5
1DCDE
  8
0
 10
4528.6625916311595574
 20
458.6416179178301036
 30
0.0
 11
4528.6382184052599769
 21
458.6115194508300874
 31
0.0
  0
LINE
  5
1DCDF
  8
0
 10
4528.7645007610590255
 20
458.5469327092300773
 30
0.0
 11
4528.7312431645523247
 21
458.5200013713400153
 31
0.0
  0
LINE
  5
1DCE0
  8
0
 10
4528.5423120435607416
 20
458.5636596936300862
 30
0.0
 11
4528.5168931695607171
 21
458.5322716458301215
 31
0.0
  0
LINE
  5
1DCE1
  8
0
 10
4528.6436784536599589
 20
458.4679828663300896
 30
0.0
 11
4528.6095312373327033
 21
458.4403310751807226
 31
0.0
  0
LINE
  5
1DCE2
  8
0
 10
4528.6515205725600026
 20
458.5126606101301263
 30
0.0
 11
4528.6771364482738136
 21
458.5431918770938182
 31
0.0
  0
LINE
  5
1DCE3
  8
0
 10
4528.6738631723601429
 20
458.3985411303299884
 30
0.0
 11
4528.6632129100607926
 21
458.3853891518301111
 31
0.0
  0
LINE
  5
1DCE4
  8
0
 10
4528.7928252434603564
 20
458.3234965106299796
 30
0.0
 11
4528.7564153495613937
 21
458.2940112062304934
 31
0.0
  0
ARC
  5
1DCE5
  8
0
 10
4528.5443392319693885
 20
458.1098803007487277
 30
0.0
 40
0.3276844973709031
 50
40.6845357814111424
 51
49.7397872757919188
  0
LINE
  5
1DCE6
  8
0
 10
4528.5312830424281856
 20
458.5500416589388237
 30
0.0
 11
4528.4457442506645748
 21
458.6355804507019798
 31
0.0
  0
ARC
  5
1DCE7
  8
0
 10
4529.6109354739528499
 20
457.7072960858372994
 30
0.0
 40
0.0197789152903228
 50
231.5884636201402031
 51
308.8597485782970011
  0
ARC
  5
1DCE8
  8
0
 10
4529.5384958084878235
 20
457.7654766627056802
 30
0.0
 40
0.0193432936715509
 50
140.0525263557447886
 51
226.5777678425185968
  0
ARC
  5
1DCE9
  8
0
 10
4529.4730196467780843
 20
457.4874664315207724
 30
0.0
 40
0.3450988465024634
 50
50.6444967479685317
 51
74.7133729395709025
  0
ARC
  5
1DCEA
  8
0
 10
4531.9995269065675529
 20
460.7240591135891918
 30
0.0
 40
3.867665109045872
 50
230.2270447299630121
 51
231.6285644190062953
  0
ARC
  5
1DCEB
  8
0
 10
4529.6374264164696797
 20
457.7360583753404057
 30
0.0
 40
0.0200738379332914
 50
266.514040641319184
 51
308.701585532974093
  0
ARC
  5
1DCEC
  8
0
 10
4529.5674104334657386
 20
457.7919648127481764
 30
0.0
 40
0.0205193687483977
 50
142.3685133691695057
 51
211.2822851789011906
  0
ARC
  5
1DCED
  8
0
 10
4529.6379047255268233
 20
457.7380720623775119
 30
0.0
 40
0.0221157313200771
 50
244.9295976167989863
 51
265.594335329332921
  0
ARC
  5
1DCEE
  8
0
 10
4529.6509774461810593
 20
457.763558086965304
 30
0.0
 40
0.0507506818195581
 50
234.0428761178723107
 51
243.7532707111824948
  0
ARC
  5
1DCEF
  8
0
 10
4529.5778253898888579
 20
457.7994684770670801
 30
0.0
 40
0.0333316545550111
 50
213.0096890918071892
 51
230.1714038491186045
  0
ARC
  5
1DCF0
  8
0
 10
4530.1047778754491446
 20
458.3977235299315112
 30
0.0
 40
0.8305577657567843
 50
228.6879084412964005
 51
234.3903745996402961
  0
ARC
  5
1DCF1
  8
0
 10
4529.7358286366234097
 20
457.9376558993258186
 30
0.0
 40
0.2398103587493793
 50
226.8837165233549058
 51
236.2999647683971887
  0
ARC
  5
1DCF2
  8
0
 10
4529.4406172668032013
 20
457.5653007901992737
 30
0.0
 40
0.2369997811954446
 50
46.8277546679396082
 51
56.3559266237721772
  0
ARC
  5
1DCF3
  8
0
 10
4529.3460991810788983
 20
457.1564508737214965
 30
0.0
 40
0.6737854538300546
 50
60.0253360886756084
 51
60.5077500689981278
  0
LINE
  5
1DCF4
  8
0
 10
4529.6827338456596408
 20
457.740115109730084
 30
0.0
 11
4529.6827760681499058
 21
457.7400208197540223
 31
0.0
  0
LINE
  5
1DCF5
  8
0
 10
4529.6827760681499058
 20
457.7400208197540223
 30
0.0
 11
4529.6233450852596434
 21
457.6918945587293024
 31
0.0
  0
LINE
  5
1DCF6
  8
0
 10
4529.6499778697461807
 20
457.7203924891526867
 30
0.0
 11
4529.6918572492459134
 21
457.7543059293528245
 31
0.0
  0
LINE
  5
1DCF7
  8
0
 10
4529.5236665934598932
 20
457.7778967026299028
 30
0.0
 11
4529.5481290633642857
 21
457.8081053370958102
 31
0.0
  0
LINE
  5
1DCF8
  8
0
 10
4529.5640042375462144
 20
457.8203553290528021
 30
0.0
 11
4529.5511600327699853
 21
457.8044935385823919
 31
0.0
  0
ARC
  5
1DCF9
  8
0
 10
4528.9258822467345453
 20
458.3154060878483165
 30
0.0
 40
0.1274262884216346
 50
17.1638092354710388
 51
86.0931579034448475
  0
ARC
  5
1DCFA
  8
0
 10
4528.9190303216673783
 20
458.3902308942671198
 30
0.0
 40
0.0208449681985845
 50
141.5717804427980013
 51
186.288462239460813
  0
ARC
  5
1DCFB
  8
0
 10
4528.8918031984148911
 20
458.348200990130124
 30
0.0
 40
0.0202723534729175
 50
142.0591682247955987
 51
193.6807299297441887
  0
ARC
  5
1DCFC
  8
0
 10
4528.8453488598379408
 20
458.320063843344883
 30
0.0
 40
0.0198678157192184
 50
141.0859908357865891
 51
197.6936761891375056
  0
ARC
  5
1DCFD
  8
0
 10
4528.9572811781763448
 20
458.2887001881717879
 30
0.0
 40
0.021650884611025
 50
235.3337334891585897
 51
307.1330463331495935
  0
ARC
  5
1DCFE
  8
0
 10
4528.91332739542122
 20
458.2636201594693262
 30
0.0
 40
0.0260929375053992
 50
230.7271114276271931
 51
254.1737645685865914
  0
ARC
  5
1DCFF
  8
0
 10
4528.9111627195306937
 20
458.258147460090413
 30
0.0
 40
0.0202459399410226
 50
255.8439801246369996
 51
308.390679200575903
  0
ARC
  5
1DD00
  8
0
 10
4528.8546799679752439
 20
458.3243468817900066
 30
0.0
 40
0.0300849998459572
 50
200.0643528865400071
 51
224.7696436177598116
  0
ARC
  5
1DD01
  8
0
 10
4529.3636818586419395
 20
458.8032073842223895
 30
0.0
 40
0.7289241590437761
 50
223.3149652131625089
 51
230.1713215869959015
  0
ARC
  5
1DD02
  8
0
 10
4529.0155545492061719
 20
458.4355576457243728
 30
0.0
 40
0.2215207154307582
 50
221.4969069830883939
 51
231.6921619674189969
  0
ARC
  5
1DD03
  8
0
 10
4528.7132172022329542
 20
458.1159059502028867
 30
0.0
 40
0.2202198651613457
 50
41.4667146145746699
 51
51.7223543359359326
  0
ARC
  5
1DD04
  8
0
 10
4528.8979758088844392
 20
458.3501768192057284
 30
0.0
 40
0.026741099812475
 50
194.6661218612323125
 51
217.6688124977106895
  0
ARC
  5
1DD05
  8
0
 10
4529.0452085875413104
 20
458.423538103057524
 30
0.0
 40
0.182617406596464
 50
227.374762032049091
 51
236.70705342046449
  0
ARC
  5
1DD06
  8
0
 10
4529.1484477773556137
 20
458.5611342704855247
 30
0.0
 40
0.3541927967424871
 50
219.9215107894465859
 51
230.1609357008910024
  0
ARC
  5
1DD07
  8
0
 10
4528.9372333643595994
 20
458.3961811676614957
 30
0.0
 40
0.039783897318602
 50
191.9440152577766128
 51
228.6583290483636119
  0
ARC
  5
1DD08
  8
0
 10
4528.9846154218266747
 20
458.3301121388672072
 30
0.0
 40
0.0218692789429445
 50
234.6294073241473086
 51
307.6756645202386267
  0
ARC
  5
1DD09
  8
0
 10
4529.1568607661083661
 20
458.5824847723040989
 30
0.0
 40
0.3274151559331533
 50
221.3182099775110885
 51
235.6157150433386107
  0
ARC
  5
1DD0A
  8
0
 10
4528.8932257737851614
 20
458.2074549166824795
 30
0.0
 40
0.0198485334919972
 50
141.1716966859530089
 51
222.545792254038389
  0
ARC
  5
1DD0B
  8
0
 10
4529.9784669806886086
 20
459.2928486327149926
 30
0.0
 40
1.5547011783033791
 50
224.9726515026017069
 51
228.3812515830441043
  0
ARC
  5
1DD0C
  8
0
 10
4528.9594210234063212
 20
458.1451760734793766
 30
0.0
 40
0.0198355244763373
 50
263.378830432269126
 51
308.8233320069439856
  0
ARC
  5
1DD0D
  8
0
 10
4528.9599207138699057
 20
458.1465551959145159
 30
0.0
 40
0.0212657406574423
 50
228.680102283910486
 51
262.4699075982555883
  0
ARC
  5
1DD0E
  8
0
 10
4529.0794401368875697
 20
458.3378190502248231
 30
0.0
 40
0.2430945156236921
 50
222.094777084313705
 51
231.3841731729771141
  0
ARC
  5
1DD0F
  8
0
 10
4528.5253701486772115
 20
457.7490420572440826
 30
0.0
 40
0.5665333118333435
 50
44.7482569398593313
 51
48.7306933174414283
  0
ARC
  5
1DD10
  8
0
 10
4529.0113813819853021
 20
458.1539847228916074
 30
0.0
 40
0.0198286307428982
 50
141.1320313116320051
 51
201.3299729659539992
  0
ARC
  5
1DD11
  8
0
 10
4529.0810219209006391
 20
458.0893706103867089
 30
0.0
 40
0.0188860711204315
 50
290.3513611144114748
 51
309.3870267074429989
  0
ARC
  5
1DD12
  8
0
 10
4529.0805527872889797
 20
458.0912915180585969
 30
0.0
 40
0.0208514732968483
 50
232.1939748302501982
 51
289.7243079652391771
  0
ARC
  5
1DD13
  8
0
 10
4529.6461230158492981
 20
458.7761538438550133
 30
0.0
 40
0.9090458869799476
 50
225.2599665261905102
 51
230.4895694426369062
  0
ARC
  5
1DD14
  8
0
 10
4529.0136686949754221
 20
458.1549215433709037
 30
0.0
 40
0.0223000600713749
 50
201.4344548543820963
 51
218.9909865901433932
  0
ARC
  5
1DD15
  8
0
 10
4529.1488692446491768
 20
458.2758742805477823
 30
0.0
 40
0.2036836173186586
 50
221.5071534055909126
 51
225.5583897332857077
  0
ARC
  5
1DD16
  8
0
 10
4528.9252449926261761
 20
457.937318619602479
 30
0.0
 40
0.2690692326589676
 50
49.0754031262011168
 51
70.369383835312405
  0
ARC
  5
1DD17
  8
0
 10
4529.1196530250981596
 20
458.1304358702319064
 30
0.0
 40
0.0207802387661113
 50
141.7920513225932098
 51
166.8855955787736036
  0
ARC
  5
1DD18
  8
0
 10
4529.1192055695628369
 20
458.1306183332062005
 30
0.0
 40
0.0203031961027552
 50
167.1005715804083991
 51
211.4985571455567879
  0
ARC
  5
1DD19
  8
0
 10
4529.1866683623729841
 20
458.0709556507679281
 30
0.0
 40
0.0205404844533409
 50
236.5388257422654874
 51
308.6589576313331236
  0
ARC
  5
1DD1A
  8
0
 10
4529.5897555678038771
 20
458.5942778774995077
 30
0.0
 40
0.6818170887041443
 50
226.6810162338983048
 51
230.9348077848518983
  0
ARC
  5
1DD1B
  8
0
 10
4529.2593255073597902
 20
458.1856845944977863
 30
0.0
 40
0.1563376609050963
 50
230.5897205597424886
 51
237.5076368803468938
  0
ARC
  5
1DD1C
  8
0
 10
4528.8688887973039527
 20
457.6251529402649112
 30
0.0
 40
0.5265604880902518
 50
47.8148486736476173
 51
62.3102534835088591
  0
ARC
  5
1DD1D
  8
0
 10
4529.0839904809618019
 20
457.9823281071533074
 30
0.0
 40
0.1886264560704336
 50
51.1597533290249586
 51
78.2166371357592141
  0
ARC
  5
1DD1E
  8
0
 10
4529.20804979877812
 20
458.0341475377559277
 30
0.0
 40
0.1429735927934079
 50
27.5255012921764397
 51
86.1606128708113062
  0
ARC
  5
1DD1F
  8
0
 10
4529.1710412160000487
 20
457.9994779096456909
 30
0.0
 40
0.0200642295438873
 50
272.4785452903012128
 51
308.6147766245206867
  0
ARC
  5
1DD20
  8
0
 10
4529.1042971759507054
 20
458.0600675921440939
 30
0.0
 40
0.0203369653096896
 50
145.236773404711812
 51
196.6223593689385893
  0
ARC
  5
1DD21
  8
0
 10
4529.1074870858701615
 20
458.0627537816822041
 30
0.0
 40
0.024219043670221
 50
200.5559319522137116
 51
224.3852390773716934
  0
ARC
  5
1DD22
  8
0
 10
4529.6529112887574229
 20
458.6157318787448958
 30
0.0
 40
0.8009214848116263
 50
225.3635232178529009
 51
227.7036131937342986
  0
ARC
  5
1DD23
  8
0
 10
4529.2298885807203987
 20
457.9411800162189934
 30
0.0
 40
0.0193944682267249
 50
228.452180543069602
 51
309.7982304933441924
  0
ARC
  5
1DD24
  8
0
 10
4767.250725924366634
 20
722.149549689370815
 30
0.0
 40
355.6315162474238036
 50
227.9694546772340971
 51
227.9848727471805887
  0
ARC
  5
1DD25
  8
0
 10
4529.1597436874289997
 20
458.0046339947854221
 30
0.0
 40
0.019598607623341
 50
197.1773202606343034
 51
225.1947921520643092
  0
ARC
  5
1DD26
  8
0
 10
4529.1711980904592565
 20
457.9995129427596794
 30
0.0
 40
0.0200930689320986
 50
236.9417918735483966
 51
272.0273084158997108
  0
ARC
  5
1DD27
  8
0
 10
4529.8995554598022864
 20
458.8543786771315922
 30
0.0
 40
1.143378072568769
 50
228.1526765190286881
 51
228.771933530432392
  0
ARC
  5
1DD28
  8
0
 10
4529.2686168667241873
 20
458.1281194093979252
 30
0.0
 40
0.1813859393547942
 50
227.4694642703269096
 51
233.3084457513554071
  0
ARC
  5
1DD29
  8
0
 10
4530.0290867388202969
 20
458.9738683795466727
 30
0.0
 40
1.320554108787632
 50
226.3672238390919915
 51
227.8355777379611027
  0
ARC
  5
1DD2A
  8
0
 10
4529.1330611435350875
 20
458.0336373551024849
 30
0.0
 40
0.0217500893676249
 50
208.3432158105682106
 51
225.6608213302664012
  0
ARC
  5
1DD2B
  8
0
 10
4530.71055388804416
 20
459.7647207261450149
 30
0.0
 40
2.3625729471293671
 50
227.4834105712222083
 51
228.2302729928869951
  0
ARC
  5
1DD2C
  8
0
 10
4528.799504898151099
 20
457.6600747794344102
 30
0.0
 40
0.4815300154593211
 50
45.4359340035910222
 51
50.1216247481996788
  0
ARC
  5
1DD2D
  8
0
 10
4529.4528362718920107
 20
458.3800628353395723
 30
0.0
 40
0.4914934980961764
 50
225.4834535015218933
 51
230.0741052502542061
  0
ARC
  5
1DD2E
  8
0
 10
4529.1636170651636348
 20
457.7353663330724771
 30
0.0
 40
0.2969956670932396
 50
44.4312699747635733
 51
72.1293370898853539
  0
ARC
  5
1DD2F
  8
0
 10
4529.2175070408893589
 20
458.1439089277088783
 30
0.0
 40
0.0206098050087052
 50
141.5614578734949873
 51
191.9513206631002902
  0
ARC
  5
1DD30
  8
0
 10
4529.2228406409567469
 20
458.1453982644209759
 30
0.0
 40
0.0261385839901717
 50
192.7241748708090938
 51
218.1585604040469093
  0
ARC
  5
1DD31
  8
0
 10
4529.4559273471331835
 20
458.3530291982447125
 30
0.0
 40
0.3382465074819564
 50
221.4212224840944998
 51
236.9639579205089035
  0
ARC
  5
1DD32
  8
0
 10
4529.2841737668104543
 20
458.0879213096769149
 30
0.0
 40
0.0223714682064678
 50
235.575346689335305
 51
305.0873963464355256
  0
ARC
  5
1DD33
  8
0
 10
4529.3030284395526905
 20
458.178414327151188
 30
0.0
 40
0.1038467601379965
 50
218.3416070628302919
 51
240.1924610649670058
  0
ARC
  5
1DD34
  8
0
 10
4529.1708722609218967
 20
458.0249472903923902
 30
0.0
 40
0.1024709914730907
 50
38.1930816000081421
 51
60.3409865277777087
  0
ARC
  5
1DD35
  8
0
 10
4529.2444332710092567
 20
458.2064763231499001
 30
0.0
 40
0.1609685441941534
 50
221.5101918754535006
 51
235.550758891691089
  0
ARC
  5
1DD36
  8
0
 10
4529.0385390926967375
 20
457.9735057128647782
 30
0.0
 40
0.1524275366093492
 50
41.1146711209944513
 51
55.9462798580485128
  0
LINE
  5
1DD37
  8
0
 10
4529.1219885125219662
 20
458.0982249322992743
 30
0.0
 11
4529.0930061817607566
 21
458.0747739952299753
 31
0.0
  0
ARC
  5
1DD38
  8
0
 10
4529.2190072818411863
 20
458.2078735725092997
 30
0.0
 40
0.1464085581523874
 50
216.8787323480646876
 51
228.4971138380815034
  0
ARC
  5
1DD39
  8
0
 10
4529.0202004553939332
 20
458.0847782967990725
 30
0.0
 40
0.0199185365762358
 50
223.8675145838558933
 51
308.6428036670678239
  0
ARC
  5
1DD3A
  8
0
 10
4529.2532138040505743
 20
457.9843469832123901
 30
0.0
 40
0.0200028753961761
 50
142.1785197336951114
 51
202.2248824706761923
  0
ARC
  5
1DD3B
  8
0
 10
4529.3218964689122004
 20
457.9256053678886929
 30
0.0
 40
0.0201217432306549
 50
257.6341844242282946
 51
308.6338940466990266
  0
ARC
  5
1DD3C
  8
0
 10
4529.4599641281884033
 20
458.1485370066055793
 30
0.0
 40
0.2812542434228525
 50
226.3245698325793001
 51
239.6078920588788037
  0
ARC
  5
1DD3D
  8
0
 10
4529.2643943176308312
 20
457.9905270333449039
 30
0.0
 40
0.0327243365347806
 50
204.8380084660111891
 51
230.3227145001332872
  0
ARC
  5
1DD3E
  8
0
 10
4529.6492354308866197
 20
458.3891049376705951
 30
0.0
 40
0.5866826688249533
 50
226.2451790098278934
 51
229.1810127253463918
  0
ARC
  5
1DD3F
  8
0
 10
4529.4297264412562072
 20
458.1231191115771253
 30
0.0
 40
0.2408748130209259
 50
224.7226249832062024
 51
234.0977997669837976
  0
ARC
  5
1DD40
  8
0
 10
4529.1197283310702915
 20
457.761307615789292
 30
0.0
 40
0.2372009784817355
 50
44.64985609737532
 51
54.1705686528088606
  0
ARC
  5
1DD41
  8
0
 10
4529.3842328006221578
 20
457.9216578084585763
 30
0.0
 40
0.0201975348896882
 50
141.5389554110614938
 51
193.738613341388799
  0
ARC
  5
1DD42
  8
0
 10
4529.3635196381019341
 20
457.8843405527960044
 30
0.0
 40
0.019616097366335
 50
140.95655050102269
 51
191.3660518051389943
  0
ARC
  5
1DD43
  8
0
 10
4529.3413228112804063
 20
457.8956313830278759
 30
0.0
 40
0.0200328133120896
 50
150.1986221064591973
 51
233.9500601297525009
  0
ARC
  5
1DD44
  8
0
 10
4529.4541413974866373
 20
457.8632625267640037
 30
0.0
 40
0.0206316228063153
 50
235.0440305539152916
 51
308.5399856650103061
  0
ARC
  5
1DD45
  8
0
 10
4529.4336451201052114
 20
457.8254729722884235
 30
0.0
 40
0.0198919451575828
 50
231.1334106447849024
 51
308.8391207099863891
  0
ARC
  5
1DD46
  8
0
 10
4530.4264249432972065
 20
459.0731695175247182
 30
0.0
 40
1.6143690461460609
 50
228.1527669207696931
 51
231.4866731627681133
  0
ARC
  5
1DD47
  8
0
 10
4529.3636182561967871
 20
457.8842035517345153
 30
0.0
 40
0.0196863820847381
 50
190.9185704893922946
 51
223.7764539066517102
  0
ARC
  5
1DD48
  8
0
 10
4529.4108870915333682
 20
457.8387084237310205
 30
0.0
 40
0.0212891931246762
 50
224.7764936435783056
 51
272.6287683944300966
  0
LINE
  5
1DD49
  8
0
 10
4529.3295336973596932
 20
457.8794347660299877
 30
0.0
 11
4529.3957747499607649
 21
457.8237135287300816
 31
0.0
  0
ARC
  5
1DD4A
  8
0
 10
4528.9484373633868017
 20
457.321838869983992
 30
0.0
 40
0.6782856752975628
 50
48.3529751801273093
 51
51.6520091689433372
  0
ARC
  5
1DD4B
  8
0
 10
4529.9782588055059023
 20
458.5492406923295903
 30
0.0
 40
0.9244024291813047
 50
228.7922266470276043
 51
231.2127577020604008
  0
ARC
  5
1DD4C
  8
0
 10
4529.5161722855282278
 20
458.0115416542731168
 30
0.0
 40
0.1746802982825313
 50
223.5651756752812105
 51
236.5055753324502916
  0
ARC
  5
1DD4D
  8
0
 10
4529.2971433420161702
 20
457.7501855825234998
 30
0.0
 40
0.1685849413824887
 50
43.3301843177613435
 51
56.7405666899687731
  0
ARC
  5
1DD4E
  8
0
 10
4529.3872311573813931
 20
457.9227052648197969
 30
0.0
 40
0.0233608662698784
 50
194.4876697525052975
 51
222.5889856458998111
  0
ARC
  5
1DD4F
  8
0
 10
4529.657974353111058
 20
458.1867091228806999
 30
0.0
 40
0.4015046034413541
 50
224.1796927936971997
 51
230.8296343003659956
  0
ARC
  5
1DD50
  8
0
 10
4529.7207924307522262
 20
458.2490302571695793
 30
0.0
 40
0.4895871178730929
 50
229.7368407999177862
 51
235.3341653842921062
  0
ARC
  5
1DD51
  8
0
 10
4529.3526488959723793
 20
457.7434458070885057
 30
0.0
 40
0.2275357330836889
 50
41.1689471797328324
 51
79.2804901027308375
  0
LINE
  5
1DD52
  8
0
 10
4528.9345643643600852
 20
458.4425362566299782
 30
0.0
 11
4528.9027006355599951
 21
458.4031867443301849
 31
0.0
  0
LINE
  5
1DD53
  8
0
 10
4528.9979817266603277
 20
458.3128029720301129
 30
0.0
 11
4529.0476335996600028
 21
458.3530101706300002
 31
0.0
  0
LINE
  5
1DD54
  8
0
 10
4528.970350096959919
 20
458.2714384956299796
 30
0.0
 11
4529.00629581496014
 21
458.3005467641299902
 31
0.0
  0
LINE
  5
1DD55
  8
0
 10
4528.8983107769599883
 20
458.3879476583301198
 30
0.0
 11
4528.8970714088591194
 21
458.3869204085301021
 31
0.0
  0
LINE
  5
1DD56
  8
0
 10
4528.8970714088591194
 20
458.3869204085301021
 30
0.0
 11
4528.8758154856095643
 21
458.3606653936299153
 31
0.0
  0
LINE
  5
1DD57
  8
0
 10
4528.8298899193596299
 20
458.3325438778301191
 30
0.0
 11
4528.8499684316602725
 21
458.3573373674299773
 31
0.0
  0
LINE
  5
1DD58
  8
0
 10
4528.9544672949941742
 20
458.2672329371628734
 30
0.0
 11
4528.9237358588588904
 21
458.2422788038298904
 31
0.0
  0
LINE
  5
1DD59
  8
0
 10
4528.8968101841574025
 20
458.2434205773017766
 30
0.0
 11
4528.8777632037599687
 21
458.2198997232301281
 31
0.0
  0
LINE
  5
1DD5A
  8
0
 10
4528.8906953443256498
 20
458.2358694457138881
 30
0.0
 11
4528.8498016965595525
 21
458.2683125903300834
 31
0.0
  0
LINE
  5
1DD5B
  8
0
 10
4528.8498016965595525
 20
458.2683125903300834
 30
0.0
 11
4528.7879724079821244
 21
458.3195656082634173
 31
0.0
  0
LINE
  5
1DD5C
  8
0
 10
4528.8498016600442497
 20
458.2683126196873786
 30
0.0
 11
4528.812519927008907
 21
458.2381232833521949
 31
0.0
  0
LINE
  5
1DD5D
  8
0
 10
4528.8745914364899363
 20
458.2006192926876906
 30
0.0
 11
4528.8245726633467712
 21
458.2478825220865133
 31
0.0
  0
LINE
  5
1DD5E
  8
0
 10
4528.9718563326587173
 20
458.1297225588297124
 30
0.0
 11
4528.992910991159988
 21
458.1467722850302948
 31
0.0
  0
LINE
  5
1DD5F
  8
0
 10
4529.0156385026602948
 20
458.1907497517300953
 30
0.0
 11
4528.9959429272603302
 21
458.1664277415300717
 31
0.0
  0
ARC
  5
1DD60
  8
0
 10
4528.5021451321754284
 20
457.6064337402988258
 30
0.0
 40
0.7548181893672535
 50
48.6206028175693277
 51
56.8292327626771367
  0
ARC
  5
1DD61
  8
0
 10
4528.9536945162499251
 20
458.1467846913766948
 30
0.0
 40
0.0198231562970754
 50
199.2646460988999877
 51
225.2393674777075034
  0
LINE
  5
1DD62
  8
0
 10
4528.939846076559661
 20
458.1325986304299818
 30
0.0
 11
4529.0058403031907801
 21
458.0709748867841995
 31
0.0
  0
LINE
  5
1DD63
  8
0
 10
4529.2176232831607194
 20
458.1768002511299755
 30
0.0
 11
4529.2013638867601912
 21
458.1567215245300986
 31
0.0
  0
LINE
  5
1DD64
  8
0
 10
4529.3348395285538572
 20
458.1002218342648007
 30
0.0
 11
4529.2970334519595781
 21
458.069615270029999
 31
0.0
  0
LINE
  5
1DD65
  8
0
 10
4529.2430435200212742
 20
458.090177194299315
 30
0.0
 11
4529.1994996631592585
 21
458.054916036630118
 31
0.0
  0
LINE
  5
1DD66
  8
0
 10
4529.1225102303606036
 20
458.1669795865300898
 30
0.0
 11
4529.1033245141597945
 21
458.1432888097299951
 31
0.0
  0
LINE
  5
1DD67
  8
0
 10
4529.2224892147605715
 20
458.0153230216300813
 30
0.0
 11
4529.1835629230590712
 21
457.9838005323301218
 31
0.0
  0
LINE
  5
1DD68
  8
0
 10
4529.2547558473597746
 20
458.0180322035300833
 30
0.0
 11
4529.2374130291600522
 21
457.9966128112300794
 31
0.0
  0
LINE
  5
1DD69
  8
0
 10
4529.3756989155599513
 20
457.9432790912301243
 30
0.0
 11
4529.3949708144600663
 21
457.9670109319300764
 31
0.0
  0
LINE
  5
1DD6A
  8
0
 10
4529.3756989155599513
 20
457.9432790912301243
 30
0.0
 11
4529.3344593144183818
 21
457.9098872425735181
 31
0.0
  0
LINE
  5
1DD6B
  8
0
 10
4529.364613131603619
 20
457.9168610383698024
 30
0.0
 11
4529.3482844331601882
 21
457.8966969198301058
 31
0.0
  0
LINE
  5
1DD6C
  8
0
 10
4529.3615982376195461
 20
457.9131379810851854
 30
0.0
 11
4529.3482937540638886
 21
457.9210868290696226
 31
0.0
  0
LINE
  5
1DD6D
  8
0
 10
4529.4898894802590803
 20
457.8454261154299729
 30
0.0
 11
4529.4461200707601165
 21
457.8099789383300049
 31
0.0
  0
LINE
  5
1DD6E
  8
0
 10
4529.4669970837603614
 20
457.8471239058300739
 30
0.0
 11
4529.5239313772590322
 21
457.8932283876300744
 31
0.0
  0
LINE
  5
1DD6F
  8
0
 10
4529.4898894802590803
 20
457.8454261154299729
 30
0.0
 11
4529.4770377599907079
 21
457.8552546851216221
 31
0.0
  0
LINE
  5
1DD70
  8
0
 10
4529.5522977956279647
 20
457.8058870349373137
 30
0.0
 11
4529.4856397380663111
 21
457.8419844111460861
 31
0.0
  0
ARC
  5
1DD71
  8
0
 10
4529.5484665611693345
 20
457.8117501452464921
 30
0.0
 40
0.0215920444956209
 50
160.5188336026101013
 51
236.3986036785146894
  0
LINE
  5
1DD72
  8
0
 10
4529.2657377323612309
 20
457.9451161212301145
 30
0.0
 11
4529.2423027077602455
 21
457.9262791824301075
 31
0.0
  0
LINE
  5
1DD73
  8
0
 10
4529.212978175740318
 20
458.0076209875380755
 30
0.0
 11
4529.2352660060596463
 21
457.9932310002300824
 31
0.0
  0
ARC
  5
1DD74
  8
0
 10
4529.0049623838531261
 20
458.4180851498832112
 30
0.0
 40
0.1008881045337663
 50
215.8388593345530921
 51
238.3394493631271018
  0
ARC
  5
1DD75
  8
0
 10
4528.8706488617654031
 20
458.2736014423517759
 30
0.0
 40
0.1002718564688882
 50
35.7688064817917279
 51
58.409502121926387
  0
ARC
  5
1DD76
  8
0
 10
4528.8271683841248887
 20
458.2134393706818969
 30
0.0
 40
0.1244913350339213
 50
38.1103965960987665
 51
56.3041173907786217
  0
ARC
  5
1DD77
  8
0
 10
4528.9962365946639693
 20
458.3960628227574716
 30
0.0
 40
0.1274714043253703
 50
218.3248075094327874
 51
236.0897064774154046
  0
ARC
  5
1DD78
  8
0
 10
4528.9885916136581727
 20
458.3050551985696757
 30
0.0
 40
0.0182692289071026
 50
345.7130978185372783
 51
39.2539486065660483
  0
ARC
  5
1DD79
  8
0
 10
4528.8254995743982363
 20
458.2271583228679219
 30
0.0
 40
0.1324587053344356
 50
69.5565215636431304
 51
79.3547141345118376
  0
ARC
  5
1DD7A
  8
0
 10
4528.6296245481789811
 20
458.4730094524207971
 30
0.0
 40
0.0194265680465609
 50
260.067516450674475
 51
280.6176158432247121
  0
LINE
  5
1DD7B
  8
0
 10
4528.6299670611970214
 20
458.4568766671180242
 30
0.0
 11
4528.6510124809592526
 21
458.4377279157998828
 31
0.0
  0
LINE
  5
1DD7C
  8
0
 10
4529.9375838358373585
 20
457.6244776694061898
 30
0.0
 11
4529.6822869395227826
 21
457.7396247312026958
 31
0.0
  0
ARC
  5
1DD7D
  8
0
 10
4529.945265620718601
 20
457.6426103336964957
 30
0.0
 40
0.0196927228498893
 50
247.0403724156718965
 51
295.2801857020966168
  0
ARC
  5
1DD7E
  8
0
 10
4527.5383049267129536
 20
460.0495640854886119
 30
0.0
 40
0.0196850391517749
 50
154.7126527237062987
 51
202.4766170949750119
  0
LINE
  5
1DD7F
  8
0
 10
4527.5201152491963512
 20
460.0420383696945237
 30
0.0
 11
4527.6353232916990237
 21
459.7865793696341257
 31
0.0
  0
LINE
  5
1DD80
  8
0
 10
4527.5201152491963512
 20
460.0420383696945237
 30
0.0
 11
4529.937583835836449
 21
457.6244776694061898
 31
0.0
  0
LINE
  5
1DD81
  8
0
 10
4530.6176174506927055
 20
460.117811821825228
 30
0.0
 11
4530.5763122470607414
 21
460.1170441511300737
 31
0.0
  0
ARC
  5
1DD82
  8
0
 10
4530.5785914099606089
 20
459.9944117617300776
 30
0.0
 40
0.1226535669999929
 50
91.0647381783862073
 51
171.9126040531049
  0
ARC
  5
1DD83
  8
0
 10
4529.9798112295311512
 20
460.0793170707232775
 30
0.0
 40
0.4821163264235002
 50
341.9330968779922273
 51
351.9337059056418866
  0
LINE
  5
1DD84
  8
0
 10
4530.5425560428602694
 20
459.8254004144300779
 30
0.0
 11
4530.4381568274102392
 21
459.929799629905574
 31
0.0
  0
ARC
  5
1DD85
  8
0
 10
4530.447903954081994
 20
459.7307483256224145
 30
0.0
 40
0.1338582676772994
 50
322.4999999967150757
 51
45.0000000022661197
  0
ARC
  5
1DD86
  8
0
 10
4530.1902425061607573
 20
457.9391913001301191
 30
0.0
 40
0.2362204724000028
 50
307.2780322048027983
 51
2.320184536751428
  0
ARC
  5
1DD87
  8
0
 10
4530.1213954976601599
 20
459.1274392036301037
 30
0.0
 40
0.0393700786999966
 50
349.2705898566715064
 51
44.9999999999953886
  0
ARC
  5
1DD88
  8
0
 10
4529.4107056782995642
 20
457.8949603784042779
 30
0.0
 40
1.016987372136724
 50
3.032102095577712
 51
22.0568092540536895
  0
ARC
  5
1DD89
  8
0
 10
4526.8839550491929913
 20
456.8973200543175039
 30
0.0
 40
3.7335283661485281
 50
21.684891775070561
 51
26.7989707156784398
  0
ARC
  5
1DD8A
  8
0
 10
4531.9169513335737065
 20
458.7194260455344192
 30
0.0
 40
1.8019860622096009
 50
167.1525115357032973
 51
172.5481423700375103
  0
ARC
  5
1DD8B
  8
0
 10
4531.2332374377647284
 20
459.0655114156190848
 30
0.0
 40
1.126459813043273
 50
194.052003467338011
 51
205.4962632986369897
  0
ARC
  5
1DD8C
  8
0
 10
4530.6128740114863831
 20
458.9030988993317806
 30
0.0
 40
0.4852755741000192
 50
174.0822446602853972
 51
193.2341534763330912
  0
LINE
  5
1DD8D
  8
0
 10
4530.5541008578584297
 20
459.6492605753260818
 30
0.0
 11
4530.1638442016601402
 21
459.1406681989299727
 31
0.0
  0
ARC
  5
1DD8E
  8
0
 10
4530.0139847100572297
 20
457.6201967285639967
 30
0.0
 40
0.0393700961994004
 50
224.9703275747565954
 51
290.2926724494935229
  0
ARC
  5
1DD8F
  8
0
 10
4529.6179432675407952
 20
458.6910392634679852
 30
0.0
 40
1.1811023584045981
 50
290.2963325616204884
 51
307.2780322232146091
  0
LINE
  5
1DD90
  8
0
 10
4530.6913904024149815
 20
460.0440388700849894
 30
0.0
 11
4531.0867020676596439
 21
460.439350535230119
 31
0.0
  0
LINE
  5
1DD91
  8
0
 10
4531.058094133256418
 20
460.4679584696264101
 30
0.0
 11
4530.6627824682072969
 21
460.0726468045781985
 31
0.0
  0
LINE
  5
1DD92
  8
0
 10
4531.0656941463830663
 20
460.4603584565023766
 30
0.0
 11
4530.6703824813348547
 21
460.0650467914541082
 31
0.0
  0
LINE
  5
1DD93
  8
0
 10
4531.0695118396570251
 20
460.4565407632763936
 30
0.0
 11
4530.674200174607904
 21
460.0612290982281252
 31
0.0
  0
LINE
  5
1DD94
  8
0
 10
4531.0758021150568311
 20
460.4502504878265086
 30
0.0
 11
4530.68049045000771
 21
460.0549388227781833
 31
0.0
  0
LINE
  5
1DD95
  8
0
 10
4531.0790286685560204
 20
460.4470239343264097
 30
0.0
 11
4530.6837170035078088
 21
460.0517122692781982
 31
0.0
  0
LINE
  5
1DD96
  8
0
 10
4531.0821089183564254
 20
460.4439436845265163
 30
0.0
 11
4530.6867972533082138
 21
460.0486320194780774
 31
0.0
  0
LINE
  5
1DD97
  8
0
 10
4531.0847787092852741
 20
460.4412738936048868
 30
0.0
 11
4530.689467044236153
 21
460.0459622285566184
 31
0.0
  0
ARC
  5
1DD98
  8
0
 10
4535.1072429633595675
 20
461.6671183714299787
 30
0.0
 40
0.0787401574998087
 50
179.9999999999836859
 51
194.561580067224412
  0
ARC
  5
1DD99
  8
0
 10
4535.2943594987500546
 20
461.0913309701381877
 30
0.0
 40
0.0590551184081401
 50
205.1511027378253118
 51
269.9999999130802166
  0
ARC
  5
1DD9A
  8
0
 10
4538.2699938388414012
 20
462.4886889700508732
 30
0.0
 40
3.3464566918515288
 50
194.5615800725292956
 51
205.1546873812798992
  0
LINE
  5
1DD9B
  8
0
 10
4535.2943594987500546
 20
461.0322758517301054
 30
0.0
 11
4535.4733846956596608
 21
461.0322758517301054
 31
0.0
  0
LINE
  5
1DD9C
  8
0
 10
4530.5670557990060843
 20
460.9589968038256984
 30
0.0
 11
4530.1717441339578727
 21
460.5636851387774868
 31
0.0
  0
LINE
  5
1DD9D
  8
0
 10
4530.5783949407559703
 20
460.9476576622265043
 30
0.0
 11
4530.1830832757086682
 21
460.552345997178179
 31
0.0
  0
LINE
  5
1DD9E
  8
0
 10
4530.5879351670027972
 20
460.9381174358230737
 30
0.0
 11
4530.1926235019564047
 21
460.5428057707748053
 31
0.0
  0
LINE
  5
1DD9F
  8
0
 10
4530.5935792504069468
 20
460.9324733525264151
 30
0.0
 11
4530.1982675853578257
 21
460.5371616874782035
 31
0.0
  0
LINE
  5
1DDA0
  8
0
 10
4530.602817622200746
 20
460.9232349806212028
 30
0.0
 11
4530.2075059571534439
 21
460.5279233155728775
 31
0.0
  0
LINE
  5
1DDA1
  8
0
 10
4530.6145487420144491
 20
460.9115038609331805
 30
0.0
 11
4530.219237076965328
 21
460.5161921958849121
 31
0.0
  0
LINE
  5
1DDA2
  8
0
 10
4530.6234800478559919
 20
460.9025725550264951
 30
0.0
 11
4530.2281683828077803
 21
460.507260889978113
 31
0.0
  0
LINE
  5
1DDA3
  8
0
 10
4530.6303556622569886
 20
460.8956969407265092
 30
0.0
 11
4530.2350439972078675
 21
460.5003852756781839
 31
0.0
  0
LINE
  5
1DDA4
  8
0
 10
4530.6398437305970219
 20
460.886208872216514
 30
0.0
 11
4530.2445320655479009
 21
460.4908972071681887
 31
0.0
  0
LINE
  5
1DDA5
  8
0
 10
4530.6508129399180689
 20
460.875239663037803
 30
0.0
 11
4530.2555012748689478
 21
460.4799279979894777
 31
0.0
  0
LINE
  5
1DDA6
  8
0
 10
4530.6599352882567473
 20
460.8661173146264218
 30
0.0
 11
4530.2646236232076262
 21
460.4708056495780966
 31
0.0
  0
LINE
  5
1DDA7
  8
0
 10
4530.6679708151568775
 20
460.8580817878265066
 30
0.0
 11
4530.2726591501077564
 21
460.4627701227781813
 31
0.0
  0
LINE
  5
1DDA8
  8
0
 10
4530.6776097495212525
 20
460.8484428534412132
 30
0.0
 11
4530.2822980844730409
 21
460.4531311883928879
 31
0.0
  0
LINE
  5
1DDA9
  8
0
 10
4530.6877027896571235
 20
460.8383498132765226
 30
0.0
 11
4530.2923911246080024
 21
460.4430381482281973
 31
0.0
  0
LINE
  5
1DDAA
  8
0
 10
4530.6969211593559521
 20
460.8291314435264212
 30
0.0
 11
4530.3016094943077405
 21
460.4338197784782096
 31
0.0
  0
LINE
  5
1DDAB
  8
0
 10
4530.7060328982252031
 20
460.8200197047448228
 30
0.0
 11
4530.3107212331769915
 21
460.4247080396964975
 31
0.0
  0
LINE
  5
1DDAC
  8
0
 10
4530.7157222964569883
 20
460.8103303064764873
 30
0.0
 11
4530.3204106314087767
 21
460.4150186414281052
 31
0.0
  0
LINE
  5
1DDAD
  8
0
 10
4530.7248340352571176
 20
460.8012185676265062
 30
0.0
 11
4530.3295223702079966
 21
460.405906902578181
 31
0.0
  0
LINE
  5
1DDAE
  8
0
 10
4530.734052405006878
 20
460.7920001979264271
 30
0.0
 11
4530.3387407399586664
 21
460.3966885328782155
 31
0.0
  0
LINE
  5
1DDAF
  8
0
 10
4530.7441454450827223
 20
460.7819071577033014
 30
0.0
 11
4530.3488337800354202
 21
460.3865954926550899
 31
0.0
  0
LINE
  5
1DDB0
  8
0
 10
4530.753784379507124
 20
460.7722682233764999
 30
0.0
 11
4530.3584727144580029
 21
460.3769565583281747
 31
0.0
  0
LINE
  5
1DDB1
  8
0
 10
4530.7618199063563225
 20
460.7642326965263919
 30
0.0
 11
4530.3665082413081109
 21
460.3689210314781803
 31
0.0
  0
LINE
  5
1DDB2
  8
0
 10
4530.7709422547568465
 20
460.7551103481765153
 30
0.0
 11
4530.3756305897077254
 21
460.3597986831281901
 31
0.0
  0
LINE
  5
1DDB3
  8
0
 10
4530.7819114640060434
 20
460.7441411389265227
 30
0.0
 11
4530.3865997989578318
 21
460.3488294738781974
 31
0.0
  0
LINE
  5
1DDB4
  8
0
 10
4530.7913995323779091
 20
460.7346530703973144
 30
0.0
 11
4530.396087867328788
 21
460.3393414053491028
 31
0.0
  0
LINE
  5
1DDB5
  8
0
 10
4530.7982751467561684
 20
460.7277774561263755
 30
0.0
 11
4530.4029634817088663
 21
460.3324657910782207
 31
0.0
  0
LINE
  5
1DDB6
  8
0
 10
4530.8072064526559188
 20
460.7188461502764198
 30
0.0
 11
4530.4118947876077073
 21
460.3235344852282083
 31
0.0
  0
LINE
  5
1DDB7
  8
0
 10
4530.8189375724396086
 20
460.7071150305590095
 30
0.0
 11
4530.423625907391397
 21
460.3118033655107979
 31
0.0
  0
LINE
  5
1DDB8
  8
0
 10
4530.8281759442570547
 20
460.6978766586764209
 30
0.0
 11
4530.4328642792079336
 21
460.3025649936282093
 31
0.0
  0
LINE
  5
1DDB9
  8
0
 10
4530.8338200276402858
 20
460.6922325753608902
 30
0.0
 11
4530.4385083625929838
 21
460.2969209103126218
 31
0.0
  0
LINE
  5
1DDBA
  8
0
 10
4530.8433602538461855
 20
460.6826923489157934
 30
0.0
 11
4530.4480485887997929
 21
460.2873806839226063
 31
0.0
  0
LINE
  5
1DDBB
  8
0
 10
4530.8546993956442748
 20
460.6713532073634951
 30
0.0
 11
4530.4593877305951537
 21
460.2760415423152836
 31
0.0
  0
LINE
  5
1DDBD
  8
0
 10
4529.3684175001599215
 20
457.9342203196301284
 30
0.0
 11
4529.3756989155599513
 21
457.9432790912301243
 31
0.0
  0
LINE
  5
1DDBE
  8
0
 10
4529.0326388498597225
 20
458.0692208406301233
 30
0.0
 11
4529.0539312517175858
 21
458.0864630876966999
 31
0.0
  0
ENDSEC
  0
EOF
