  0
SECTION
  2
HEADER
  9
$ACADVER
  1
AC1009
  9
$INSBASE
 10
124.5994055577940003
 20
-86.2455948814135951
 30
0.0
  9
$EXTMIN
 10
123.4559522839581973
 20
-88.3990453225856072
 30
-0.0000000349181948
  9
$EXTMAX
 10
125.7488179136386037
 20
-86.2382103987027335
 30
0.0000000814935746
  9
$LIMMIN
 10
0.0
 20
0.0
  9
$LIMMAX
 10
11.6929133858000007
 20
8.2677165353999982
  9
$ORTHOMODE
 70
     1
  9
$REGENMODE
 70
     1
  9
$FILLMODE
 70
     1
  9
$QTEXTMODE
 70
     0
  9
$MIRRTEXT
 70
     0
  9
$DRAGMODE
 70
     2
  9
$LTSCALE
 40
0.6431102362
  9
$OSMODE
 70
  4095
  9
$ATTMODE
 70
     1
  9
$TEXTSIZE
 40
0.2
  9
$TRACEWID
 40
0.05
  9
$TEXTSTYLE
  7
STANDARD
  9
$CLAYER
  8
0
  9
$CELTYPE
  6
BYLAYER
  9
$CECOLOR
 62
   256
  9
$DIMSCALE
 40
1.0
  9
$DIMASZ
 40
0.1875
  9
$DIMEXO
 40
0.0625
  9
$DIMDLI
 40
0.4443307087
  9
$DIMRND
 40
0.0
  9
$DIMDLE
 40
0.0
  9
$DIMEXE
 40
0.125
  9
$DIMTP
 40
0.01
  9
$DIMTM
 40
0.01
  9
$DIMTXT
 40
1.0
  9
$DIMCEN
 40
0.1052362205
  9
$DIMTSZ
 40
0.0
  9
$DIMTOL
 70
     1
  9
$DIMLIM
 70
     0
  9
$DIMTIH
 70
     1
  9
$DIMTOH
 70
     1
  9
$DIMSE1
 70
     0
  9
$DIMSE2
 70
     0
  9
$DIMTAD
 70
     0
  9
$DIMZIN
 70
     0
  9
$DIMBLK
  1

  9
$DIMASO
 70
     1
  9
$DIMSHO
 70
     1
  9
$DIMPOST
  1
\X
  9
$DIMAPOST
  1

  9
$DIMALT
 70
     1
  9
$DIMALTD
 70
     2
  9
$DIMALTF
 40
25.3999999999999986
  9
$DIMLFAC
 40
1.0
  9
$DIMTOFL
 70
     0
  9
$DIMTVP
 40
0.0
  9
$DIMTIX
 70
     0
  9
$DIMSOXD
 70
     0
  9
$DIMSAH
 70
     0
  9
$DIMBLK1
  1

  9
$DIMBLK2
  1

  9
$DIMSTYLE
  2
STANDARD
  9
$DIMCLRD
 70
     0
  9
$DIMCLRE
 70
     0
  9
$DIMCLRT
 70
     0
  9
$DIMTFAC
 40
1.0
  9
$DIMGAP
 40
0.09
  9
$LUNITS
 70
     2
  9
$LUPREC
 70
     4
  9
$SKETCHINC
 40
0.1
  9
$FILLETRAD
 40
0.0
  9
$AUNITS
 70
     0
  9
$AUPREC
 70
     0
  9
$MENU
  1
.
  9
$ELEVATION
 40
0.0
  9
$PELEVATION
 40
0.0
  9
$THICKNESS
 40
0.0
  9
$LIMCHECK
 70
     0
  9
$BLIPMODE
 70
     0
  9
$CHAMFERA
 40
0.0
  9
$CHAMFERB
 40
0.0
  9
$SKPOLY
 70
     0
  9
$TDCREATE
 40
2458172.4620254631154239
  9
$TDUPDATE
 40
2459072.7521643522195518
  9
$TDINDWG
 40
0.1294503819
  9
$TDUSRTIMER
 40
0.1294503819
  9
$USRTIMER
 70
     1
  9
$ANGBASE
 50
0.0
  9
$ANGDIR
 70
     0
  9
$PDMODE
 70
     0
  9
$PDSIZE
 40
0.3125
  9
$PLINEWID
 40
0.0
  9
$COORDS
 70
     1
  9
$SPLFRAME
 70
     0
  9
$SPLINETYPE
 70
     6
  9
$SPLINESEGS
 70
     8
  9
$ATTDIA
 70
     1
  9
$ATTREQ
 70
     1
  9
$HANDLING
 70
     1
  9
$HANDSEED
  5
7490
  9
$SURFTAB1
 70
     6
  9
$SURFTAB2
 70
     6
  9
$SURFTYPE
 70
     6
  9
$SURFU
 70
     6
  9
$SURFV
 70
     6
  9
$UCSNAME
  2

  9
$UCSORG
 10
0.0
 20
0.0
 30
0.0
  9
$UCSXDIR
 10
1.0
 20
0.0
 30
0.0
  9
$UCSYDIR
 10
0.0
 20
1.0
 30
0.0
  9
$PUCSNAME
  2

  9
$PUCSORG
 10
0.0
 20
0.0
 30
0.0
  9
$PUCSXDIR
 10
1.0
 20
0.0
 30
0.0
  9
$PUCSYDIR
 10
0.0
 20
1.0
 30
0.0
  9
$USERI1
 70
     0
  9
$USERI2
 70
     0
  9
$USERI3
 70
     0
  9
$USERI4
 70
     0
  9
$USERI5
 70
     0
  9
$USERR1
 40
0.0
  9
$USERR2
 40
0.0
  9
$USERR3
 40
0.0
  9
$USERR4
 40
0.0
  9
$USERR5
 40
0.0
  9
$WORLDVIEW
 70
     1
  9
$SHADEDGE
 70
     3
  9
$SHADEDIF
 70
    70
  9
$TILEMODE
 70
     1
  9
$MAXACTVP
 70
    64
  9
$PLIMCHECK
 70
     0
  9
$PEXTMIN
 10
1.0000000000000000E+20
 20
1.0000000000000000E+20
 30
1.0000000000000000E+20
  9
$PEXTMAX
 10
-1.0000000000000000E+20
 20
-1.0000000000000000E+20
 30
-1.0000000000000000E+20
  9
$PLIMMIN
 10
0.0
 20
0.0
  9
$PLIMMAX
 10
12.0
 20
9.0
  9
$UNITMODE
 70
     0
  9
$VISRETAIN
 70
     1
  9
$PLINEGEN
 70
     0
  9
$PSLTSCALE
 70
     1
  0
ENDSEC
  0
SECTION
  2
TABLES
  0
TABLE
  2
VPORT
 70
     1
  0
VPORT
  2
*ACTIVE
 70
     0
 10
0.0
 20
0.0
 11
1.0
 21
1.0
 12
-0.0087735012741776
 22
-92.6309020310219893
 13
0.0
 23
0.0
 14
1.0
 24
1.0
 15
0.0
 25
0.0
 16
0.0
 26
0.0
 36
30.6214257250603907
 17
124.6111586000725993
 27
5.3122741703778242
 37
0.0
 40
2.1788169066059022
 41
2.6486111111111108
 42
50.0
 43
0.0
 44
0.0
 50
0.0
 51
0.0
 71
     0
 72
   100
 73
     1
 74
     1
 75
     0
 76
     0
 77
     0
 78
     0
  0
ENDTAB
  0
TABLE
  2
LTYPE
 70
     2
  0
LTYPE
  2
CONTINUOUS
 70
     0
  3
Solid line
 72
    65
 73
     0
 40
0.0
  0
LTYPE
  2
PHANTOM2
 70
     0
  3
___ _ _ ___ _ _ ___ _ _ ___ _ _
 72
    65
 73
     6
 40
1.25
 49
0.625
 49
-0.125
 49
0.125
 49
-0.125
 49
0.125
 49
-0.125
  0
ENDTAB
  0
TABLE
  2
LAYER
 70
     2
  0
LAYER
  2
0
 70
     0
 62
   255
  6
CONTINUOUS
  0
LAYER
  2
DEFPOINTS
 70
     0
 62
     7
  6
CONTINUOUS
  0
ENDTAB
  0
TABLE
  2
STYLE
 70
     1
  0
STYLE
  2
STANDARD
 70
     0
 40
0.0
 41
0.8
 50
0.0
 71
     0
 42
0.2
  3
txt
  4

  0
ENDTAB
  0
TABLE
  2
VIEW
 70
     0
  0
ENDTAB
  0
TABLE
  2
UCS
 70
     0
  0
ENDTAB
  0
TABLE
  2
APPID
 70
     9
  0
APPID
  2
ACAD
 70
     0
  0
APPID
  2
ACAD_MLEADERVER
 70
     0
  0
APPID
  2
ACAD_EXEMPT_FROM_CAD_STANDARDS
 70
     0
  0
APPID
  2
ACAD_DSTYLE_DIMJAG
 70
     0
  0
APPID
  2
ACAD_DSTYLE_DIMTALN
 70
     0
  0
APPID
  2
ACAD_NAV_VCDISPLAY
 70
     0
  0
APPID
  2
ACAECLAYERSTANDARD
 70
     0
  0
APPID
  2
ACCMTRANSPARENCY
 70
     0
  0
APPID
  2
ACDBATTR
 70
     0
  0
ENDTAB
  0
TABLE
  2
DIMSTYLE
 70
     1
  0
DIMSTYLE
  2
STANDARD
 70
     0
  3

  4

  5

  6

  7

 40
1.0
 41
0.1875
 42
0.0625
 43
0.38
 44
0.125
 45
0.0
 46
0.0
 47
0.01
 48
0.01
140
0.15625
141
0.09
142
0.0
143
25.3999999999999986
144
1.0
145
0.0
146
1.0
147
0.09
 71
     1
 72
     0
 73
     1
 74
     1
 75
     0
 76
     0
 77
     0
 78
     4
170
     0
171
     2
172
     0
173
     0
174
     0
175
     0
176
     0
177
     0
178
     0
  0
ENDTAB
  0
ENDSEC
  0
SECTION
  2
BLOCKS
  0
BLOCK
  8
0
  2
$MODEL_SPACE
 70
     0
 10
0.0
 20
0.0
 30
0.0
  3
$MODEL_SPACE
  1

  0
ENDBLK
  5
21
  8
0
  0
BLOCK
 67
     1
  8
0
  2
$PAPER_SPACE
 70
     0
 10
0.0
 20
0.0
 30
0.0
  3
$PAPER_SPACE
  1

  0
ENDBLK
  5
1D
 67
     1
  8
0
  0
BLOCK
  8
0
  2
_FILLED
 70
     0
 10
0.0
 20
0.0
 30
0.0
  3
_FILLED
  1

  0
SOLID
  5
6001
  8
0
  6
BYBLOCK
 62
     0
 10
0.0
 20
0.0
 30
0.0
 11
-1.0
 21
0.1666666667
 31
0.0
 12
-1.0
 22
-0.1666666667
 32
0.0
 13
-1.0
 23
-0.1666666667
 33
0.0
  0
ENDBLK
  5
6002
  8
0
  6
BYBLOCK
 62
     0
  0
ENDSEC
  0
SECTION
  2
ENTITIES
  0
ATTDEF
  5
56D7
  8
DEFPOINTS
 10
124.5996871983700061
 20
-86.2419801073615986
 30
0.0
 40
0.001
  1
K-16381IN
  3

  2
MODELNUMBER
 70
     0
1001
ACDBATTR
1070
     0
1070
     1
  0
ATTDEF
  5
56D8
  8
DEFPOINTS
 10
124.5996871983700061
 20
-86.2436467740282637
 30
0.0
 40
0.001
  1

  3

  2
TRADENAME
 70
     0
1001
ACDBATTR
1070
     0
1070
     1
  0
ATTDEF
  5
56D9
  8
DEFPOINTS
 10
124.5996871983700061
 20
-86.2453134406949289
 30
0.0
 40
0.001
  1
SUPPLY ELBOW
  3

  2
PRODUCT
 70
     0
1001
ACDBATTR
1070
     0
1070
     1
  0
LINE
  5
70E5
  8
0
 10
125.7411331017940057
 20
-86.2455948814135951
 30
0.0
 11
123.4576780137939949
 21
-86.2455948814135951
 31
0.0
  0
LINE
  5
70E6
  8
0
 10
123.4576780137939949
 20
-86.2455948814135951
 30
0.0
 11
123.4576780137939949
 21
-86.29895156613361
 31
0.0
  0
ARC
  5
70E7
  8
0
 10
123.5364302510484009
 20
-86.29895156613361
 30
0.0
 40
0.0787522372544274
 50
180.0
 51
216.3724001348047921
  0
ARC
  5
70E8
  8
0
 10
124.4236286148081945
 20
-85.645511957463313
 30
0.0
 40
1.1806162301488321
 50
216.3724001348047921
 51
244.4087178150022908
  0
ARC
  5
70E9
  8
0
 10
123.9476907177998015
 20
-86.6392589791233974
 30
0.0
 40
0.0787768476311195
 50
244.4087178150022908
 51
269.9939379498891867
  0
LINE
  5
70EA
  8
0
 10
123.9104429747939946
 20
-86.7180358263135957
 30
0.0
 11
125.2883776196940033
 21
-86.7180358263135957
 31
0.0
  0
LINE
  5
70EB
  8
0
 10
125.2883776196940033
 20
-86.7180358263135957
 30
0.0
 11
125.2883819356943036
 21
-88.0764303353482632
 31
0.0
  0
ARC
  5
70EC
  8
0
 10
125.3472076258841952
 20
-88.0766497609491665
 30
0.0
 40
0.058826099427982
 50
179.786282107334614
 51
267.7624119611987794
  0
LINE
  5
70ED
  8
0
 10
123.8539097328949055
 20
-88.1354310065950557
 30
0.0
 11
125.3449108596939965
 21
-88.1354310065135991
 31
0.0
  0
ARC
  5
70EE
  8
0
 10
125.3415362815150047
 20
-88.2140988183678445
 30
0.0
 40
0.0787401574790135
 50
285.3950908774011737
 51
87.5437142754407915
  0
ARC
  5
70EF
  8
0
 10
124.5994102971939981
 20
-85.5189254766230817
 30
0.0
 40
2.8742204952127568
 50
254.6049091225987979
 51
285.3950908774011737
  0
ARC
  5
70F0
  8
0
 10
123.8572843128723946
 20
-88.2140988183699477
 30
0.0
 40
0.0787401574768193
 50
92.4562870345448715
 51
254.6049091225987979
  0
ARC
  5
70F1
  8
0
 10
123.8513787977650935
 20
-88.0764301443457356
 30
0.0
 40
0.059055121528902
 50
272.4562870345433225
 51
359.9999967324848171
  0
LINE
  5
70F2
  8
0
 10
123.9104339192939932
 20
-88.0764301477135945
 30
0.0
 11
123.9104339967616966
 21
-86.7180358262833977
 31
0.0
  0
LINE
  5
70F3
  8
0
 10
125.7411425806940031
 20
-86.2455948814135951
 30
0.0
 11
125.7411425806940031
 21
-86.2989555345135955
 31
0.0
  0
ARC
  5
70F4
  8
0
 10
125.6624024226275935
 20
-86.2989555345135955
 30
0.0
 40
0.0787401580664164
 50
323.624712469587223
 51
0.0
  0
ARC
  5
70F5
  8
0
 10
124.7750353523163938
 20
-85.645322690929774
 30
0.0
 40
1.1808545857389869
 50
295.5941695731395953
 51
323.624712469587223
  0
ARC
  5
70F6
  8
0
 10
125.2511338475125058
 20
-86.6392764589046465
 30
0.0
 40
0.0787593675298529
 50
270.0031747044972121
 51
295.5941695731389132
  0
LINE
  5
70F7
  8
0
 10
123.4576780137939949
 20
-86.29895156613361
 30
0.0
 11
125.7411425806940031
 21
-86.29895156613361
 31
0.0
  0
LINE
  5
70F8
  8
0
 10
123.8363808865696996
 20
-88.2900136336135972
 30
0.0
 11
125.3624397079181989
 21
-88.2900136336135972
 31
0.0
  0
ENDSEC
  0
EOF
