  0
SECTION
  2
HEADER
  9
$ACADVER
  1
AC1009
  9
$INSBASE
 10
4528.3426869268351
 20
392.27361172152388
 30
0.0
  9
$EXTMIN
 10
4523.0841476389478
 20
384.91485658650691
 30
-0.0000000000000058
  9
$EXTMAX
 10
4533.4268757020573
 20
393.36652475628489
 30
0.0000000000000104
  9
$LIMMIN
 10
0.0
 20
0.0
  9
$LIMMAX
 10
11.692913385800001
 20
8.2677165353999982
  9
$ORTHOMODE
 70
     0
  9
$REGENMODE
 70
     1
  9
$FILLMODE
 70
     1
  9
$QTEXTMODE
 70
     0
  9
$MIRRTEXT
 70
     0
  9
$DRAGMODE
 70
     2
  9
$LTSCALE
 40
0.6431102362
  9
$OSMODE
 70
    19
  9
$ATTMODE
 70
     1
  9
$TEXTSIZE
 40
0.2
  9
$TRACEWID
 40
0.05
  9
$TEXTSTYLE
  7
STANDARD
  9
$CLAYER
  8
0
  9
$CELTYPE
  6
BYLAYER
  9
$CECOLOR
 62
   256
  9
$DIMSCALE
 40
1.0
  9
$DIMASZ
 40
0.1875
  9
$DIMEXO
 40
0.0625
  9
$DIMDLI
 40
0.4443307087
  9
$DIMRND
 40
0.0
  9
$DIMDLE
 40
0.0
  9
$DIMEXE
 40
0.125
  9
$DIMTP
 40
0.01
  9
$DIMTM
 40
0.01
  9
$DIMTXT
 40
2.0
  9
$DIMCEN
 40
0.1052362205
  9
$DIMTSZ
 40
0.0
  9
$DIMTOL
 70
     1
  9
$DIMLIM
 70
     0
  9
$DIMTIH
 70
     1
  9
$DIMTOH
 70
     1
  9
$DIMSE1
 70
     0
  9
$DIMSE2
 70
     0
  9
$DIMTAD
 70
     0
  9
$DIMZIN
 70
     0
  9
$DIMBLK
  1

  9
$DIMASO
 70
     1
  9
$DIMSHO
 70
     1
  9
$DIMPOST
  1
\X
  9
$DIMAPOST
  1

  9
$DIMALT
 70
     1
  9
$DIMALTD
 70
     2
  9
$DIMALTF
 40
25.399999999999999
  9
$DIMLFAC
 40
1.0
  9
$DIMTOFL
 70
     0
  9
$DIMTVP
 40
0.0
  9
$DIMTIX
 70
     0
  9
$DIMSOXD
 70
     0
  9
$DIMSAH
 70
     0
  9
$DIMBLK1
  1

  9
$DIMBLK2
  1

  9
$DIMSTYLE
  2
STANDARD
  9
$DIMCLRD
 70
     0
  9
$DIMCLRE
 70
     0
  9
$DIMCLRT
 70
     0
  9
$DIMTFAC
 40
1.0
  9
$DIMGAP
 40
0.09
  9
$LUNITS
 70
     2
  9
$LUPREC
 70
     4
  9
$SKETCHINC
 40
0.1
  9
$FILLETRAD
 40
0.0
  9
$AUNITS
 70
     0
  9
$AUPREC
 70
     0
  9
$MENU
  1
.
  9
$ELEVATION
 40
0.0
  9
$PELEVATION
 40
0.0
  9
$THICKNESS
 40
0.0
  9
$LIMCHECK
 70
     0
  9
$BLIPMODE
 70
     0
  9
$CHAMFERA
 40
0.0
  9
$CHAMFERB
 40
0.0
  9
$SKPOLY
 70
     0
  9
$TDCREATE
 40
2458060.4683680669
  9
$TDUPDATE
 40
2459200.7968581952
  9
$TDINDWG
 40
1.1531299189999999
  9
$TDUSRTIMER
 40
1.1531299189999999
  9
$USRTIMER
 70
     1
  9
$ANGBASE
 50
0.0
  9
$ANGDIR
 70
     0
  9
$PDMODE
 70
     0
  9
$PDSIZE
 40
0.3125
  9
$PLINEWID
 40
0.0
  9
$COORDS
 70
     1
  9
$SPLFRAME
 70
     0
  9
$SPLINETYPE
 70
     6
  9
$SPLINESEGS
 70
     8
  9
$ATTDIA
 70
     1
  9
$ATTREQ
 70
     1
  9
$HANDLING
 70
     1
  9
$HANDSEED
  5
18999
  9
$SURFTAB1
 70
     6
  9
$SURFTAB2
 70
     6
  9
$SURFTYPE
 70
     6
  9
$SURFU
 70
     6
  9
$SURFV
 70
     6
  9
$UCSNAME
  2

  9
$UCSORG
 10
0.0
 20
0.0
 30
0.0
  9
$UCSXDIR
 10
1.0
 20
0.0
 30
0.0
  9
$UCSYDIR
 10
0.0
 20
1.0
 30
0.0
  9
$PUCSNAME
  2

  9
$PUCSORG
 10
0.0
 20
0.0
 30
0.0
  9
$PUCSXDIR
 10
1.0
 20
0.0
 30
0.0
  9
$PUCSYDIR
 10
0.0
 20
1.0
 30
0.0
  9
$USERI1
 70
     0
  9
$USERI2
 70
     0
  9
$USERI3
 70
     0
  9
$USERI4
 70
     0
  9
$USERI5
 70
     0
  9
$USERR1
 40
0.0
  9
$USERR2
 40
0.0
  9
$USERR3
 40
0.0
  9
$USERR4
 40
0.0
  9
$USERR5
 40
0.0
  9
$WORLDVIEW
 70
     1
  9
$SHADEDGE
 70
     3
  9
$SHADEDIF
 70
    70
  9
$TILEMODE
 70
     1
  9
$MAXACTVP
 70
    64
  9
$PLIMCHECK
 70
     0
  9
$PEXTMIN
 10
1.0000000000000000E+020
 20
1.0000000000000000E+020
 30
1.0000000000000000E+020
  9
$PEXTMAX
 10
-1.0000000000000000E+020
 20
-1.0000000000000000E+020
 30
-1.0000000000000000E+020
  9
$PLIMMIN
 10
0.0
 20
0.0
  9
$PLIMMAX
 10
12.0
 20
9.0
  9
$UNITMODE
 70
     0
  9
$VISRETAIN
 70
     1
  9
$PLINEGEN
 70
     0
  9
$PSLTSCALE
 70
     1
  0
ENDSEC
  0
SECTION
  2
TABLES
  0
TABLE
  2
VPORT
 70
     1
  0
VPORT
  2
*ACTIVE
 70
     0
 10
0.0
 20
0.0
 11
1.0
 21
1.0
 12
616.89015522519003
 22
256.56108556885681
 13
0.0
 23
0.0
 14
1.0
 24
1.0
 15
0.0
 25
0.0
 16
0.0
 26
0.0
 36
60.496018696580158
 17
3911.365356445312
 27
132.57960510253901
 37
0.0
 40
8.5395538006596325
 41
2.3628472222222219
 42
50.0
 43
0.0
 44
0.0
 50
0.0
 51
0.0
 71
     0
 72
   100
 73
     1
 74
     1
 75
     0
 76
     0
 77
     0
 78
     0
  0
ENDTAB
  0
TABLE
  2
LTYPE
 70
     2
  0
LTYPE
  2
CONTINUOUS
 70
     0
  3
Solid line
 72
    65
 73
     0
 40
0.0
  0
LTYPE
  2
PHANTOM2
 70
     0
  3
___ _ _ ___ _ _ ___ _ _ ___ _ _
 72
    65
 73
     6
 40
1.25
 49
0.625
 49
-0.125
 49
0.125
 49
-0.125
 49
0.125
 49
-0.125
  0
ENDTAB
  0
TABLE
  2
LAYER
 70
     2
  0
LAYER
  2
0
 70
     0
 62
   255
  6
CONTINUOUS
  0
LAYER
  2
DEFPOINTS
 70
     0
 62
     7
  6
CONTINUOUS
  0
ENDTAB
  0
TABLE
  2
STYLE
 70
     1
  0
STYLE
  2
STANDARD
 70
     0
 40
0.0
 41
0.8
 50
0.0
 71
     0
 42
0.2
  3
txt
  4

  0
ENDTAB
  0
TABLE
  2
VIEW
 70
     0
  0
ENDTAB
  0
TABLE
  2
UCS
 70
     0
  0
ENDTAB
  0
TABLE
  2
APPID
 70
    11
  0
APPID
  2
ACAD
 70
     0
  0
APPID
  2
ACAD_MLEADERVER
 70
     0
  0
APPID
  2
ACAD_EXEMPT_FROM_CAD_STANDARDS
 70
     0
  0
APPID
  2
ACAD_NAV_VCDISPLAY
 70
     0
  0
APPID
  2
ACAECLAYERSTANDARD
 70
     0
  0
APPID
  2
ACCMTRANSPARENCY
 70
     0
  0
APPID
  2
ACAD_DSTYLE_DIMJAG
 70
     0
  0
APPID
  2
ACAD_DSTYLE_DIMTALN
 70
     0
  0
APPID
  2
ACDBATTR
 70
     0
  0
APPID
  2
ACADANNOTATIVE
 70
     0
  0
APPID
  2
DCO15
 70
     0
  0
ENDTAB
  0
TABLE
  2
DIMSTYLE
 70
     1
  0
DIMSTYLE
  2
STANDARD
 70
     0
  3

  4

  5

  6

  7

 40
1.0
 41
0.1875
 42
0.0625
 43
0.38
 44
0.125
 45
0.0
 46
0.0
 47
0.01
 48
0.01
140
0.15625
141
0.09
142
0.0
143
25.399999999999999
144
1.0
145
0.0
146
1.0
147
0.09
 71
     1
 72
     0
 73
     1
 74
     1
 75
     0
 76
     0
 77
     0
 78
     4
170
     0
171
     2
172
     0
173
     0
174
     0
175
     0
176
     0
177
     0
178
     0
  0
ENDTAB
  0
ENDSEC
  0
SECTION
  2
BLOCKS
  0
BLOCK
  8
0
  2
$MODEL_SPACE
 70
     0
 10
0.0
 20
0.0
 30
0.0
  3
$MODEL_SPACE
  1

  0
ENDBLK
  5
21
  8
0
  0
BLOCK
 67
     1
  8
0
  2
$PAPER_SPACE
 70
     0
 10
0.0
 20
0.0
 30
0.0
  3
$PAPER_SPACE
  1

  0
ENDBLK
  5
1D
 67
     1
  8
0
  0
ENDSEC
  0
SECTION
  2
ENTITIES
  0
ATTDEF
  5
159BF
  8
DEFPOINTS
 10
4528.3426880853694
 20
392.27695292015142
 30
0.0
 40
0.001
  1
K-16390IN
  3

  2
MODELNUMBER
 70
     0
1001
ACDBATTR
1070
     0
1070
     1
  0
ATTDEF
  5
159C0
  8
DEFPOINTS
 10
4528.3425622757122
 20
392.27528607977217
 30
0.0
 40
0.001
  1
ELEVATION
  3

  2
TRADENAME
 70
     0
1001
ACDBATTR
1070
     0
1070
     1
  0
ATTDEF
  5
159C1
  8
DEFPOINTS
 10
4528.3426880853694
 20
392.27361958681809
 30
0.0
 40
0.001
  1
FAUCET
  3

  2
PRODUCT
 70
     0
1001
ACDBATTR
1070
     0
1070
     1
  0
CIRCLE
  5
18898
  8
0
 10
4524.3466239346353
 20
392.27361172152388
 30
0.0
 40
0.8278867138999999
  0
CIRCLE
  5
18899
  8
0
 10
4524.3466239346853
 20
392.27361172157401
 30
0.0
 40
1.003937007849999
  0
ARC
  5
1889A
  8
0
 10
4524.3466239346353
 20
392.27361172152388
 30
0.0
 40
0.6310979367000013
 50
13.55327288679878
 51
166.44672680180369
  0
ARC
  5
1889B
  8
0
 10
4524.3466239346353
 20
392.27361172152388
 30
0.0
 40
0.6310979367000013
 50
193.55327288689369
 51
346.44672680189882
  0
ARC
  5
1889C
  8
0
 10
4523.6165099904701
 20
392.45009500241628
 30
0.0
 40
0.1200437716485508
 50
284.4135726554278
 51
346.22387275314748
  0
ARC
  5
1889D
  8
0
 10
4523.6165069914168
 20
392.097126618407
 30
0.0
 40
0.120047118373566
 50
13.77663271859323
 51
75.58525766387163
  0
ARC
  5
1889E
  8
0
 10
4524.3066971792668
 20
392.27361404241663
 30
0.0
 40
0.7013691570713841
 50
175.9152698978765
 51
184.0849089635299
  0
LINE
  5
1889F
  8
0
 10
4523.6071096385213
 20
392.3235736993858
 30
0.0
 11
4523.6463912051349
 21
392.3338297018239
 31
0.0
  0
LINE
  5
188A0
  8
0
 10
4523.6071097944841
 20
392.2236522015308
 30
0.0
 11
4523.6463914127353
 21
392.21339455032393
 31
0.0
  0
ARC
  5
188A1
  8
0
 10
4525.0767378779947
 20
392.45009499908389
 30
0.0
 40
0.1200437716485508
 50
193.77612724685241
 51
255.5864273445722
  0
ARC
  5
188A2
  8
0
 10
4525.0767408770498
 20
392.09712661507461
 30
0.0
 40
0.120047118373566
 50
104.4147423361283
 51
166.22336728140681
  0
ARC
  5
188A3
  8
0
 10
4524.3865506891998
 20
392.27361403908418
 30
0.0
 40
0.7013691570713841
 50
355.91509103647007
 51
4.0847301021234843
  0
LINE
  5
188A4
  8
0
 10
4525.0861382299463
 20
392.32357369605347
 30
0.0
 11
4525.0468566633308
 21
392.33382969849163
 31
0.0
  0
LINE
  5
188A5
  8
0
 10
4525.0861380739834
 20
392.22365219819841
 30
0.0
 11
4525.0468564557314
 21
392.21339454699159
 31
0.0
  0
ARC
  5
188A6
  8
0
 10
4524.3467724783186
 20
389.66933143836201
 30
0.0
 40
1.901079178470847
 50
89.149931423210887
 51
90.858965829533446
  0
ARC
  5
188A7
  8
0
 10
4524.2907677551202
 20
391.56684445453442
 30
0.0
 40
0.000826498787946
 50
114.729840733156
 51
245.27015926702271
  0
ARC
  5
188A8
  8
0
 10
4524.297290149244
 20
391.55244145701181
 30
0.0
 40
0.0166374903677665
 50
94.178549434590806
 51
114.3815883588686
  0
ARC
  5
188A9
  8
0
 10
4524.320539018061
 20
391.31441804760061
 30
0.0
 40
0.2557889737258273
 50
90.507590405048987
 51
95.487594052471508
  0
ARC
  5
188AA
  8
0
 10
4524.3001792293589
 20
391.58204084964859
 30
0.0
 40
0.0186952787248396
 50
238.53961759068241
 51
258.36794331961829
  0
ARC
  5
188AB
  8
0
 10
4524.3274284652935
 20
391.69000557820311
 30
0.0
 40
0.1300300007539982
 50
256.19900917169122
 51
265.96243185424368
  0
ARC
  5
188AC
  8
0
 10
4524.3467724783186
 20
393.46116384460191
 30
0.0
 40
1.901079178470847
 50
269.14103417046658
 51
270.85006857678911
  0
ARC
  5
188AD
  8
0
 10
4524.4024819898623
 20
391.56684445453442
 30
0.0
 40
0.000826498787946
 50
294.72984073297732
 51
65.270159266843933
  0
ARC
  5
188AE
  8
0
 10
4524.3959595957376
 20
391.55244145701181
 30
0.0
 40
0.0166374903677665
 50
65.61841164113136
 51
85.821450565409179
  0
ARC
  5
188AF
  8
0
 10
4524.3725366150184
 20
391.31207098352041
 30
0.0
 40
0.2581419364673331
 50
84.523755888020958
 51
89.458382574611775
  0
ARC
  5
188B0
  8
0
 10
4524.3930705156208
 20
391.58204084964859
 30
0.0
 40
0.0186952787248396
 50
281.63205668038171
 51
301.46038240931762
  0
ARC
  5
188B1
  8
0
 10
4524.3657013191396
 20
391.69060266001441
 30
0.0
 40
0.1306384640995775
 50
274.07149020761273
 51
283.78961543402397
  0
ARC
  5
188B2
  8
0
 10
4520.6899569853858
 20
390.32343618182551
 30
0.0
 40
6.9138587374389706
 50
3.2576723864853321
 51
17.93117048906424
  0
ARC
  5
188B3
  8
0
 10
4432.7957684555931
 20
385.17394773140728
 30
0.0
 40
94.958756642049224
 50
0.2326200626353529
 51
3.346036680765069
  0
ARC
  5
188B4
  8
0
 10
4528.9322319826269
 20
385.49787519985102
 30
0.0
 40
1.1800984773455061
 50
177.007724811683
 51
182.992275188317
  0
ARC
  5
188B5
  8
0
 10
4528.3437563955713
 20
385.51672745676922
 30
0.0
 40
0.5954741203902236
 50
187.76502375822881
 51
269.89708554245539
  0
CIRCLE
  5
188B6
  8
0
 10
4532.3387499190339
 20
392.27361172152388
 30
0.0
 40
0.8278867138999999
  0
CIRCLE
  5
188B7
  8
0
 10
4532.3387499189839
 20
392.27361172157401
 30
0.0
 40
1.003937007849999
  0
ARC
  5
188B8
  8
0
 10
4532.3387499190339
 20
392.27361172152388
 30
0.0
 40
0.6310979367000013
 50
13.55327319819625
 51
166.44672711320121
  0
ARC
  5
188B9
  8
0
 10
4532.3387499190339
 20
392.27361172152388
 30
0.0
 40
0.6310979367000013
 50
193.55327319810121
 51
346.44672711310619
  0
ARC
  5
188BA
  8
0
 10
4533.0688638631982
 20
392.45009500241628
 30
0.0
 40
0.1200437716485508
 50
193.77612724685241
 51
255.5864273445722
  0
ARC
  5
188BB
  8
0
 10
4533.0688668622543
 20
392.097126618407
 30
0.0
 40
0.120047118373566
 50
104.4147423361283
 51
166.22336728140681
  0
ARC
  5
188BC
  8
0
 10
4532.3786766744042
 20
392.27361404241663
 30
0.0
 40
0.7013691570713841
 50
355.91509103647007
 51
4.0847301021234843
  0
LINE
  5
188BD
  8
0
 10
4533.0782642151489
 20
392.3235736993858
 30
0.0
 11
4533.0389826485352
 21
392.3338297018239
 31
0.0
  0
LINE
  5
188BE
  8
0
 10
4533.078264059186
 20
392.2236522015308
 30
0.0
 11
4533.0389824409349
 21
392.21339455032393
 31
0.0
  0
ARC
  5
188BF
  8
0
 10
4531.6086359756746
 20
392.45009499908389
 30
0.0
 40
0.1200437716485508
 50
284.4135726554278
 51
346.22387275314748
  0
ARC
  5
188C0
  8
0
 10
4531.6086329766194
 20
392.09712661507461
 30
0.0
 40
0.120047118373566
 50
13.77663271859323
 51
75.58525766387163
  0
ARC
  5
188C1
  8
0
 10
4532.2988231644686
 20
392.27361403908418
 30
0.0
 40
0.7013691570713841
 50
175.9152698978765
 51
184.0849089635299
  0
LINE
  5
188C2
  8
0
 10
4531.5992356237239
 20
392.32357369605347
 30
0.0
 11
4531.6385171903376
 21
392.33382969849163
 31
0.0
  0
LINE
  5
188C3
  8
0
 10
4531.5992357796877
 20
392.22365219819841
 30
0.0
 11
4531.6385173979388
 21
392.21339454699159
 31
0.0
  0
ARC
  5
188C4
  8
0
 10
4532.3386013753507
 20
389.66933143836201
 30
0.0
 40
1.901079178470847
 50
89.141034170466554
 51
90.850068576789127
  0
ARC
  5
188C5
  8
0
 10
4532.39460609855
 20
391.56684445453442
 30
0.0
 40
0.000826498787946
 50
294.72984073297732
 51
65.270159266843933
  0
ARC
  5
188C6
  8
0
 10
4532.3880837044262
 20
391.55244145701181
 30
0.0
 40
0.0166374903677665
 50
65.61841164113136
 51
85.821450565409179
  0
ARC
  5
188C7
  8
0
 10
4532.3648348356091
 20
391.31441804760061
 30
0.0
 40
0.2557889737258273
 50
84.512405947528478
 51
89.492409594951027
  0
ARC
  5
188C8
  8
0
 10
4532.3851946243103
 20
391.58204084964859
 30
0.0
 40
0.0186952787248396
 50
281.63205668038171
 51
301.46038240931762
  0
ARC
  5
188C9
  8
0
 10
4532.3579453883758
 20
391.69000557820311
 30
0.0
 40
0.1300300007539982
 50
274.03756814575632
 51
283.80099082830878
  0
ARC
  5
188CA
  8
0
 10
4532.3386013753507
 20
393.46116384460191
 30
0.0
 40
1.901079178470847
 50
269.14993142321089
 51
270.85896582953342
  0
ARC
  5
188CB
  8
0
 10
4532.2828918638079
 20
391.56684445453442
 30
0.0
 40
0.000826498787946
 50
114.729840733156
 51
245.27015926702271
  0
ARC
  5
188CC
  8
0
 10
4532.2894142579325
 20
391.55244145701181
 30
0.0
 40
0.0166374903677665
 50
94.178549434590806
 51
114.3815883588686
  0
ARC
  5
188CD
  8
0
 10
4532.3128372386509
 20
391.31207098352041
 30
0.0
 40
0.2581419364673331
 50
90.541617425388225
 51
95.476244111979057
  0
ARC
  5
188CE
  8
0
 10
4532.2923033380484
 20
391.58204084964859
 30
0.0
 40
0.0186952787248396
 50
238.53961759068241
 51
258.36794331961829
  0
ARC
  5
188CF
  8
0
 10
4532.3196725345297
 20
391.69060266001441
 30
0.0
 40
0.1306384640995775
 50
256.21038456597603
 51
265.92850979238739
  0
ARC
  5
188D0
  8
0
 10
4535.9954168682843
 20
390.32343618182551
 30
0.0
 40
6.9138587374389706
 50
162.06882951272351
 51
176.74232761351459
  0
ARC
  5
188D1
  8
0
 10
4623.889605398077
 20
385.17394773140728
 30
0.0
 40
94.958756642049224
 50
176.65396331923489
 51
179.76737993736461
  0
ARC
  5
188D2
  8
0
 10
4527.7531418710432
 20
385.49787519985102
 30
0.0
 40
1.1800984773454599
 50
357.00772481168309
 51
2.9922751883169809
  0
ARC
  5
188D3
  8
0
 10
4528.3390206767754
 20
385.51969698216692
 30
0.0
 40
0.5984539161230436
 50
270.35101915397962
 51
351.9868715453058
  0
LINE
  5
188D4
  8
0
 10
4528.3426868078341
 20
384.92125429697398
 30
0.0
 11
4528.3426870458343
 21
384.92125429697398
 31
0.0
  0
ARC
  5
188D6
  8
0
 10
4528.3426869267851
 20
392.27361172152388
 30
0.0
 40
1.0894081628500321
 50
321.98037170488919
 51
218.01962830636629
  0
ENDSEC
  0
EOF
