  0
SECTION
  2
HEADER
  9
$ACADVER
  1
AC1009
  9
$INSBASE
 10
306.3573226273592809
 20
62.5338413666211608
 30
0.0
  9
$EXTMIN
 10
305.0679637295671114
 20
59.3415860011993175
 30
-0.0000000349181948
  9
$EXTMAX
 10
307.6455975379810752
 20
65.938740280266174
 30
0.0000000814935746
  9
$LIMMIN
 10
0.0
 20
0.0
  9
$LIMMAX
 10
11.6929133858000007
 20
8.2677165353999982
  9
$ORTHOMODE
 70
     0
  9
$REGENMODE
 70
     1
  9
$FILLMODE
 70
     1
  9
$QTEXTMODE
 70
     0
  9
$MIRRTEXT
 70
     0
  9
$DRAGMODE
 70
     2
  9
$LTSCALE
 40
0.6431102362
  9
$OSMODE
 70
  4095
  9
$ATTMODE
 70
     1
  9
$TEXTSIZE
 40
0.2
  9
$TRACEWID
 40
0.05
  9
$TEXTSTYLE
  7
STANDARD
  9
$CLAYER
  8
0
  9
$CELTYPE
  6
BYLAYER
  9
$CECOLOR
 62
   256
  9
$DIMSCALE
 40
1.0
  9
$DIMASZ
 40
0.1875
  9
$DIMEXO
 40
0.0625
  9
$DIMDLI
 40
0.4443307087
  9
$DIMRND
 40
0.0
  9
$DIMDLE
 40
0.0
  9
$DIMEXE
 40
0.125
  9
$DIMTP
 40
0.01
  9
$DIMTM
 40
0.01
  9
$DIMTXT
 40
1.0
  9
$DIMCEN
 40
0.1052362205
  9
$DIMTSZ
 40
0.0
  9
$DIMTOL
 70
     1
  9
$DIMLIM
 70
     0
  9
$DIMTIH
 70
     1
  9
$DIMTOH
 70
     1
  9
$DIMSE1
 70
     0
  9
$DIMSE2
 70
     0
  9
$DIMTAD
 70
     0
  9
$DIMZIN
 70
     0
  9
$DIMBLK
  1

  9
$DIMASO
 70
     1
  9
$DIMSHO
 70
     1
  9
$DIMPOST
  1
\X
  9
$DIMAPOST
  1

  9
$DIMALT
 70
     1
  9
$DIMALTD
 70
     2
  9
$DIMALTF
 40
25.3999999999999986
  9
$DIMLFAC
 40
1.0
  9
$DIMTOFL
 70
     0
  9
$DIMTVP
 40
0.0
  9
$DIMTIX
 70
     0
  9
$DIMSOXD
 70
     0
  9
$DIMSAH
 70
     0
  9
$DIMBLK1
  1

  9
$DIMBLK2
  1

  9
$DIMSTYLE
  2
STANDARD
  9
$DIMCLRD
 70
     0
  9
$DIMCLRE
 70
     0
  9
$DIMCLRT
 70
     0
  9
$DIMTFAC
 40
1.0
  9
$DIMGAP
 40
0.09
  9
$LUNITS
 70
     2
  9
$LUPREC
 70
     4
  9
$SKETCHINC
 40
0.1
  9
$FILLETRAD
 40
0.0
  9
$AUNITS
 70
     0
  9
$AUPREC
 70
     0
  9
$MENU
  1
.
  9
$ELEVATION
 40
0.0
  9
$PELEVATION
 40
0.0
  9
$THICKNESS
 40
0.0
  9
$LIMCHECK
 70
     0
  9
$BLIPMODE
 70
     0
  9
$CHAMFERA
 40
0.0
  9
$CHAMFERB
 40
0.0
  9
$SKPOLY
 70
     0
  9
$TDCREATE
 40
2458172.4620254631154239
  9
$TDUPDATE
 40
2460003.7528472221456468
  9
$TDINDWG
 40
0.1023554745
  9
$TDUSRTIMER
 40
0.1023554745
  9
$USRTIMER
 70
     1
  9
$ANGBASE
 50
0.0
  9
$ANGDIR
 70
     0
  9
$PDMODE
 70
     0
  9
$PDSIZE
 40
0.3125
  9
$PLINEWID
 40
0.0
  9
$COORDS
 70
     1
  9
$SPLFRAME
 70
     0
  9
$SPLINETYPE
 70
     6
  9
$SPLINESEGS
 70
     8
  9
$ATTDIA
 70
     1
  9
$ATTREQ
 70
     1
  9
$HANDLING
 70
     1
  9
$HANDSEED
  5
A72D
  9
$SURFTAB1
 70
     6
  9
$SURFTAB2
 70
     6
  9
$SURFTYPE
 70
     6
  9
$SURFU
 70
     6
  9
$SURFV
 70
     6
  9
$UCSNAME
  2

  9
$UCSORG
 10
0.0
 20
0.0
 30
0.0
  9
$UCSXDIR
 10
1.0
 20
0.0
 30
0.0
  9
$UCSYDIR
 10
0.0
 20
1.0
 30
0.0
  9
$PUCSNAME
  2

  9
$PUCSORG
 10
0.0
 20
0.0
 30
0.0
  9
$PUCSXDIR
 10
1.0
 20
0.0
 30
0.0
  9
$PUCSYDIR
 10
0.0
 20
1.0
 30
0.0
  9
$USERI1
 70
     0
  9
$USERI2
 70
     0
  9
$USERI3
 70
     0
  9
$USERI4
 70
     0
  9
$USERI5
 70
     0
  9
$USERR1
 40
0.0
  9
$USERR2
 40
0.0
  9
$USERR3
 40
0.0
  9
$USERR4
 40
0.0
  9
$USERR5
 40
0.0
  9
$WORLDVIEW
 70
     1
  9
$SHADEDGE
 70
     3
  9
$SHADEDIF
 70
    70
  9
$TILEMODE
 70
     1
  9
$MAXACTVP
 70
    64
  9
$PLIMCHECK
 70
     0
  9
$PEXTMIN
 10
1.0000000000000000E+20
 20
1.0000000000000000E+20
 30
1.0000000000000000E+20
  9
$PEXTMAX
 10
-1.0000000000000000E+20
 20
-1.0000000000000000E+20
 30
-1.0000000000000000E+20
  9
$PLIMMIN
 10
0.0
 20
0.0
  9
$PLIMMAX
 10
12.0
 20
9.0
  9
$UNITMODE
 70
     0
  9
$VISRETAIN
 70
     1
  9
$PLINEGEN
 70
     0
  9
$PSLTSCALE
 70
     1
  0
ENDSEC
  0
SECTION
  2
TABLES
  0
TABLE
  2
VPORT
 70
     1
  0
VPORT
  2
*ACTIVE
 70
     0
 10
0.0
 20
0.0
 11
1.0
 21
1.0
 12
203.2609249208834115
 22
67.1999167253077587
 13
0.0
 23
0.0
 14
1.0
 24
1.0
 15
0.0
 25
0.0
 16
0.0
 26
0.0
 36
24.7332413121020203
 17
103.0958557128905966
 27
-4.5597535845750086
 37
0.0
 40
6.6494434807503628
 41
2.5251322751322749
 42
50.0
 43
0.0
 44
0.0
 50
0.0
 51
0.0
 71
     0
 72
   100
 73
     1
 74
     1
 75
     0
 76
     0
 77
     0
 78
     0
  0
ENDTAB
  0
TABLE
  2
LTYPE
 70
     2
  0
LTYPE
  2
CONTINUOUS
 70
     0
  3
Solid line
 72
    65
 73
     0
 40
0.0
  0
LTYPE
  2
PHANTOM2
 70
     0
  3
___ _ _ ___ _ _ ___ _ _ ___ _ _
 72
    65
 73
     6
 40
1.25
 49
0.625
 49
-0.125
 49
0.125
 49
-0.125
 49
0.125
 49
-0.125
  0
ENDTAB
  0
TABLE
  2
LAYER
 70
     2
  0
LAYER
  2
0
 70
     0
 62
   255
  6
CONTINUOUS
  0
LAYER
  2
DEFPOINTS
 70
     0
 62
     7
  6
CONTINUOUS
  0
ENDTAB
  0
TABLE
  2
STYLE
 70
     1
  0
STYLE
  2
STANDARD
 70
     0
 40
0.0
 41
0.8
 50
0.0
 71
     0
 42
0.2
  3
txt
  4

  0
ENDTAB
  0
TABLE
  2
VIEW
 70
     0
  0
ENDTAB
  0
TABLE
  2
UCS
 70
     0
  0
ENDTAB
  0
TABLE
  2
APPID
 70
     9
  0
APPID
  2
ACAD
 70
     0
  0
APPID
  2
ACAD_MLEADERVER
 70
     0
  0
APPID
  2
ACAD_EXEMPT_FROM_CAD_STANDARDS
 70
     0
  0
APPID
  2
ACAD_DSTYLE_DIMJAG
 70
     0
  0
APPID
  2
ACAD_DSTYLE_DIMTALN
 70
     0
  0
APPID
  2
ACAD_NAV_VCDISPLAY
 70
     0
  0
APPID
  2
ACAECLAYERSTANDARD
 70
     0
  0
APPID
  2
ACCMTRANSPARENCY
 70
     0
  0
APPID
  2
ACDBATTR
 70
     0
  0
ENDTAB
  0
TABLE
  2
DIMSTYLE
 70
     1
  0
DIMSTYLE
  2
STANDARD
 70
     0
  3

  4

  5

  6

  7

 40
1.0
 41
0.1875
 42
0.0625
 43
0.38
 44
0.125
 45
0.0
 46
0.0
 47
0.01
 48
0.01
140
0.15625
141
0.09
142
0.0
143
25.3999999999999986
144
1.0
145
0.0
146
1.0
147
0.09
 71
     1
 72
     0
 73
     1
 74
     1
 75
     0
 76
     0
 77
     0
 78
     4
170
     0
171
     2
172
     0
173
     0
174
     0
175
     0
176
     0
177
     0
178
     0
  0
ENDTAB
  0
ENDSEC
  0
SECTION
  2
BLOCKS
  0
BLOCK
  8
0
  2
$MODEL_SPACE
 70
     0
 10
0.0
 20
0.0
 30
0.0
  3
$MODEL_SPACE
  1

  0
ENDBLK
  5
21
  8
0
  0
BLOCK
 67
     1
  8
0
  2
$PAPER_SPACE
 70
     0
 10
0.0
 20
0.0
 30
0.0
  3
$PAPER_SPACE
  1

  0
ENDBLK
  5
1D
 67
     1
  8
0
  0
BLOCK
  8
0
  2
_FILLED
 70
     0
 10
0.0
 20
0.0
 30
0.0
  3
_FILLED
  1

  0
SOLID
  5
87CF
  8
0
  6
BYBLOCK
 62
     0
 10
0.0
 20
0.0
 30
0.0
 11
-1.0
 21
0.1666666667
 31
0.0
 12
-1.0
 22
-0.1666666667
 32
0.0
 13
-1.0
 23
-0.1666666667
 33
0.0
  0
ENDBLK
  5
87D0
  8
0
  6
BYBLOCK
 62
     0
  0
ENDSEC
  0
SECTION
  2
ENTITIES
  0
ATTDEF
  5
383D
  8
DEFPOINTS
 10
306.3580034515823058
 20
62.5376453456366193
 30
0.0
 40
0.001
  1
K-16407IN
  3

  2
MODELNUMBER
 70
     0
1001
ACDBATTR
1070
     0
1070
     1
  0
ATTDEF
  5
383E
  8
DEFPOINTS
 10
306.3580034515823058
 20
62.5359786789699612
 30
0.0
 40
0.001
  1
COMPLEMENTARY
  3

  2
TRADENAME
 70
     0
1001
ACDBATTR
1070
     0
1070
     1
  0
ATTDEF
  5
383F
  8
DEFPOINTS
 10
306.3580034515823058
 20
62.534312012303289
 30
0.0
 40
0.001
  1
BOTTLE TRAP
  3

  2
PRODUCT
 70
     0
1001
ACDBATTR
1070
     0
1070
     1
  0
LINE
  5
A04B
  8
0
 10
306.790404517109323
 20
59.3448649887211701
 30
0.0
 11
305.9242407376092956
 21
59.3448649887211701
 31
0.0
  0
LINE
  5
A04C
  8
0
 10
307.5029919187094265
 20
61.5889594769211683
 30
0.0
 11
305.2116533360094195
 21
61.5889594769211683
 31
0.0
  0
LINE
  5
A04D
  8
0
 10
307.20968483170941
 20
63.2621878233211703
 30
0.0
 11
305.504960422609372
 21
63.2621878233211703
 31
0.0
  0
LINE
  5
A04E
  8
0
 10
307.2077163282094148
 20
63.2700618391211691
 30
0.0
 11
305.5069289266094188
 21
63.2700618391211691
 31
0.0
  0
LINE
  5
A04F
  8
0
 10
307.2195003838094181
 20
63.4078571147211676
 30
0.0
 11
305.4951448709094279
 21
63.4078571147211676
 31
0.0
  0
LINE
  5
A050
  8
0
 10
307.2195003838094181
 20
63.5259673509211709
 30
0.0
 11
305.4951448709094279
 21
63.5259673509211709
 31
0.0
  0
LINE
  5
A051
  8
0
 10
307.1151966430480229
 20
63.6834476659211717
 30
0.0
 11
305.5994486116707094
 21
63.6834476659211717
 31
0.0
  0
LINE
  5
A052
  8
0
 10
307.1151966431762048
 20
65.5220303430211715
 30
0.0
 11
305.5994486115425275
 21
65.5220303430211715
 31
0.0
  0
LINE
  5
A053
  8
0
 10
307.2195003838094181
 20
65.6795106580211723
 30
0.0
 11
305.4951448709094279
 21
65.6795106580211723
 31
0.0
  0
LINE
  5
A054
  8
0
 10
307.2195003838094181
 20
65.7976208942211684
 30
0.0
 11
305.4951448709094279
 21
65.7976208942211684
 31
0.0
  0
LINE
  5
A055
  8
0
 10
307.2077163282094148
 20
65.9354161698211669
 30
0.0
 11
305.5069289266094188
 21
65.9354161698211669
 31
0.0
  0
ARC
  5
A056
  8
0
 10
306.3573226274094168
 20
62.5338413672211715
 30
0.0
 40
1.2795275589999999
 50
132.3629770512185075
 51
211.081533104292788
  0
LINE
  5
A057
  8
0
 10
305.4124407376094155
 20
61.5889594769211683
 30
0.0
 11
305.4124407376094155
 21
59.856664988721171
 31
0.0
  0
LINE
  5
A058
  8
0
 10
307.3022045171093737
 20
61.5889594769211683
 30
0.0
 11
307.3022045171093737
 21
59.856664988721171
 31
0.0
  0
LINE
  5
A059
  8
0
 10
305.7323226274093031
 20
65.5220303430211715
 30
0.0
 11
305.7323226274093031
 21
63.6834476659211717
 31
0.0
  0
LINE
  5
A05A
  8
0
 10
305.5069289266094188
 20
65.9354161698211669
 30
0.0
 11
305.5069289266094188
 21
65.7976208942211684
 31
0.0
  0
LINE
  5
A05B
  8
0
 10
305.5069289266094188
 20
63.4078571147211676
 30
0.0
 11
305.5069289266094188
 21
63.2700618391211691
 31
0.0
  0
LINE
  5
A05C
  8
0
 10
305.4951448709094279
 20
65.7976208942211684
 30
0.0
 11
305.4951448709094279
 21
65.6795106580211723
 31
0.0
  0
LINE
  5
A05D
  8
0
 10
305.4951448709094279
 20
63.5259673509211709
 30
0.0
 11
305.4951448709094279
 21
63.4078571147211676
 31
0.0
  0
LINE
  5
A05E
  8
0
 10
307.2195003838094181
 20
63.5259673509211709
 30
0.0
 11
307.2195003838094181
 21
63.4078571147211676
 31
0.0
  0
LINE
  5
A05F
  8
0
 10
307.2077163282094148
 20
63.4078571147211676
 30
0.0
 11
307.2077163282094148
 21
63.2700618391211691
 31
0.0
  0
ARC
  5
A062
  8
0
 10
305.7520207869093269
 20
65.7175843109211684
 30
0.0
 40
0.2480314960999979
 50
188.8300028961193959
 51
232.0384686540716075
  0
LINE
  5
A063
  8
0
 10
305.4961867108094111
 20
65.7976208942211684
 30
0.0
 11
305.4961867108094111
 21
65.6795106580211723
 31
0.0
  0
LINE
  5
A064
  8
0
 10
305.4987392756092959
 20
65.6795106580211723
 30
0.0
 11
305.4987392756092959
 21
65.7976208942211684
 31
0.0
  0
LINE
  5
A065
  8
0
 10
305.4975980238094166
 20
65.7976208942211684
 30
0.0
 11
305.4975980238094166
 21
65.6795106580211723
 31
0.0
  0
LINE
  5
A066
  8
0
 10
305.5027980874094169
 20
65.6795106580211723
 30
0.0
 11
305.5027980874094169
 21
65.7976208942211684
 31
0.0
  0
LINE
  5
A067
  8
0
 10
305.5010887128092918
 20
65.7976208942211684
 30
0.0
 11
305.5010887128092918
 21
65.6795106580211723
 31
0.0
  0
LINE
  5
A068
  8
0
 10
305.5083560256093733
 20
65.6795106580211723
 30
0.0
 11
305.5083560256093733
 21
65.7976208942211684
 31
0.0
  0
LINE
  5
A069
  8
0
 10
305.5060815270094281
 20
65.7976208942211684
 30
0.0
 11
305.5060815270094281
 21
65.6795106580211723
 31
0.0
  0
LINE
  5
A06A
  8
0
 10
305.5154033396092927
 20
65.6795106580211723
 30
0.0
 11
305.5154033396092927
 21
65.7976208942211684
 31
0.0
  0
LINE
  5
A06B
  8
0
 10
305.5125677074092891
 20
65.7976208942211684
 30
0.0
 11
305.5125677074092891
 21
65.6795106580211723
 31
0.0
  0
ARC
  5
A06C
  8
0
 10
305.7520207860902133
 20
63.4878936984644184
 30
0.0
 40
0.248031495167791
 50
127.9615312363770983
 51
171.1699972573680952
  0
LINE
  5
A06D
  8
0
 10
305.2116533360094195
 20
61.5889594769211683
 30
0.0
 11
305.5049604230093792
 21
63.2621878233211703
 31
0.0
  0
LINE
  5
A06E
  8
0
 10
305.5994486116093753
 20
63.2700618391211691
 30
0.0
 11
305.5994486116093753
 21
63.2621878233211703
 31
0.0
  0
ARC
  5
A06F
  8
0
 10
305.9242407376092956
 20
59.856664988721171
 30
0.0
 40
0.5118000000000001
 50
180.0
 51
270.0
  0
LINE
  5
A070
  8
0
 10
305.5205358749092852
 20
65.6795106580211723
 30
0.0
 11
305.5205358749092852
 21
65.7976208942211684
 31
0.0
  0
LINE
  5
A071
  8
0
 10
305.5239276663094188
 20
65.7976208942211684
 30
0.0
 11
305.5239276663094188
 21
65.6795106580211723
 31
0.0
  0
LINE
  5
A072
  8
0
 10
305.5299720508094197
 20
65.6795106580211723
 30
0.0
 11
305.5299720508094197
 21
65.7976208942211684
 31
0.0
  0
LINE
  5
A073
  8
0
 10
305.5339140508094147
 20
65.7976208942211684
 30
0.0
 11
305.5339140508094147
 21
65.6795106580211723
 31
0.0
  0
LINE
  5
A074
  8
0
 10
305.5408596807092749
 20
65.6795106580211723
 30
0.0
 11
305.5408596807092749
 21
65.7976208942211684
 31
0.0
  0
LINE
  5
A075
  8
0
 10
305.5453449738092786
 20
65.6795106580211723
 30
0.0
 11
305.5453449738092786
 21
65.7976208942211684
 31
0.0
  0
LINE
  5
A076
  8
0
 10
305.5531796640094058
 20
65.7976208942211684
 30
0.0
 11
305.5531796640094058
 21
65.6795106580211723
 31
0.0
  0
LINE
  5
A077
  8
0
 10
305.5582003815093231
 20
65.7976208942211684
 30
0.0
 11
305.5582003815093231
 21
65.6795106580211723
 31
0.0
  0
LINE
  5
A078
  8
0
 10
305.5669103874092798
 20
65.7976208942211684
 30
0.0
 11
305.5669103874092798
 21
65.6795106580211723
 31
0.0
  0
LINE
  5
A079
  8
0
 10
305.5724577212092754
 20
65.7976208942211684
 30
0.0
 11
305.5724577212092754
 21
65.6795106580211723
 31
0.0
  0
LINE
  5
A07A
  8
0
 10
305.5820277624093251
 20
65.7976208942211684
 30
0.0
 11
305.5820277624093251
 21
65.6795106580211723
 31
0.0
  0
LINE
  5
A07B
  8
0
 10
305.5880919806094198
 20
65.6795106580211723
 30
0.0
 11
305.5880919806094198
 21
65.7976208942211684
 31
0.0
  0
LINE
  5
A07C
  8
0
 10
305.5985052681094203
 20
65.7976208942211684
 30
0.0
 11
305.5985052681094203
 21
65.6795106580211723
 31
0.0
  0
LINE
  5
A07D
  8
0
 10
305.6050757320094249
 20
65.6795106580211723
 30
0.0
 11
305.6050757320094249
 21
65.7976208942211684
 31
0.0
  0
LINE
  5
A07E
  8
0
 10
305.6163139972093745
 20
65.7976208942211684
 30
0.0
 11
305.6163139972093745
 21
65.6795106580211723
 31
0.0
  0
LINE
  5
A07F
  8
0
 10
305.6233791800094082
 20
65.7976208942211684
 30
0.0
 11
305.6233791800094082
 21
65.6795106580211723
 31
0.0
  0
LINE
  5
A080
  8
0
 10
305.6354227073093739
 20
65.7976208942211684
 30
0.0
 11
305.6354227073093739
 21
65.6795106580211723
 31
0.0
  0
LINE
  5
A081
  8
0
 10
305.6429702143092868
 20
65.7976208942211684
 30
0.0
 11
305.6429702143092868
 21
65.6795106580211723
 31
0.0
  0
LINE
  5
A082
  8
0
 10
305.6557978751092719
 20
65.7976208942211684
 30
0.0
 11
305.6557978751092719
 21
65.6795106580211723
 31
0.0
  0
LINE
  5
A083
  8
0
 10
305.6638144654094162
 20
65.6795106580211723
 30
0.0
 11
305.6638144654094162
 21
65.7976208942211684
 31
0.0
  0
LINE
  5
A084
  8
0
 10
305.67740375580928
 20
65.6795106580211723
 30
0.0
 11
305.67740375580928
 21
65.7976208942211684
 31
0.0
  0
LINE
  5
A085
  8
0
 10
305.685875365409288
 20
65.7976208942211684
 30
0.0
 11
305.685875365409288
 21
65.6795106580211723
 31
0.0
  0
LINE
  5
A086
  8
0
 10
305.7002024452092996
 20
65.6795106580211723
 30
0.0
 11
305.7002024452092996
 21
65.7976208942211684
 31
0.0
  0
LINE
  5
A087
  8
0
 10
305.709114212209272
 20
65.7976208942211684
 30
0.0
 11
305.709114212209272
 21
65.6795106580211723
 31
0.0
  0
LINE
  5
A088
  8
0
 10
305.7241539466094196
 20
65.6795106580211723
 30
0.0
 11
305.7238940655092847
 21
65.7976208942211684
 31
0.0
  0
LINE
  5
A089
  8
0
 10
305.7334902367093719
 20
65.7976208942211684
 30
0.0
 11
305.7334902367093719
 21
65.6795106580211723
 31
0.0
  0
LINE
  5
A08A
  8
0
 10
305.7483331189092723
 20
65.6795106580211723
 30
0.0
 11
305.7483331189092723
 21
65.7976208942211684
 31
0.0
  0
LINE
  5
A08B
  8
0
 10
305.7589606753094245
 20
65.7976208942211684
 30
0.0
 11
305.7589606753094245
 21
65.6795106580211723
 31
0.0
  0
LINE
  5
A08C
  8
0
 10
305.7738405469092982
 20
65.6795106580211723
 30
0.0
 11
305.7738405469092982
 21
65.7976208942211684
 31
0.0
  0
LINE
  5
A08D
  8
0
 10
305.7854808440093279
 20
65.7976208942211684
 30
0.0
 11
305.7854808440093279
 21
65.6795106580211723
 31
0.0
  0
LINE
  5
A08E
  8
0
 10
305.8003716007092976
 20
65.7976208942211684
 30
0.0
 11
305.8003716007092976
 21
65.6795106580211723
 31
0.0
  0
LINE
  5
A08F
  8
0
 10
305.8130042176093752
 20
65.6795106580211723
 30
0.0
 11
305.8130042176093752
 21
65.7976208942211684
 31
0.0
  0
LINE
  5
A090
  8
0
 10
305.8278797359092778
 20
65.7976208942211684
 30
0.0
 11
305.8278797359092778
 21
65.6795106580211723
 31
0.0
  0
LINE
  5
A091
  8
0
 10
305.8414825105093087
 20
65.6795106580211723
 30
0.0
 11
305.8414825105093087
 21
65.7976208942211684
 31
0.0
  0
LINE
  5
A092
  8
0
 10
305.8563166938092763
 20
65.7976208942211684
 30
0.0
 11
305.8563166938092763
 21
65.6795106580211723
 31
0.0
  0
LINE
  5
A093
  8
0
 10
305.8708657624093803
 20
65.6795106580211723
 30
0.0
 11
305.8708657624093803
 21
65.7976208942211684
 31
0.0
  0
LINE
  5
A094
  8
0
 10
305.8856325864093719
 20
65.7976208942211684
 30
0.0
 11
305.8856325864093719
 21
65.6795106580211723
 31
0.0
  0
LINE
  5
A095
  8
0
 10
305.9011024249094248
 20
65.6795106580211723
 30
0.0
 11
305.9011024249094248
 21
65.7976208942211684
 31
0.0
  0
LINE
  5
A096
  8
0
 10
305.9157759836093078
 20
65.7976208942211684
 30
0.0
 11
305.9157759836093078
 21
65.6795106580211723
 31
0.0
  0
LINE
  5
A097
  8
0
 10
305.9321394526094195
 20
65.6795106580211723
 30
0.0
 11
305.9321394526094195
 21
65.7976208942211684
 31
0.0
  0
LINE
  5
A098
  8
0
 10
305.9466940036094229
 20
65.7976208942211684
 30
0.0
 11
305.9466940036094229
 21
65.6795106580211723
 31
0.0
  0
LINE
  5
A099
  8
0
 10
305.9639223961092966
 20
65.6795106580211723
 30
0.0
 11
305.9639223961092966
 21
65.7976208942211684
 31
0.0
  0
LINE
  5
A09A
  8
0
 10
305.9783324057092955
 20
65.7976208942211684
 30
0.0
 11
305.9783324057092955
 21
65.6795106580211723
 31
0.0
  0
LINE
  5
A09B
  8
0
 10
305.9963954973093223
 20
65.6795106580211723
 30
0.0
 11
305.9963954973093223
 21
65.7976208942211684
 31
0.0
  0
LINE
  5
A09C
  8
0
 10
306.0106356855093281
 20
65.7976208942211684
 30
0.0
 11
306.0106356855093281
 21
65.6795106580211723
 31
0.0
  0
LINE
  5
A09D
  8
0
 10
306.0295017873094139
 20
65.6795106580211723
 30
0.0
 11
306.0295017873094139
 21
65.7976208942211684
 31
0.0
  0
LINE
  5
A09E
  8
0
 10
306.0435471720094256
 20
65.7976208942211684
 30
0.0
 11
306.0435471720094256
 21
65.6795106580211723
 31
0.0
  0
LINE
  5
A09F
  8
0
 10
306.0631831865093773
 20
65.6795106580211723
 30
0.0
 11
306.0631831865093773
 21
65.7976208942211684
 31
0.0
  0
LINE
  5
A0A0
  8
0
 10
306.0770091273092817
 20
65.6795106580211723
 30
0.0
 11
306.0770091273092817
 21
65.7976208942211684
 31
0.0
  0
LINE
  5
A0A1
  8
0
 10
306.0973806062094127
 20
65.7976208942211684
 30
0.0
 11
306.0973806062094127
 21
65.6795106580211723
 31
0.0
  0
LINE
  5
A0A2
  8
0
 10
306.110962847709402
 20
65.7976208942211684
 30
0.0
 11
306.110962847709402
 21
65.6795106580211723
 31
0.0
  0
LINE
  5
A0A3
  8
0
 10
306.1320340525094252
 20
65.7976208942211684
 30
0.0
 11
306.1320340525094252
 21
65.6795106580211723
 31
0.0
  0
LINE
  5
A0A4
  8
0
 10
306.1453487669094216
 20
65.7976208942211684
 30
0.0
 11
306.1453487669094216
 21
65.6795106580211723
 31
0.0
  0
LINE
  5
A0A5
  8
0
 10
306.1538044414094202
 20
65.7976208942211684
 30
0.0
 11
306.1538044414094202
 21
65.6795106580211723
 31
0.0
  0
LINE
  5
A0A6
  8
0
 10
306.1670827316094119
 20
65.7976208942211684
 30
0.0
 11
306.1670827316094119
 21
65.6795106580211723
 31
0.0
  0
LINE
  5
A0A7
  8
0
 10
306.1801065602093104
 20
65.7976208942211684
 30
0.0
 11
306.1801065602093104
 21
65.6795106580211723
 31
0.0
  0
LINE
  5
A0A8
  8
0
 10
306.1890680959094198
 20
65.7976208942211684
 30
0.0
 11
306.1890680959094198
 21
65.6795106580211723
 31
0.0
  0
LINE
  5
A0A9
  8
0
 10
306.2024651560092821
 20
65.6795106580211723
 30
0.0
 11
306.2024651560092821
 21
65.7976208942211684
 31
0.0
  0
LINE
  5
A0AA
  8
0
 10
306.2151752507094216
 20
65.7976208942211684
 30
0.0
 11
306.2151752507094216
 21
65.6795106580211723
 31
0.0
  0
LINE
  5
A0AB
  8
0
 10
306.2246269260094209
 20
65.6795106580211723
 30
0.0
 11
306.2246269260094209
 21
65.7976208942211684
 31
0.0
  0
LINE
  5
A0AC
  8
0
 10
306.2381192531092893
 20
65.7976208942211684
 30
0.0
 11
306.2381192531092893
 21
65.6795106580211723
 31
0.0
  0
LINE
  5
A0AD
  8
0
 10
306.2504933161093277
 20
65.6795106580211723
 30
0.0
 11
306.2504933161093277
 21
65.7976208942211684
 31
0.0
  0
LINE
  5
A0AE
  8
0
 10
306.2604185494092803
 20
65.7976208942211684
 30
0.0
 11
306.2604185494092803
 21
65.6795106580211723
 31
0.0
  0
LINE
  5
A0AF
  8
0
 10
306.2739824734093759
 20
65.6795106580211723
 30
0.0
 11
306.2739824734093759
 21
65.7976208942211684
 31
0.0
  0
LINE
  5
A0B0
  8
0
 10
306.2859987963092863
 20
65.7976208942211684
 30
0.0
 11
306.2859987963092863
 21
65.6795106580211723
 31
0.0
  0
LINE
  5
A0B1
  8
0
 10
306.2963801755092845
 20
65.6795106580211723
 30
0.0
 11
306.2963801755092845
 21
65.7976208942211684
 31
0.0
  0
LINE
  5
A0B2
  8
0
 10
306.3099919007094059
 20
65.6795106580211723
 30
0.0
 11
306.3099919007094059
 21
65.7976208942211684
 31
0.0
  0
LINE
  5
A0B3
  8
0
 10
306.3216294028093216
 20
65.7976208942211684
 30
0.0
 11
306.3216294028093216
 21
65.6795106580211723
 31
0.0
  0
LINE
  5
A0B4
  8
0
 10
306.3324487154093276
 20
65.6795106580211723
 30
0.0
 11
306.3324487154093276
 21
65.7976208942211684
 31
0.0
  0
LINE
  5
A0B5
  8
0
 10
306.3460843621094227
 20
65.7976208942211684
 30
0.0
 11
306.3460843621094227
 21
65.6795106580211723
 31
0.0
  0
LINE
  5
A0B6
  8
0
 10
305.4961867108094111
 20
63.5259673509211709
 30
0.0
 11
305.4961867108094111
 21
63.4078571147211676
 31
0.0
  0
LINE
  5
A0B7
  8
0
 10
305.4987392756092959
 20
63.4078571147211676
 30
0.0
 11
305.4987392756092959
 21
63.5259673509211709
 31
0.0
  0
LINE
  5
A0B8
  8
0
 10
305.4975980238094166
 20
63.5259673509211709
 30
0.0
 11
305.4975980238094166
 21
63.4078571147211676
 31
0.0
  0
LINE
  5
A0B9
  8
0
 10
305.5027980874094169
 20
63.4078571147211676
 30
0.0
 11
305.5027980874094169
 21
63.5259673509211709
 31
0.0
  0
LINE
  5
A0BA
  8
0
 10
305.5010887128092918
 20
63.5259673509211709
 30
0.0
 11
305.5010887128092918
 21
63.4078571147211676
 31
0.0
  0
LINE
  5
A0BB
  8
0
 10
305.5083560256093733
 20
63.4078571147211676
 30
0.0
 11
305.5083560256093733
 21
63.5259673509211709
 31
0.0
  0
LINE
  5
A0BC
  8
0
 10
305.5060815270094281
 20
63.5259673509211709
 30
0.0
 11
305.5060815270094281
 21
63.4078571147211676
 31
0.0
  0
LINE
  5
A0BD
  8
0
 10
305.5154033396092927
 20
63.4078571147211676
 30
0.0
 11
305.5154033396092927
 21
63.5259673509211709
 31
0.0
  0
LINE
  5
A0BE
  8
0
 10
305.5125677074092891
 20
63.5259673509211709
 30
0.0
 11
305.5125677074092891
 21
63.4078571147211676
 31
0.0
  0
LINE
  5
A0BF
  8
0
 10
305.5205358749092852
 20
63.4078571147211676
 30
0.0
 11
305.5205358749092852
 21
63.5259673509211709
 31
0.0
  0
LINE
  5
A0C0
  8
0
 10
305.5239276663094188
 20
63.5259673509211709
 30
0.0
 11
305.5239276663094188
 21
63.4078571147211676
 31
0.0
  0
LINE
  5
A0C1
  8
0
 10
305.5299720508094197
 20
63.4078571147211676
 30
0.0
 11
305.5299720508094197
 21
63.5259673509211709
 31
0.0
  0
LINE
  5
A0C2
  8
0
 10
305.5339140508094147
 20
63.5259673509211709
 30
0.0
 11
305.5339140508094147
 21
63.4078571147211676
 31
0.0
  0
LINE
  5
A0C3
  8
0
 10
305.5408596807092749
 20
63.4078571147211676
 30
0.0
 11
305.5408596807092749
 21
63.5259673509211709
 31
0.0
  0
LINE
  5
A0C4
  8
0
 10
305.5453449738092786
 20
63.4078571147211676
 30
0.0
 11
305.5453449738092786
 21
63.5259673509211709
 31
0.0
  0
LINE
  5
A0C5
  8
0
 10
305.5531796640094058
 20
63.5259673509211709
 30
0.0
 11
305.5531796640094058
 21
63.4078571147211676
 31
0.0
  0
LINE
  5
A0C6
  8
0
 10
305.5582003815093231
 20
63.5259673509211709
 30
0.0
 11
305.5582003815093231
 21
63.4078571147211676
 31
0.0
  0
LINE
  5
A0C7
  8
0
 10
305.5669103874092798
 20
63.5259673509211709
 30
0.0
 11
305.5669103874092798
 21
63.4078571147211676
 31
0.0
  0
LINE
  5
A0C8
  8
0
 10
305.5724577212092754
 20
63.5259673509211709
 30
0.0
 11
305.5724577212092754
 21
63.4078571147211676
 31
0.0
  0
LINE
  5
A0C9
  8
0
 10
305.5820277624093251
 20
63.5259673509211709
 30
0.0
 11
305.5820277624093251
 21
63.4078571147211676
 31
0.0
  0
LINE
  5
A0CA
  8
0
 10
305.5880919806094198
 20
63.4078571147211676
 30
0.0
 11
305.5880919806094198
 21
63.5259673509211709
 31
0.0
  0
LINE
  5
A0CB
  8
0
 10
305.5985052681094203
 20
63.5259673509211709
 30
0.0
 11
305.5985052681094203
 21
63.4078571147211676
 31
0.0
  0
LINE
  5
A0CC
  8
0
 10
305.6050757320094249
 20
63.4078571147211676
 30
0.0
 11
305.6050757320094249
 21
63.5259673509211709
 31
0.0
  0
LINE
  5
A0CD
  8
0
 10
305.6163139972093745
 20
63.5259673509211709
 30
0.0
 11
305.6163139972093745
 21
63.4078571147211676
 31
0.0
  0
LINE
  5
A0CE
  8
0
 10
305.6233791800094082
 20
63.5259673509211709
 30
0.0
 11
305.6233791800094082
 21
63.4078571147211676
 31
0.0
  0
LINE
  5
A0CF
  8
0
 10
305.6354227073093739
 20
63.5259673509211709
 30
0.0
 11
305.6354227073093739
 21
63.4078571147211676
 31
0.0
  0
LINE
  5
A0D0
  8
0
 10
305.6429702143092868
 20
63.5259673509211709
 30
0.0
 11
305.6429702143092868
 21
63.4078571147211676
 31
0.0
  0
LINE
  5
A0D1
  8
0
 10
305.6557978751092719
 20
63.5259673509211709
 30
0.0
 11
305.6557978751092719
 21
63.4078571147211676
 31
0.0
  0
LINE
  5
A0D2
  8
0
 10
305.6638144654094162
 20
63.4078571147211676
 30
0.0
 11
305.6638144654094162
 21
63.5259673509211709
 31
0.0
  0
LINE
  5
A0D3
  8
0
 10
305.67740375580928
 20
63.4078571147211676
 30
0.0
 11
305.67740375580928
 21
63.5259673509211709
 31
0.0
  0
LINE
  5
A0D4
  8
0
 10
305.685875365409288
 20
63.5259673509211709
 30
0.0
 11
305.685875365409288
 21
63.4078571147211676
 31
0.0
  0
LINE
  5
A0D5
  8
0
 10
305.7002024452092996
 20
63.4078571147211676
 30
0.0
 11
305.7002024452092996
 21
63.5259673509211709
 31
0.0
  0
LINE
  5
A0D6
  8
0
 10
305.709114212209272
 20
63.5259673509211709
 30
0.0
 11
305.709114212209272
 21
63.4078571147211676
 31
0.0
  0
LINE
  5
A0D7
  8
0
 10
305.7241539466094196
 20
63.4078571147211676
 30
0.0
 11
305.7238940655092847
 21
63.5259673509211709
 31
0.0
  0
LINE
  5
A0D8
  8
0
 10
305.7334902367093719
 20
63.5259673509211709
 30
0.0
 11
305.7334902367093719
 21
63.4078571147211676
 31
0.0
  0
LINE
  5
A0D9
  8
0
 10
305.7483331189092723
 20
63.4078571147211676
 30
0.0
 11
305.7483331189092723
 21
63.5259673509211709
 31
0.0
  0
LINE
  5
A0DA
  8
0
 10
305.7589606753094245
 20
63.5259673509211709
 30
0.0
 11
305.7589606753094245
 21
63.4078571147211676
 31
0.0
  0
LINE
  5
A0DB
  8
0
 10
305.7738405469092982
 20
63.4078571147211676
 30
0.0
 11
305.7738405469092982
 21
63.5259673509211709
 31
0.0
  0
LINE
  5
A0DC
  8
0
 10
305.7854808440093279
 20
63.5259673509211709
 30
0.0
 11
305.7854808440093279
 21
63.4078571147211676
 31
0.0
  0
LINE
  5
A0DD
  8
0
 10
305.8003716007092976
 20
63.5259673509211709
 30
0.0
 11
305.8003716007092976
 21
63.4078571147211676
 31
0.0
  0
LINE
  5
A0DE
  8
0
 10
305.8130042176093752
 20
63.4078571147211676
 30
0.0
 11
305.8130042176093752
 21
63.5259673509211709
 31
0.0
  0
LINE
  5
A0DF
  8
0
 10
305.8278797359092778
 20
63.5259673509211709
 30
0.0
 11
305.8278797359092778
 21
63.4078571147211676
 31
0.0
  0
LINE
  5
A0E0
  8
0
 10
305.8414825105093087
 20
63.4078571147211676
 30
0.0
 11
305.8414825105093087
 21
63.5259673509211709
 31
0.0
  0
LINE
  5
A0E1
  8
0
 10
305.8563166938092763
 20
63.5259673509211709
 30
0.0
 11
305.8563166938092763
 21
63.4078571147211676
 31
0.0
  0
LINE
  5
A0E2
  8
0
 10
305.8708657624093803
 20
63.4078571147211676
 30
0.0
 11
305.8708657624093803
 21
63.5259673509211709
 31
0.0
  0
LINE
  5
A0E3
  8
0
 10
305.8856325864093719
 20
63.5259673509211709
 30
0.0
 11
305.8856325864093719
 21
63.4078571147211676
 31
0.0
  0
LINE
  5
A0E4
  8
0
 10
305.9011024249094248
 20
63.4078571147211676
 30
0.0
 11
305.9011024249094248
 21
63.5259673509211709
 31
0.0
  0
LINE
  5
A0E5
  8
0
 10
305.9157759836093078
 20
63.5259673509211709
 30
0.0
 11
305.9157759836093078
 21
63.4078571147211676
 31
0.0
  0
LINE
  5
A0E6
  8
0
 10
305.9321394526094195
 20
63.4078571147211676
 30
0.0
 11
305.9321394526094195
 21
63.5259673509211709
 31
0.0
  0
LINE
  5
A0E7
  8
0
 10
305.9466940036094229
 20
63.5259673509211709
 30
0.0
 11
305.9466940036094229
 21
63.4078571147211676
 31
0.0
  0
LINE
  5
A0E8
  8
0
 10
305.9639223961092966
 20
63.4078571147211676
 30
0.0
 11
305.9639223961092966
 21
63.5259673509211709
 31
0.0
  0
LINE
  5
A0E9
  8
0
 10
305.9783324057092955
 20
63.5259673509211709
 30
0.0
 11
305.9783324057092955
 21
63.4078571147211676
 31
0.0
  0
LINE
  5
A0EA
  8
0
 10
305.9963954973093223
 20
63.4078571147211676
 30
0.0
 11
305.9963954973093223
 21
63.5259673509211709
 31
0.0
  0
LINE
  5
A0EB
  8
0
 10
306.0106356855093281
 20
63.5259673509211709
 30
0.0
 11
306.0106356855093281
 21
63.4078571147211676
 31
0.0
  0
LINE
  5
A0EC
  8
0
 10
306.0295017873094139
 20
63.4078571147211676
 30
0.0
 11
306.0295017873094139
 21
63.5259673509211709
 31
0.0
  0
LINE
  5
A0ED
  8
0
 10
306.0435471720094256
 20
63.5259673509211709
 30
0.0
 11
306.0435471720094256
 21
63.4078571147211676
 31
0.0
  0
LINE
  5
A0EE
  8
0
 10
306.0631831865093773
 20
63.4078571147211676
 30
0.0
 11
306.0631831865093773
 21
63.5259673509211709
 31
0.0
  0
LINE
  5
A0EF
  8
0
 10
306.0770091273092817
 20
63.4078571147211676
 30
0.0
 11
306.0770091273092817
 21
63.5259673509211709
 31
0.0
  0
LINE
  5
A0F0
  8
0
 10
306.0973806062094127
 20
63.5259673509211709
 30
0.0
 11
306.0973806062094127
 21
63.4078571147211676
 31
0.0
  0
LINE
  5
A0F1
  8
0
 10
306.110962847709402
 20
63.5259673509211709
 30
0.0
 11
306.110962847709402
 21
63.4078571147211676
 31
0.0
  0
LINE
  5
A0F2
  8
0
 10
306.1320340525094252
 20
63.5259673509211709
 30
0.0
 11
306.1320340525094252
 21
63.4078571147211676
 31
0.0
  0
LINE
  5
A0F3
  8
0
 10
306.1453487669094216
 20
63.5259673509211709
 30
0.0
 11
306.1453487669094216
 21
63.4078571147211676
 31
0.0
  0
LINE
  5
A0F4
  8
0
 10
306.1538044414094202
 20
63.5259673509211709
 30
0.0
 11
306.1538044414094202
 21
63.4078571147211676
 31
0.0
  0
LINE
  5
A0F5
  8
0
 10
306.1670827316094119
 20
63.5259673509211709
 30
0.0
 11
306.1670827316094119
 21
63.4078571147211676
 31
0.0
  0
LINE
  5
A0F6
  8
0
 10
306.1801065602093104
 20
63.5259673509211709
 30
0.0
 11
306.1801065602093104
 21
63.4078571147211676
 31
0.0
  0
LINE
  5
A0F7
  8
0
 10
306.1890680959094198
 20
63.5259673509211709
 30
0.0
 11
306.1890680959094198
 21
63.4078571147211676
 31
0.0
  0
LINE
  5
A0F8
  8
0
 10
306.2024651560092821
 20
63.4078571147211676
 30
0.0
 11
306.2024651560092821
 21
63.5259673509211709
 31
0.0
  0
LINE
  5
A0F9
  8
0
 10
306.2151752507094216
 20
63.5259673509211709
 30
0.0
 11
306.2151752507094216
 21
63.4078571147211676
 31
0.0
  0
LINE
  5
A0FA
  8
0
 10
306.2246269260094209
 20
63.4078571147211676
 30
0.0
 11
306.2246269260094209
 21
63.5259673509211709
 31
0.0
  0
LINE
  5
A0FB
  8
0
 10
306.2381192531092893
 20
63.5259673509211709
 30
0.0
 11
306.2381192531092893
 21
63.4078571147211676
 31
0.0
  0
LINE
  5
A0FC
  8
0
 10
306.2504933161093277
 20
63.4078571147211676
 30
0.0
 11
306.2504933161093277
 21
63.5259673509211709
 31
0.0
  0
LINE
  5
A0FD
  8
0
 10
306.2604185494092803
 20
63.5259673509211709
 30
0.0
 11
306.2604185494092803
 21
63.4078571147211676
 31
0.0
  0
LINE
  5
A0FE
  8
0
 10
306.2739824734093759
 20
63.4078571147211676
 30
0.0
 11
306.2739824734093759
 21
63.5259673509211709
 31
0.0
  0
LINE
  5
A0FF
  8
0
 10
306.2859987963092863
 20
63.5259673509211709
 30
0.0
 11
306.2859987963092863
 21
63.4078571147211676
 31
0.0
  0
LINE
  5
A100
  8
0
 10
306.2963801755092845
 20
63.4078571147211676
 30
0.0
 11
306.2963801755092845
 21
63.5259673509211709
 31
0.0
  0
LINE
  5
A101
  8
0
 10
306.3099919007094059
 20
63.4078571147211676
 30
0.0
 11
306.3099919007094059
 21
63.5259673509211709
 31
0.0
  0
LINE
  5
A102
  8
0
 10
306.3216294028093216
 20
63.5259673509211709
 30
0.0
 11
306.3216294028093216
 21
63.4078571147211676
 31
0.0
  0
LINE
  5
A103
  8
0
 10
306.3324487154093276
 20
63.4078571147211676
 30
0.0
 11
306.3324487154093276
 21
63.5259673509211709
 31
0.0
  0
LINE
  5
A104
  8
0
 10
306.3460843621094227
 20
63.5259673509211709
 30
0.0
 11
306.3460843621094227
 21
63.4078571147211676
 31
0.0
  0
ARC
  5
A105
  8
0
 10
306.3573226273093724
 20
62.5338413672211715
 30
0.0
 40
1.2795275589999999
 50
328.9184668957071267
 51
47.6370229487814925
  0
LINE
  5
A106
  8
0
 10
306.9823226273093724
 20
65.5220303430211715
 30
0.0
 11
306.9823226273093724
 21
63.6834476659211717
 31
0.0
  0
LINE
  5
A107
  8
0
 10
307.2077163281094272
 20
65.9354161698211669
 30
0.0
 11
307.2077163281094272
 21
65.7976208942211684
 31
0.0
  0
LINE
  5
A108
  8
0
 10
307.2195003838094181
 20
65.7976208942211684
 30
0.0
 11
307.2195003838094181
 21
65.6795106580211723
 31
0.0
  0
ARC
  5
A109
  8
0
 10
306.9626244678094054
 20
65.7175843109211684
 30
0.0
 40
0.2480314960999979
 50
307.9615313459282788
 51
351.1699971038805757
  0
LINE
  5
A10A
  8
0
 10
307.218458543909378
 20
65.7976208942211684
 30
0.0
 11
307.218458543909378
 21
65.6795106580211723
 31
0.0
  0
LINE
  5
A10B
  8
0
 10
307.2159059791093796
 20
65.6795106580211723
 30
0.0
 11
307.2159059791093796
 21
65.7976208942211684
 31
0.0
  0
LINE
  5
A10C
  8
0
 10
307.2170472309093725
 20
65.7976208942211684
 30
0.0
 11
307.2170472309093725
 21
65.6795106580211723
 31
0.0
  0
LINE
  5
A10D
  8
0
 10
307.2118471673093723
 20
65.6795106580211723
 30
0.0
 11
307.2118471673093723
 21
65.7976208942211684
 31
0.0
  0
LINE
  5
A10E
  8
0
 10
307.2135565419093837
 20
65.7976208942211684
 30
0.0
 11
307.2135565419093837
 21
65.6795106580211723
 31
0.0
  0
LINE
  5
A10F
  8
0
 10
307.2062892291094158
 20
65.6795106580211723
 30
0.0
 11
307.2062892291094158
 21
65.7976208942211684
 31
0.0
  0
LINE
  5
A110
  8
0
 10
307.2085637277094179
 20
65.7976208942211684
 30
0.0
 11
307.2085637277094179
 21
65.6795106580211723
 31
0.0
  0
LINE
  5
A111
  8
0
 10
307.1992419151093827
 20
65.6795106580211723
 30
0.0
 11
307.1992419151093827
 21
65.7976208942211684
 31
0.0
  0
LINE
  5
A112
  8
0
 10
307.2020775473092726
 20
65.7976208942211684
 30
0.0
 11
307.2020775473092726
 21
65.6795106580211723
 31
0.0
  0
ARC
  5
A113
  8
0
 10
306.962624468628519
 20
63.4878936984644184
 30
0.0
 40
0.248031495167791
 50
8.8300027426319136
 51
52.0384687636228804
  0
LINE
  5
A114
  8
0
 10
307.5029919187094265
 20
61.5889594769211683
 30
0.0
 11
307.20968483170941
 21
63.2621878233211703
 31
0.0
  0
LINE
  5
A115
  8
0
 10
307.1151966431094138
 20
63.2700618391211691
 30
0.0
 11
307.1151966431094138
 21
63.2621878233211703
 31
0.0
  0
ARC
  5
A116
  8
0
 10
306.790404517109323
 20
59.856664988721171
 30
0.0
 40
0.5118000000000001
 50
270.0
 51
0.0
  0
LINE
  5
A117
  8
0
 10
307.1941093798092766
 20
65.6795106580211723
 30
0.0
 11
307.1941093798092766
 21
65.7976208942211684
 31
0.0
  0
LINE
  5
A118
  8
0
 10
307.1907175884094272
 20
65.7976208942211684
 30
0.0
 11
307.1907175884094272
 21
65.6795106580211723
 31
0.0
  0
LINE
  5
A119
  8
0
 10
307.1846732039094263
 20
65.6795106580211723
 30
0.0
 11
307.1846732039094263
 21
65.7976208942211684
 31
0.0
  0
LINE
  5
A11A
  8
0
 10
307.1807312039093745
 20
65.7976208942211684
 30
0.0
 11
307.1807312039093745
 21
65.6795106580211723
 31
0.0
  0
LINE
  5
A11B
  8
0
 10
307.1737855740094005
 20
65.6795106580211723
 30
0.0
 11
307.1737855740094005
 21
65.7976208942211684
 31
0.0
  0
LINE
  5
A11C
  8
0
 10
307.1693002809093969
 20
65.6795106580211723
 30
0.0
 11
307.1693002809093969
 21
65.7976208942211684
 31
0.0
  0
LINE
  5
A11D
  8
0
 10
307.1614655907093265
 20
65.7976208942211684
 30
0.0
 11
307.1614655907093265
 21
65.6795106580211723
 31
0.0
  0
LINE
  5
A11E
  8
0
 10
307.1564448732094093
 20
65.7976208942211684
 30
0.0
 11
307.1564448732094093
 21
65.6795106580211723
 31
0.0
  0
LINE
  5
A11F
  8
0
 10
307.147734867309282
 20
65.7976208942211684
 30
0.0
 11
307.147734867309282
 21
65.6795106580211723
 31
0.0
  0
LINE
  5
A120
  8
0
 10
307.1421875335094001
 20
65.7976208942211684
 30
0.0
 11
307.1421875335094001
 21
65.6795106580211723
 31
0.0
  0
LINE
  5
A121
  8
0
 10
307.1326174923094072
 20
65.7976208942211684
 30
0.0
 11
307.1326174923094072
 21
65.6795106580211723
 31
0.0
  0
LINE
  5
A122
  8
0
 10
307.1265532741094262
 20
65.6795106580211723
 30
0.0
 11
307.1265532741094262
 21
65.7976208942211684
 31
0.0
  0
LINE
  5
A123
  8
0
 10
307.1161399866094257
 20
65.7976208942211684
 30
0.0
 11
307.1161399866094257
 21
65.6795106580211723
 31
0.0
  0
LINE
  5
A124
  8
0
 10
307.1095695227094211
 20
65.6795106580211723
 30
0.0
 11
307.1095695227094211
 21
65.7976208942211684
 31
0.0
  0
LINE
  5
A125
  8
0
 10
307.0983312575094146
 20
65.7976208942211684
 30
0.0
 11
307.0983312575094146
 21
65.6795106580211723
 31
0.0
  0
LINE
  5
A126
  8
0
 10
307.0912660747093241
 20
65.7976208942211684
 30
0.0
 11
307.0912660747093241
 21
65.6795106580211723
 31
0.0
  0
LINE
  5
A127
  8
0
 10
307.0792225474094153
 20
65.7976208942211684
 30
0.0
 11
307.0792225474094153
 21
65.6795106580211723
 31
0.0
  0
LINE
  5
A128
  8
0
 10
307.071675040409275
 20
65.7976208942211684
 30
0.0
 11
307.071675040409275
 21
65.6795106580211723
 31
0.0
  0
LINE
  5
A129
  8
0
 10
307.0588473796092899
 20
65.7976208942211684
 30
0.0
 11
307.0588473796092899
 21
65.6795106580211723
 31
0.0
  0
LINE
  5
A12A
  8
0
 10
307.0508307893093729
 20
65.6795106580211723
 30
0.0
 11
307.0508307893093729
 21
65.7976208942211684
 31
0.0
  0
LINE
  5
A12B
  8
0
 10
307.0372414989093954
 20
65.6795106580211723
 30
0.0
 11
307.0372414989093954
 21
65.7976208942211684
 31
0.0
  0
LINE
  5
A12C
  8
0
 10
307.0287698893092738
 20
65.7976208942211684
 30
0.0
 11
307.0287698893092738
 21
65.6795106580211723
 31
0.0
  0
LINE
  5
A12D
  8
0
 10
307.0144428095093758
 20
65.6795106580211723
 30
0.0
 11
307.0144428095093758
 21
65.7976208942211684
 31
0.0
  0
LINE
  5
A12E
  8
0
 10
307.0055310425094035
 20
65.7976208942211684
 30
0.0
 11
307.0055310425094035
 21
65.6795106580211723
 31
0.0
  0
LINE
  5
A12F
  8
0
 10
306.9904913081094264
 20
65.6795106580211723
 30
0.0
 11
306.9907511892092771
 21
65.7976208942211684
 31
0.0
  0
LINE
  5
A130
  8
0
 10
306.9811550180093036
 20
65.7976208942211684
 30
0.0
 11
306.9811550180093036
 21
65.6795106580211723
 31
0.0
  0
LINE
  5
A131
  8
0
 10
306.9663121358094031
 20
65.6795106580211723
 30
0.0
 11
306.9663121358094031
 21
65.7976208942211684
 31
0.0
  0
LINE
  5
A132
  8
0
 10
306.9556845794094215
 20
65.7976208942211684
 30
0.0
 11
306.9556845794094215
 21
65.6795106580211723
 31
0.0
  0
LINE
  5
A133
  8
0
 10
306.9408047078093205
 20
65.6795106580211723
 30
0.0
 11
306.9408047078093205
 21
65.7976208942211684
 31
0.0
  0
LINE
  5
A134
  8
0
 10
306.9291644107094044
 20
65.7976208942211684
 30
0.0
 11
306.9291644107094044
 21
65.6795106580211723
 31
0.0
  0
LINE
  5
A135
  8
0
 10
306.914273654009321
 20
65.7976208942211684
 30
0.0
 11
306.914273654009321
 21
65.6795106580211723
 31
0.0
  0
LINE
  5
A136
  8
0
 10
306.9016410371093002
 20
65.6795106580211723
 30
0.0
 11
306.9016410371093002
 21
65.7976208942211684
 31
0.0
  0
LINE
  5
A137
  8
0
 10
306.8867655188093977
 20
65.7976208942211684
 30
0.0
 11
306.8867655188093977
 21
65.6795106580211723
 31
0.0
  0
LINE
  5
A138
  8
0
 10
306.8731627442094236
 20
65.6795106580211723
 30
0.0
 11
306.8731627442094236
 21
65.7976208942211684
 31
0.0
  0
LINE
  5
A139
  8
0
 10
306.8583285609092854
 20
65.7976208942211684
 30
0.0
 11
306.8583285609092854
 21
65.6795106580211723
 31
0.0
  0
LINE
  5
A13A
  8
0
 10
306.8437794923092952
 20
65.6795106580211723
 30
0.0
 11
306.8437794923092952
 21
65.7976208942211684
 31
0.0
  0
LINE
  5
A13B
  8
0
 10
306.8290126683093035
 20
65.7976208942211684
 30
0.0
 11
306.8290126683093035
 21
65.6795106580211723
 31
0.0
  0
LINE
  5
A13C
  8
0
 10
306.8135428298094212
 20
65.6795106580211723
 30
0.0
 11
306.8135428298094212
 21
65.7976208942211684
 31
0.0
  0
LINE
  5
A13D
  8
0
 10
306.7988692711093108
 20
65.7976208942211684
 30
0.0
 11
306.7988692711093108
 21
65.6795106580211723
 31
0.0
  0
LINE
  5
A13E
  8
0
 10
306.7825058021094264
 20
65.6795106580211723
 30
0.0
 11
306.7825058021094264
 21
65.7976208942211684
 31
0.0
  0
LINE
  5
A13F
  8
0
 10
306.7679512511094231
 20
65.7976208942211684
 30
0.0
 11
306.7679512511094231
 21
65.6795106580211723
 31
0.0
  0
LINE
  5
A140
  8
0
 10
306.7507228586093788
 20
65.6795106580211723
 30
0.0
 11
306.7507228586093788
 21
65.7976208942211684
 31
0.0
  0
LINE
  5
A141
  8
0
 10
306.7363128490093231
 20
65.7976208942211684
 30
0.0
 11
306.7363128490093231
 21
65.6795106580211723
 31
0.0
  0
LINE
  5
A142
  8
0
 10
306.71824975740941
 20
65.6795106580211723
 30
0.0
 11
306.71824975740941
 21
65.7976208942211684
 31
0.0
  0
LINE
  5
A143
  8
0
 10
306.7040095692092905
 20
65.7976208942211684
 30
0.0
 11
306.7040095692092905
 21
65.6795106580211723
 31
0.0
  0
LINE
  5
A144
  8
0
 10
306.6851434674093753
 20
65.6795106580211723
 30
0.0
 11
306.6851434674093753
 21
65.7976208942211684
 31
0.0
  0
LINE
  5
A145
  8
0
 10
306.6710980827094204
 20
65.7976208942211684
 30
0.0
 11
306.6710980827094204
 21
65.6795106580211723
 31
0.0
  0
LINE
  5
A146
  8
0
 10
306.6514620682092982
 20
65.6795106580211723
 30
0.0
 11
306.6514620682092982
 21
65.7976208942211684
 31
0.0
  0
LINE
  5
A147
  8
0
 10
306.6376361274092801
 20
65.6795106580211723
 30
0.0
 11
306.6376361274092801
 21
65.7976208942211684
 31
0.0
  0
LINE
  5
A148
  8
0
 10
306.6172646485093765
 20
65.7976208942211684
 30
0.0
 11
306.6172646485093765
 21
65.6795106580211723
 31
0.0
  0
LINE
  5
A149
  8
0
 10
306.6036824070092734
 20
65.7976208942211684
 30
0.0
 11
306.6036824070092734
 21
65.6795106580211723
 31
0.0
  0
LINE
  5
A14A
  8
0
 10
306.5826112022094208
 20
65.7976208942211684
 30
0.0
 11
306.5826112022094208
 21
65.6795106580211723
 31
0.0
  0
LINE
  5
A14B
  8
0
 10
306.5692964878094244
 20
65.7976208942211684
 30
0.0
 11
306.5692964878094244
 21
65.6795106580211723
 31
0.0
  0
LINE
  5
A14C
  8
0
 10
306.5608408133094258
 20
65.7976208942211684
 30
0.0
 11
306.5608408133094258
 21
65.6795106580211723
 31
0.0
  0
LINE
  5
A14D
  8
0
 10
306.5475625231093773
 20
65.7976208942211684
 30
0.0
 11
306.5475625231093773
 21
65.6795106580211723
 31
0.0
  0
LINE
  5
A14E
  8
0
 10
306.5345386945093082
 20
65.7976208942211684
 30
0.0
 11
306.5345386945093082
 21
65.6795106580211723
 31
0.0
  0
LINE
  5
A14F
  8
0
 10
306.5255771588094262
 20
65.7976208942211684
 30
0.0
 11
306.5255771588094262
 21
65.6795106580211723
 31
0.0
  0
LINE
  5
A150
  8
0
 10
306.5121800987092797
 20
65.6795106580211723
 30
0.0
 11
306.5121800987092797
 21
65.7976208942211684
 31
0.0
  0
LINE
  5
A151
  8
0
 10
306.4994700040094244
 20
65.7976208942211684
 30
0.0
 11
306.4994700040094244
 21
65.6795106580211723
 31
0.0
  0
LINE
  5
A152
  8
0
 10
306.4900183287094251
 20
65.6795106580211723
 30
0.0
 11
306.4900183287094251
 21
65.7976208942211684
 31
0.0
  0
LINE
  5
A153
  8
0
 10
306.4765260016092725
 20
65.7976208942211684
 30
0.0
 11
306.4765260016092725
 21
65.6795106580211723
 31
0.0
  0
LINE
  5
A154
  8
0
 10
306.4641519386094046
 20
65.6795106580211723
 30
0.0
 11
306.4641519386094046
 21
65.7976208942211684
 31
0.0
  0
LINE
  5
A155
  8
0
 10
306.4542267053092814
 20
65.7976208942211684
 30
0.0
 11
306.4542267053092814
 21
65.6795106580211723
 31
0.0
  0
LINE
  5
A156
  8
0
 10
306.4406627813092996
 20
65.6795106580211723
 30
0.0
 11
306.4406627813092996
 21
65.7976208942211684
 31
0.0
  0
LINE
  5
A157
  8
0
 10
306.4286464584092755
 20
65.7976208942211684
 30
0.0
 11
306.4286464584092755
 21
65.6795106580211723
 31
0.0
  0
LINE
  5
A158
  8
0
 10
306.4182650792092772
 20
65.6795106580211723
 30
0.0
 11
306.4182650792092772
 21
65.7976208942211684
 31
0.0
  0
LINE
  5
A159
  8
0
 10
306.4046533540093833
 20
65.6795106580211723
 30
0.0
 11
306.4046533540093833
 21
65.7976208942211684
 31
0.0
  0
LINE
  5
A15A
  8
0
 10
306.393015851909297
 20
65.7976208942211684
 30
0.0
 11
306.393015851909297
 21
65.6795106580211723
 31
0.0
  0
LINE
  5
A15B
  8
0
 10
306.382196539309291
 20
65.6795106580211723
 30
0.0
 11
306.382196539309291
 21
65.7976208942211684
 31
0.0
  0
LINE
  5
A15C
  8
0
 10
306.3685608926093096
 20
65.7976208942211684
 30
0.0
 11
306.3685608926093096
 21
65.6795106580211723
 31
0.0
  0
LINE
  5
A15D
  8
0
 10
307.218458543909378
 20
63.5259673509211709
 30
0.0
 11
307.218458543909378
 21
63.4078571147211676
 31
0.0
  0
LINE
  5
A15E
  8
0
 10
307.2159059791093796
 20
63.4078571147211676
 30
0.0
 11
307.2159059791093796
 21
63.5259673509211709
 31
0.0
  0
LINE
  5
A15F
  8
0
 10
307.2170472309093725
 20
63.5259673509211709
 30
0.0
 11
307.2170472309093725
 21
63.4078571147211676
 31
0.0
  0
LINE
  5
A160
  8
0
 10
307.2118471673093723
 20
63.4078571147211676
 30
0.0
 11
307.2118471673093723
 21
63.5259673509211709
 31
0.0
  0
LINE
  5
A161
  8
0
 10
307.2135565419093837
 20
63.5259673509211709
 30
0.0
 11
307.2135565419093837
 21
63.4078571147211676
 31
0.0
  0
LINE
  5
A162
  8
0
 10
307.2062892291094158
 20
63.4078571147211676
 30
0.0
 11
307.2062892291094158
 21
63.5259673509211709
 31
0.0
  0
LINE
  5
A163
  8
0
 10
307.2085637277094179
 20
63.5259673509211709
 30
0.0
 11
307.2085637277094179
 21
63.4078571147211676
 31
0.0
  0
LINE
  5
A164
  8
0
 10
307.1992419151093827
 20
63.4078571147211676
 30
0.0
 11
307.1992419151093827
 21
63.5259673509211709
 31
0.0
  0
LINE
  5
A165
  8
0
 10
307.2020775473092726
 20
63.5259673509211709
 30
0.0
 11
307.2020775473092726
 21
63.4078571147211676
 31
0.0
  0
LINE
  5
A166
  8
0
 10
307.1941093798092766
 20
63.4078571147211676
 30
0.0
 11
307.1941093798092766
 21
63.5259673509211709
 31
0.0
  0
LINE
  5
A167
  8
0
 10
307.1907175884094272
 20
63.5259673509211709
 30
0.0
 11
307.1907175884094272
 21
63.4078571147211676
 31
0.0
  0
LINE
  5
A168
  8
0
 10
307.1846732039094263
 20
63.4078571147211676
 30
0.0
 11
307.1846732039094263
 21
63.5259673509211709
 31
0.0
  0
LINE
  5
A169
  8
0
 10
307.1807312039093745
 20
63.5259673509211709
 30
0.0
 11
307.1807312039093745
 21
63.4078571147211676
 31
0.0
  0
LINE
  5
A16A
  8
0
 10
307.1737855740094005
 20
63.4078571147211676
 30
0.0
 11
307.1737855740094005
 21
63.5259673509211709
 31
0.0
  0
LINE
  5
A16B
  8
0
 10
307.1693002809093969
 20
63.4078571147211676
 30
0.0
 11
307.1693002809093969
 21
63.5259673509211709
 31
0.0
  0
LINE
  5
A16C
  8
0
 10
307.1614655907093265
 20
63.5259673509211709
 30
0.0
 11
307.1614655907093265
 21
63.4078571147211676
 31
0.0
  0
LINE
  5
A16D
  8
0
 10
307.1564448732094093
 20
63.5259673509211709
 30
0.0
 11
307.1564448732094093
 21
63.4078571147211676
 31
0.0
  0
LINE
  5
A16E
  8
0
 10
307.147734867309282
 20
63.5259673509211709
 30
0.0
 11
307.147734867309282
 21
63.4078571147211676
 31
0.0
  0
LINE
  5
A16F
  8
0
 10
307.1421875335094001
 20
63.5259673509211709
 30
0.0
 11
307.1421875335094001
 21
63.4078571147211676
 31
0.0
  0
LINE
  5
A170
  8
0
 10
307.1326174923094072
 20
63.5259673509211709
 30
0.0
 11
307.1326174923094072
 21
63.4078571147211676
 31
0.0
  0
LINE
  5
A171
  8
0
 10
307.1265532741094262
 20
63.4078571147211676
 30
0.0
 11
307.1265532741094262
 21
63.5259673509211709
 31
0.0
  0
LINE
  5
A172
  8
0
 10
307.1161399866094257
 20
63.5259673509211709
 30
0.0
 11
307.1161399866094257
 21
63.4078571147211676
 31
0.0
  0
LINE
  5
A173
  8
0
 10
307.1095695227094211
 20
63.4078571147211676
 30
0.0
 11
307.1095695227094211
 21
63.5259673509211709
 31
0.0
  0
LINE
  5
A174
  8
0
 10
307.0983312575094146
 20
63.5259673509211709
 30
0.0
 11
307.0983312575094146
 21
63.4078571147211676
 31
0.0
  0
LINE
  5
A175
  8
0
 10
307.0912660747093241
 20
63.5259673509211709
 30
0.0
 11
307.0912660747093241
 21
63.4078571147211676
 31
0.0
  0
LINE
  5
A176
  8
0
 10
307.0792225474094153
 20
63.5259673509211709
 30
0.0
 11
307.0792225474094153
 21
63.4078571147211676
 31
0.0
  0
LINE
  5
A177
  8
0
 10
307.071675040409275
 20
63.5259673509211709
 30
0.0
 11
307.071675040409275
 21
63.4078571147211676
 31
0.0
  0
LINE
  5
A178
  8
0
 10
307.0588473796092899
 20
63.5259673509211709
 30
0.0
 11
307.0588473796092899
 21
63.4078571147211676
 31
0.0
  0
LINE
  5
A179
  8
0
 10
307.0508307893093729
 20
63.4078571147211676
 30
0.0
 11
307.0508307893093729
 21
63.5259673509211709
 31
0.0
  0
LINE
  5
A17A
  8
0
 10
307.0372414989093954
 20
63.4078571147211676
 30
0.0
 11
307.0372414989093954
 21
63.5259673509211709
 31
0.0
  0
LINE
  5
A17B
  8
0
 10
307.0287698893092738
 20
63.5259673509211709
 30
0.0
 11
307.0287698893092738
 21
63.4078571147211676
 31
0.0
  0
LINE
  5
A17C
  8
0
 10
307.0144428095093758
 20
63.4078571147211676
 30
0.0
 11
307.0144428095093758
 21
63.5259673509211709
 31
0.0
  0
LINE
  5
A17D
  8
0
 10
307.0055310425094035
 20
63.5259673509211709
 30
0.0
 11
307.0055310425094035
 21
63.4078571147211676
 31
0.0
  0
LINE
  5
A17E
  8
0
 10
306.9904913081094264
 20
63.4078571147211676
 30
0.0
 11
306.9907511892092771
 21
63.5259673509211709
 31
0.0
  0
LINE
  5
A17F
  8
0
 10
306.9811550180093036
 20
63.5259673509211709
 30
0.0
 11
306.9811550180093036
 21
63.4078571147211676
 31
0.0
  0
LINE
  5
A180
  8
0
 10
306.9663121358094031
 20
63.4078571147211676
 30
0.0
 11
306.9663121358094031
 21
63.5259673509211709
 31
0.0
  0
LINE
  5
A181
  8
0
 10
306.9556845794094215
 20
63.5259673509211709
 30
0.0
 11
306.9556845794094215
 21
63.4078571147211676
 31
0.0
  0
LINE
  5
A182
  8
0
 10
306.9408047078093205
 20
63.4078571147211676
 30
0.0
 11
306.9408047078093205
 21
63.5259673509211709
 31
0.0
  0
LINE
  5
A183
  8
0
 10
306.9291644107094044
 20
63.5259673509211709
 30
0.0
 11
306.9291644107094044
 21
63.4078571147211676
 31
0.0
  0
LINE
  5
A184
  8
0
 10
306.914273654009321
 20
63.5259673509211709
 30
0.0
 11
306.914273654009321
 21
63.4078571147211676
 31
0.0
  0
LINE
  5
A185
  8
0
 10
306.9016410371093002
 20
63.4078571147211676
 30
0.0
 11
306.9016410371093002
 21
63.5259673509211709
 31
0.0
  0
LINE
  5
A186
  8
0
 10
306.8867655188093977
 20
63.5259673509211709
 30
0.0
 11
306.8867655188093977
 21
63.4078571147211676
 31
0.0
  0
LINE
  5
A187
  8
0
 10
306.8731627442094236
 20
63.4078571147211676
 30
0.0
 11
306.8731627442094236
 21
63.5259673509211709
 31
0.0
  0
LINE
  5
A188
  8
0
 10
306.8583285609092854
 20
63.5259673509211709
 30
0.0
 11
306.8583285609092854
 21
63.4078571147211676
 31
0.0
  0
LINE
  5
A189
  8
0
 10
306.8437794923092952
 20
63.4078571147211676
 30
0.0
 11
306.8437794923092952
 21
63.5259673509211709
 31
0.0
  0
LINE
  5
A18A
  8
0
 10
306.8290126683093035
 20
63.5259673509211709
 30
0.0
 11
306.8290126683093035
 21
63.4078571147211676
 31
0.0
  0
LINE
  5
A18B
  8
0
 10
306.8135428298094212
 20
63.4078571147211676
 30
0.0
 11
306.8135428298094212
 21
63.5259673509211709
 31
0.0
  0
LINE
  5
A18C
  8
0
 10
306.7988692711093108
 20
63.5259673509211709
 30
0.0
 11
306.7988692711093108
 21
63.4078571147211676
 31
0.0
  0
LINE
  5
A18D
  8
0
 10
306.7825058021094264
 20
63.4078571147211676
 30
0.0
 11
306.7825058021094264
 21
63.5259673509211709
 31
0.0
  0
LINE
  5
A18E
  8
0
 10
306.7679512511094231
 20
63.5259673509211709
 30
0.0
 11
306.7679512511094231
 21
63.4078571147211676
 31
0.0
  0
LINE
  5
A18F
  8
0
 10
306.7507228586093788
 20
63.4078571147211676
 30
0.0
 11
306.7507228586093788
 21
63.5259673509211709
 31
0.0
  0
LINE
  5
A190
  8
0
 10
306.7363128490093231
 20
63.5259673509211709
 30
0.0
 11
306.7363128490093231
 21
63.4078571147211676
 31
0.0
  0
LINE
  5
A191
  8
0
 10
306.71824975740941
 20
63.4078571147211676
 30
0.0
 11
306.71824975740941
 21
63.5259673509211709
 31
0.0
  0
LINE
  5
A192
  8
0
 10
306.7040095692092905
 20
63.5259673509211709
 30
0.0
 11
306.7040095692092905
 21
63.4078571147211676
 31
0.0
  0
LINE
  5
A193
  8
0
 10
306.6851434674093753
 20
63.4078571147211676
 30
0.0
 11
306.6851434674093753
 21
63.5259673509211709
 31
0.0
  0
LINE
  5
A194
  8
0
 10
306.6710980827094204
 20
63.5259673509211709
 30
0.0
 11
306.6710980827094204
 21
63.4078571147211676
 31
0.0
  0
LINE
  5
A195
  8
0
 10
306.6514620682092982
 20
63.4078571147211676
 30
0.0
 11
306.6514620682092982
 21
63.5259673509211709
 31
0.0
  0
LINE
  5
A196
  8
0
 10
306.6376361274092801
 20
63.4078571147211676
 30
0.0
 11
306.6376361274092801
 21
63.5259673509211709
 31
0.0
  0
LINE
  5
A197
  8
0
 10
306.6172646485093765
 20
63.5259673509211709
 30
0.0
 11
306.6172646485093765
 21
63.4078571147211676
 31
0.0
  0
LINE
  5
A198
  8
0
 10
306.6036824070092734
 20
63.5259673509211709
 30
0.0
 11
306.6036824070092734
 21
63.4078571147211676
 31
0.0
  0
LINE
  5
A199
  8
0
 10
306.5826112022094208
 20
63.5259673509211709
 30
0.0
 11
306.5826112022094208
 21
63.4078571147211676
 31
0.0
  0
LINE
  5
A19A
  8
0
 10
306.5692964878094244
 20
63.5259673509211709
 30
0.0
 11
306.5692964878094244
 21
63.4078571147211676
 31
0.0
  0
LINE
  5
A19B
  8
0
 10
306.5608408133094258
 20
63.5259673509211709
 30
0.0
 11
306.5608408133094258
 21
63.4078571147211676
 31
0.0
  0
LINE
  5
A19C
  8
0
 10
306.5475625231093773
 20
63.5259673509211709
 30
0.0
 11
306.5475625231093773
 21
63.4078571147211676
 31
0.0
  0
LINE
  5
A19D
  8
0
 10
306.5345386945093082
 20
63.5259673509211709
 30
0.0
 11
306.5345386945093082
 21
63.4078571147211676
 31
0.0
  0
LINE
  5
A19E
  8
0
 10
306.5255771588094262
 20
63.5259673509211709
 30
0.0
 11
306.5255771588094262
 21
63.4078571147211676
 31
0.0
  0
LINE
  5
A19F
  8
0
 10
306.5121800987092797
 20
63.4078571147211676
 30
0.0
 11
306.5121800987092797
 21
63.5259673509211709
 31
0.0
  0
LINE
  5
A1A0
  8
0
 10
306.4994700040094244
 20
63.5259673509211709
 30
0.0
 11
306.4994700040094244
 21
63.4078571147211676
 31
0.0
  0
LINE
  5
A1A1
  8
0
 10
306.4900183287094251
 20
63.4078571147211676
 30
0.0
 11
306.4900183287094251
 21
63.5259673509211709
 31
0.0
  0
LINE
  5
A1A2
  8
0
 10
306.4765260016092725
 20
63.5259673509211709
 30
0.0
 11
306.4765260016092725
 21
63.4078571147211676
 31
0.0
  0
LINE
  5
A1A3
  8
0
 10
306.4641519386094046
 20
63.4078571147211676
 30
0.0
 11
306.4641519386094046
 21
63.5259673509211709
 31
0.0
  0
LINE
  5
A1A4
  8
0
 10
306.4542267053092814
 20
63.5259673509211709
 30
0.0
 11
306.4542267053092814
 21
63.4078571147211676
 31
0.0
  0
LINE
  5
A1A5
  8
0
 10
306.4406627813092996
 20
63.4078571147211676
 30
0.0
 11
306.4406627813092996
 21
63.5259673509211709
 31
0.0
  0
LINE
  5
A1A6
  8
0
 10
306.4286464584092755
 20
63.5259673509211709
 30
0.0
 11
306.4286464584092755
 21
63.4078571147211676
 31
0.0
  0
LINE
  5
A1A7
  8
0
 10
306.4182650792092772
 20
63.4078571147211676
 30
0.0
 11
306.4182650792092772
 21
63.5259673509211709
 31
0.0
  0
LINE
  5
A1A8
  8
0
 10
306.4046533540093833
 20
63.4078571147211676
 30
0.0
 11
306.4046533540093833
 21
63.5259673509211709
 31
0.0
  0
LINE
  5
A1A9
  8
0
 10
306.393015851909297
 20
63.5259673509211709
 30
0.0
 11
306.393015851909297
 21
63.4078571147211676
 31
0.0
  0
LINE
  5
A1AA
  8
0
 10
306.382196539309291
 20
63.4078571147211676
 30
0.0
 11
306.382196539309291
 21
63.5259673509211709
 31
0.0
  0
LINE
  5
A1AB
  8
0
 10
306.3685608926093096
 20
63.5259673509211709
 30
0.0
 11
306.3685608926093096
 21
63.4078571147211676
 31
0.0
  0
ENDSEC
  0
EOF
