  0
SECTION
  2
HEADER
  9
$ACADVER
  1
AC1009
  9
$INSBASE
 10
4989.7994049692733824
 20
554.7323988858707935
 30
0.0
  9
$EXTMIN
 10
4981.8044795950372645
 20
554.7323988858676103
 30
0.0
  9
$EXTMAX
 10
4997.3074965524992876
 20
584.1812177835707871
 30
0.0
  9
$LIMMIN
 10
0.0
 20
0.0
  9
$LIMMAX
 10
11.6929133858000007
 20
8.2677165353999982
  9
$ORTHOMODE
 70
     0
  9
$REGENMODE
 70
     1
  9
$FILLMODE
 70
     1
  9
$QTEXTMODE
 70
     0
  9
$MIRRTEXT
 70
     0
  9
$DRAGMODE
 70
     2
  9
$LTSCALE
 40
0.6431102362
  9
$OSMODE
 70
     7
  9
$ATTMODE
 70
     1
  9
$TEXTSIZE
 40
0.2
  9
$TRACEWID
 40
0.05
  9
$TEXTSTYLE
  7
STANDARD
  9
$CLAYER
  8
0
  9
$CELTYPE
  6
BYLAYER
  9
$CECOLOR
 62
   256
  9
$DIMSCALE
 40
1.0
  9
$DIMASZ
 40
0.1875
  9
$DIMEXO
 40
0.0625
  9
$DIMDLI
 40
0.4443307087
  9
$DIMRND
 40
0.0
  9
$DIMDLE
 40
0.0
  9
$DIMEXE
 40
0.125
  9
$DIMTP
 40
0.01
  9
$DIMTM
 40
0.01
  9
$DIMTXT
 40
2.0
  9
$DIMCEN
 40
0.1052362205
  9
$DIMTSZ
 40
0.0
  9
$DIMTOL
 70
     1
  9
$DIMLIM
 70
     0
  9
$DIMTIH
 70
     1
  9
$DIMTOH
 70
     1
  9
$DIMSE1
 70
     0
  9
$DIMSE2
 70
     0
  9
$DIMTAD
 70
     0
  9
$DIMZIN
 70
     0
  9
$DIMBLK
  1

  9
$DIMASO
 70
     1
  9
$DIMSHO
 70
     1
  9
$DIMPOST
  1
\X
  9
$DIMAPOST
  1

  9
$DIMALT
 70
     1
  9
$DIMALTD
 70
     2
  9
$DIMALTF
 40
25.3999999999999986
  9
$DIMLFAC
 40
1.0
  9
$DIMTOFL
 70
     0
  9
$DIMTVP
 40
0.0
  9
$DIMTIX
 70
     0
  9
$DIMSOXD
 70
     0
  9
$DIMSAH
 70
     0
  9
$DIMBLK1
  1

  9
$DIMBLK2
  1

  9
$DIMSTYLE
  2
STANDARD
  9
$DIMCLRD
 70
     0
  9
$DIMCLRE
 70
     0
  9
$DIMCLRT
 70
     0
  9
$DIMTFAC
 40
1.0
  9
$DIMGAP
 40
0.09
  9
$LUNITS
 70
     2
  9
$LUPREC
 70
     4
  9
$SKETCHINC
 40
0.1
  9
$FILLETRAD
 40
0.0
  9
$AUNITS
 70
     0
  9
$AUPREC
 70
     0
  9
$MENU
  1
.
  9
$ELEVATION
 40
0.0
  9
$PELEVATION
 40
0.0
  9
$THICKNESS
 40
0.0
  9
$LIMCHECK
 70
     0
  9
$BLIPMODE
 70
     0
  9
$CHAMFERA
 40
0.0
  9
$CHAMFERB
 40
0.0
  9
$SKPOLY
 70
     0
  9
$TDCREATE
 40
2458060.468368056230247
  9
$TDUPDATE
 40
2459457.6310416669584811
  9
$TDINDWG
 40
1.6737237731000001
  9
$TDUSRTIMER
 40
1.6737237731000001
  9
$USRTIMER
 70
     1
  9
$ANGBASE
 50
0.0
  9
$ANGDIR
 70
     0
  9
$PDMODE
 70
     0
  9
$PDSIZE
 40
0.3125
  9
$PLINEWID
 40
0.0
  9
$COORDS
 70
     1
  9
$SPLFRAME
 70
     0
  9
$SPLINETYPE
 70
     6
  9
$SPLINESEGS
 70
     8
  9
$ATTDIA
 70
     1
  9
$ATTREQ
 70
     1
  9
$HANDLING
 70
     1
  9
$HANDSEED
  5
1F025
  9
$SURFTAB1
 70
     6
  9
$SURFTAB2
 70
     6
  9
$SURFTYPE
 70
     6
  9
$SURFU
 70
     6
  9
$SURFV
 70
     6
  9
$UCSNAME
  2

  9
$UCSORG
 10
0.0
 20
0.0
 30
0.0
  9
$UCSXDIR
 10
1.0
 20
0.0
 30
0.0
  9
$UCSYDIR
 10
0.0
 20
1.0
 30
0.0
  9
$PUCSNAME
  2

  9
$PUCSORG
 10
0.0
 20
0.0
 30
0.0
  9
$PUCSXDIR
 10
1.0
 20
0.0
 30
0.0
  9
$PUCSYDIR
 10
0.0
 20
1.0
 30
0.0
  9
$USERI1
 70
     0
  9
$USERI2
 70
     0
  9
$USERI3
 70
     0
  9
$USERI4
 70
     0
  9
$USERI5
 70
     0
  9
$USERR1
 40
0.0
  9
$USERR2
 40
0.0
  9
$USERR3
 40
0.0
  9
$USERR4
 40
0.0
  9
$USERR5
 40
0.0
  9
$WORLDVIEW
 70
     1
  9
$SHADEDGE
 70
     3
  9
$SHADEDIF
 70
    70
  9
$TILEMODE
 70
     1
  9
$MAXACTVP
 70
    64
  9
$PLIMCHECK
 70
     0
  9
$PEXTMIN
 10
1.0000000000000000E+20
 20
1.0000000000000000E+20
 30
1.0000000000000000E+20
  9
$PEXTMAX
 10
-1.0000000000000000E+20
 20
-1.0000000000000000E+20
 30
-1.0000000000000000E+20
  9
$PLIMMIN
 10
0.0
 20
0.0
  9
$PLIMMAX
 10
12.0
 20
9.0
  9
$UNITMODE
 70
     0
  9
$VISRETAIN
 70
     1
  9
$PLINEGEN
 70
     0
  9
$PSLTSCALE
 70
     1
  0
ENDSEC
  0
SECTION
  2
TABLES
  0
TABLE
  2
VPORT
 70
     1
  0
VPORT
  2
*ACTIVE
 70
     0
 10
0.0
 20
0.0
 11
1.0
 21
1.0
 12
1078.1993341973459337
 22
436.8770905458392235
 13
0.0
 23
0.0
 14
1.0
 24
1.0
 15
0.0
 25
0.0
 16
0.0
 26
0.0
 36
60.4960186965801583
 17
3911.3653564453120453
 27
132.5796051025390057
 37
0.0
 40
29.7162701429267102
 41
2.5092105263157891
 42
50.0
 43
0.0
 44
0.0
 50
0.0
 51
0.0
 71
     0
 72
   100
 73
     1
 74
     1
 75
     0
 76
     0
 77
     0
 78
     0
  0
ENDTAB
  0
TABLE
  2
LTYPE
 70
     2
  0
LTYPE
  2
CONTINUOUS
 70
     0
  3
Solid line
 72
    65
 73
     0
 40
0.0
  0
LTYPE
  2
PHANTOM2
 70
     0
  3
___ _ _ ___ _ _ ___ _ _ ___ _ _
 72
    65
 73
     6
 40
1.25
 49
0.625
 49
-0.125
 49
0.125
 49
-0.125
 49
0.125
 49
-0.125
  0
ENDTAB
  0
TABLE
  2
LAYER
 70
     2
  0
LAYER
  2
0
 70
     0
 62
   255
  6
CONTINUOUS
  0
LAYER
  2
DEFPOINTS
 70
     0
 62
     7
  6
CONTINUOUS
  0
ENDTAB
  0
TABLE
  2
STYLE
 70
     1
  0
STYLE
  2
STANDARD
 70
     0
 40
0.0
 41
0.8
 50
0.0
 71
     0
 42
0.2
  3
txt
  4

  0
ENDTAB
  0
TABLE
  2
VIEW
 70
     0
  0
ENDTAB
  0
TABLE
  2
UCS
 70
     0
  0
ENDTAB
  0
TABLE
  2
APPID
 70
    11
  0
APPID
  2
ACAD
 70
     0
  0
APPID
  2
ACAD_MLEADERVER
 70
     0
  0
APPID
  2
ACAD_EXEMPT_FROM_CAD_STANDARDS
 70
     0
  0
APPID
  2
ACAD_NAV_VCDISPLAY
 70
     0
  0
APPID
  2
ACAECLAYERSTANDARD
 70
     0
  0
APPID
  2
ACCMTRANSPARENCY
 70
     0
  0
APPID
  2
ACAD_DSTYLE_DIMJAG
 70
     0
  0
APPID
  2
ACAD_DSTYLE_DIMTALN
 70
     0
  0
APPID
  2
ACDBATTR
 70
     0
  0
APPID
  2
ACADANNOTATIVE
 70
     0
  0
APPID
  2
DCO15
 70
     0
  0
ENDTAB
  0
TABLE
  2
DIMSTYLE
 70
     1
  0
DIMSTYLE
  2
STANDARD
 70
     0
  3

  4

  5

  6

  7

 40
1.0
 41
0.1875
 42
0.0625
 43
0.38
 44
0.125
 45
0.0
 46
0.0
 47
0.01
 48
0.01
140
0.15625
141
0.09
142
0.0
143
25.3999999999999986
144
1.0
145
0.0
146
1.0
147
0.09
 71
     1
 72
     0
 73
     1
 74
     1
 75
     0
 76
     0
 77
     0
 78
     4
170
     0
171
     2
172
     0
173
     0
174
     0
175
     0
176
     0
177
     0
178
     0
  0
ENDTAB
  0
ENDSEC
  0
SECTION
  2
BLOCKS
  0
BLOCK
  8
0
  2
$MODEL_SPACE
 70
     0
 10
0.0
 20
0.0
 30
0.0
  3
$MODEL_SPACE
  1

  0
ENDBLK
  5
21
  8
0
  0
BLOCK
 67
     1
  8
0
  2
$PAPER_SPACE
 70
     0
 10
0.0
 20
0.0
 30
0.0
  3
$PAPER_SPACE
  1

  0
ENDBLK
  5
1D
 67
     1
  8
0
  0
ENDSEC
  0
SECTION
  2
ENTITIES
  0
ATTDEF
  5
159BF
  8
DEFPOINTS
 10
4989.7994217045834375
 20
554.7357605520899142
 30
0.0
 40
0.001
  1
K-1666T-SL
  3

  2
MODELNUMBER
 70
     0
1001
ACDBATTR
1070
     0
1070
     1
  0
ATTDEF
  5
159C0
  8
DEFPOINTS
 10
4989.7994217045834375
 20
554.7340937117106705
 30
0.0
 40
0.001
  1
VEIL
  3

  2
TRADENAME
 70
     0
1001
ACDBATTR
1070
     0
1070
     1
  0
ATTDEF
  5
159C1
  8
DEFPOINTS
 10
4989.7994217045834375
 20
554.7324272187564702
 30
0.0
 40
0.001
  1
TOILET
  3

  2
PRODUCT
 70
     0
1001
ACDBATTR
1070
     0
1070
     1
  0
LINE
  5
1EEEC
  8
0
 10
4995.6780766602532822
 20
554.7323988858707935
 30
0.0
 11
4983.9207332782925732
 21
554.7323988858707935
 31
0.0
  0
LINE
  5
1EEED
  8
0
 10
4996.9046041873598369
 20
569.8898792005707037
 30
0.0
 11
4982.6942057511878374
 21
569.8898792005707037
 31
0.0
  0
ARC
  5
1EEEE
  8
0
 10
4982.6943353772667251
 20
569.6534326288391412
 30
0.0
 40
0.2364466072638635
 50
90.0314110139008932
 51
150.7226419102402133
  0
ARC
  5
1EEEF
  8
0
 10
4982.6938798293731452
 20
569.653688033734511
 30
0.0
 40
0.2359243472276712
 50
150.7226419102402133
 51
194.5787925341138873
  0
ARC
  5
1EEF0
  8
0
 10
4934.6033468868672571
 20
557.8019819505085479
 30
0.0
 40
49.2935035174964611
 50
6.3087349626803704
 51
13.8409030183024893
  0
ARC
  5
1EEF1
  8
0
 10
4912.238805228408637
 20
556.2584346869690535
 30
0.0
 40
71.6981700897243286
 50
358.7804149864809915
 51
5.5708454468686757
  0
ARC
  5
1EEF2
  8
0
 10
4996.9044745612791303
 20
569.6534326288391412
 30
0.0
 40
0.2364466072638635
 50
29.2773580897597405
 51
89.9685889860990926
  0
ARC
  5
1EEF3
  8
0
 10
4996.9049301091736197
 20
569.653688033734511
 30
0.0
 40
0.2359243472276712
 50
345.4212074658860274
 51
29.2773580897597405
  0
ARC
  5
1EEF4
  8
0
 10
5044.9954630516776888
 20
557.8019819505085479
 30
0.0
 40
49.2935035174964611
 50
166.1590969816975019
 51
173.6912650373195959
  0
ARC
  5
1EEF5
  8
0
 10
5067.3600047101372184
 20
556.2584346869690535
 30
0.0
 40
71.6981700897243286
 50
174.4291545531312977
 51
181.2195850135155979
  0
ARC
  5
1EEF6
  8
0
 10
4982.8291918765817172
 20
570.2049407389124553
 30
0.0
 40
0.3151193788319365
 50
271.0977986708402909
 51
318.4829268773369222
  0
LINE
  5
1EEF7
  8
0
 10
4982.4880073192189229
 20
584.1812177835707871
 30
0.0
 11
4997.110802619320566
 21
584.1812177835707871
 31
0.0
  0
LINE
  5
1EEF8
  8
0
 10
4982.2913947366869252
 20
583.978820316170868
 30
0.0
 11
4982.6346957751957234
 21
571.7999879840195945
 31
0.0
  0
ARC
  5
1EEF9
  8
0
 10
4982.4880537142807952
 20
583.9844774608073976
 30
0.0
 40
0.1967403282337746
 50
90.0135114206022138
 51
181.6477312874716858
  0
LINE
  5
1EEFA
  8
0
 10
4982.2914728171008392
 20
582.363535308770679
 30
0.0
 11
4982.3368464645336644
 21
582.3663900856963664
 31
0.0
  0
ARC
  5
1EEFB
  8
0
 10
4975.7847750641849416
 20
582.1349474294456741
 30
0.0
 40
6.5176252811033191
 50
2.0147736655361821
 51
3.610852674424307
  0
ARC
  5
1EEFC
  8
0
 10
4978.1450116829209946
 20
582.2052098524785606
 30
0.0
 40
4.1556225837073972
 50
2.1896756416702399
 51
3.8797722337421341
  0
ARC
  5
1EEFD
  8
0
 10
4985.9920964381599333
 20
582.4358767878306935
 30
0.0
 40
3.701330635639644
 50
179.2180113414011089
 51
181.1199014014555075
  0
LINE
  5
1EEFE
  8
0
 10
4982.3162197174005996
 20
581.4776310322707786
 30
0.0
 11
4982.3619080964426757
 21
581.4773120498974777
 31
0.0
  0
ARC
  5
1EEFF
  8
0
 10
4979.6438441226591749
 20
581.4084960282332304
 30
0.0
 40
2.679407063203926
 50
358.8548165396962872
 51
1.4776129059580121
  0
ARC
  5
1EF00
  8
0
 10
4976.8615118391526266
 20
581.3497640969568465
 30
0.0
 40
5.4631185995091149
 50
359.4352160491891937
 51
1.340651435815821
  0
ARC
  5
1EF01
  8
0
 10
4986.2365615450326004
 20
581.6237016818550956
 30
0.0
 40
3.9230621560390548
 50
182.1338348460789973
 51
183.9282207668564979
  0
ARC
  5
1EF02
  8
0
 10
4988.584682683273968
 20
581.694329346978634
 30
0.0
 40
6.2729827570423762
 50
181.9814578998015975
 51
183.6414800612762974
  0
ARC
  5
1EF03
  8
0
 10
4989.1897537169597854
 20
582.5013515260418444
 30
0.0
 40
6.9004327989791658
 50
179.6340492972092022
 51
181.1454753306836096
  0
ARC
  5
1EF04
  8
0
 10
4982.3423234879037409
 20
582.2405547107595112
 30
0.0
 40
0.0200497680454648
 50
97.136125448275024
 51
173.3914643309647943
  0
LINE
  5
1EF05
  8
0
 10
4982.322406937901178
 20
582.2428621410708729
 30
0.0
 11
4982.3235827372009226
 21
582.2038264425707439
 31
0.0
  0
ARC
  5
1EF06
  8
0
 10
4982.3319698429040727
 20
582.2043968746522751
 30
0.0
 40
0.0084064817153239
 50
183.8908648775401105
 51
238.2954700312326963
  0
ARC
  5
1EF07
  8
0
 10
4982.3347024124786913
 20
582.2086363513463994
 30
0.0
 40
0.013449719280442
 50
237.8831965108331019
 51
271.9478078600143931
  0
LINE
  5
1EF08
  8
0
 10
4982.335159556500912
 20
582.1951944032708752
 30
0.0
 11
4982.3416679187002956
 21
582.195345797144455
 31
0.0
  0
ARC
  5
1EF09
  8
0
 10
4982.3429305548843331
 20
582.208834246233323
 30
0.0
 40
0.0298859917965793
 50
94.7645688235915458
 51
116.2220779455676052
  0
ARC
  5
1EF0A
  8
0
 10
4982.3352759045383209
 20
582.2243754299547618
 30
0.0
 40
0.0125619604125174
 50
116.2220779455661983
 51
170.151611746097899
  0
LINE
  5
1EF0B
  8
0
 10
4982.3583886276546764
 20
581.6021675424865407
 30
0.0
 11
4982.3520921634008118
 21
581.6020045856706702
 31
0.0
  0
ARC
  5
1EF0C
  8
0
 10
4982.3524951720874014
 20
581.5864327927534987
 30
0.0
 40
0.0155770071149926
 50
91.4825231484261252
 51
119.3507201570868972
  0
ARC
  5
1EF0D
  8
0
 10
4982.348595475372349
 20
581.5933675790206507
 30
0.0
 40
0.0076209468433085
 50
119.3507201570933063
 51
175.9983481976852033
  0
LINE
  5
1EF0E
  8
0
 10
4982.3409931081023387
 20
581.5938994085707918
 30
0.0
 11
4982.3420740026022031
 21
581.5538776112708774
 31
0.0
  0
ARC
  5
1EF0F
  8
0
 10
4982.3588921495429531
 20
581.5543318298156237
 30
0.0
 40
0.0168242795106012
 50
181.547048009597404
 51
232.4741695977029963
  0
ARC
  5
1EF10
  8
0
 10
4982.3617602646281739
 20
581.5580661431350791
 30
0.0
 40
0.0215329077722431
 50
232.4741695977029963
 51
265.9440493407312829
  0
ARC
  5
1EF11
  8
0
 10
4982.3552919471512723
 20
581.570077441127637
 30
0.0
 40
0.0138346107736192
 50
190.9052576871461042
 51
241.0492418329523048
  0
ARC
  5
1EF12
  8
0
 10
4982.3607817593301661
 20
581.5800014293048434
 30
0.0
 40
0.0251758443531056
 50
241.0492418329523048
 51
267.5885787651611167
  0
ARC
  5
1EF13
  8
0
 10
5017.5487552792474162
 20
582.809595646905791
 30
0.0
 40
35.2577040070880514
 50
181.733401805423199
 51
182.1650336402713037
  0
ARC
  5
1EF14
  8
0
 10
5017.5672800788042878
 20
583.0010503670771413
 30
0.0
 40
35.2815674738863478
 50
181.0353539484447936
 51
181.466268369902906
  0
ARC
  5
1EF15
  8
0
 10
5020.7874574895349724
 20
582.879798660311053
 30
0.0
 40
38.4975574478515483
 50
181.7766827942739951
 51
182.0875958927198042
  0
ARC
  5
1EF16
  8
0
 10
5012.0789004363286949
 20
582.9358680159206187
 30
0.0
 40
29.7937007620820502
 50
181.1009618712334941
 51
181.2074598380071109
  0
LINE
  5
1EF17
  8
0
 10
4982.2894616668008894
 20
582.5454245988707953
 30
0.0
 11
4981.8389549798012013
 21
582.521025645970667
 31
0.0
  0
ARC
  5
1EF18
  8
0
 10
4981.8406408353912411
 20
582.5000703027956206
 30
0.0
 40
0.0210230472733811
 50
94.5995346760010989
 51
179.6806095690974132
  0
LINE
  5
1EF19
  8
0
 10
4982.3243650230024286
 20
581.2959131542708064
 30
0.0
 11
4981.8731987867013231
 21
581.2951250941706576
 31
0.0
  0
ARC
  5
1EF1A
  8
0
 10
4981.874548062042777
 20
581.31700888453895
 30
0.0
 40
0.0219253466294572
 50
185.6354680819424061
 51
266.4718158083597928
  0
ARC
  5
1EF1B
  8
0
 10
4987.8044796028034398
 20
582.0742378930114
 30
0.0
 40
6.00000000776555
 50
175.9290565837573865
 51
187.2710650479374976
  0
LINE
  5
1EF1C
  8
0
 10
4997.3074152018589302
 20
583.978820316170868
 30
0.0
 11
4996.964114163350132
 21
571.7999879840195945
 31
0.0
  0
ARC
  5
1EF1D
  8
0
 10
4997.1107562242650602
 20
583.9844774608073976
 30
0.0
 40
0.1967403282337805
 50
358.3522687125283142
 51
89.9864885817948732
  0
ARC
  5
1EF1F
  8
0
 10
5047.1623136840071311
 20
583.7278447527695562
 30
0.0
 40
64.8860339212192798
 50
181.2538206909009944
 51
181.8030961711866098
  0
ARC
  5
1EF20
  8
0
 10
5045.5276136671100176
 20
583.6866624138824591
 30
0.0
 40
63.25029668651527
 50
181.4390263794722955
 51
181.7608807831325066
  0
LINE
  5
1EF21
  8
0
 10
4996.959631844553769
 20
570.7568376200707689
 30
0.0
 11
4982.6391780939911769
 21
570.7568376200707689
 31
0.0
  0
LINE
  5
1EF22
  8
0
 10
4997.0954034669239263
 20
570.4812434866707918
 30
0.0
 11
4982.5034064716219291
 21
570.4812434866707918
 31
0.0
  0
LINE
  5
1EF23
  8
0
 10
4982.9146481659008714
 20
571.8380347800822392
 30
0.0
 11
4996.684161772644984
 21
571.8380347800822392
 31
0.0
  0
ARC
  5
1EF24
  8
0
 10
4982.9268403298192425
 20
570.5418307792040196
 30
0.0
 40
1.296261339681825
 50
90.5389112630483055
 51
95.7368313265544373
  0
ARC
  5
1EF25
  8
0
 10
4982.8882536946603068
 20
570.929843844971856
 30
0.0
 40
0.9063346188039118
 50
95.7616231642949174
 51
107.7675669669610983
  0
ARC
  5
1EF26
  8
0
 10
4982.7016545065216633
 20
571.5121645716274088
 30
0.0
 40
0.2948473452594913
 50
107.7675669669610983
 51
134.117317469927201
  0
ARC
  5
1EF27
  8
0
 10
4982.6060442360194429
 20
571.6161288320366793
 30
0.0
 40
0.1536979143450458
 50
135.5088567805090918
 51
178.8616818792575032
  0
ARC
  5
1EF28
  8
0
 10
5029.9793073982737042
 20
571.1031239653053717
 30
0.0
 40
47.5297324006967585
 50
179.3778938186742948
 51
180.1531328307027024
  0
ARC
  5
1EF29
  8
0
 10
5024.1267981321179832
 20
570.9984683023749312
 30
0.0
 40
41.677059384515843
 50
180.0307609532073059
 51
180.855286769028595
  0
ARC
  5
1EF2A
  8
0
 10
4988.640781662237714
 20
570.4689027157978671
 30
0.0
 40
6.1870917266226266
 50
180.8570809276936018
 51
183.094582734202703
  0
ARC
  5
1EF2B
  8
0
 10
4983.1027892908914509
 20
570.1695009154855143
 30
0.0
 40
0.6410119450912739
 50
183.094582734202703
 51
192.1889612661796036
  0
ARC
  5
1EF2C
  8
0
 10
4982.5235982519807294
 20
570.0428422747955892
 30
0.0
 40
0.0481594214911251
 50
190.3862937021260962
 51
256.2349887238585211
  0
LINE
  5
1EF2D
  8
0
 10
4982.5121391813127047
 20
569.996066003270812
 30
0.0
 11
4997.0866707572340601
 21
569.996066003270812
 31
0.0
  0
ARC
  5
1EF2E
  8
0
 10
4982.9773639613003979
 20
570.5543819251063269
 30
0.0
 40
1.2851840035887589
 50
92.7970921489839071
 51
101.1426214745802952
  0
ARC
  5
1EF2F
  8
0
 10
4982.8288759400320487
 20
571.2849632058515681
 30
0.0
 40
0.5396979740064913
 50
100.6645980591545992
 51
110.3986360502039048
  0
ARC
  5
1EF30
  8
0
 10
4982.7099499134492362
 20
571.6047689565465362
 30
0.0
 40
0.1984955150813204
 50
110.3986360502039048
 51
128.6626160115027915
  0
ARC
  5
1EF31
  8
0
 10
4982.6119278957830829
 20
571.7272841703344284
 30
0.0
 40
0.0415933367767409
 50
128.6626160115027915
 51
175.6124638684310071
  0
LINE
  5
1EF32
  8
0
 10
4982.5704564517009203
 20
571.7304661492707964
 30
0.0
 11
4982.576871726151694
 21
570.9648167131562104
 31
0.0
  0
ARC
  5
1EF33
  8
0
 10
4983.4613090437178471
 20
570.9617073551241901
 30
0.0
 40
0.8844427832320992
 50
179.7985698310951079
 51
190.4762567677229015
  0
ARC
  5
1EF34
  8
0
 10
4982.6449223076051567
 20
570.8107489200841655
 30
0.0
 40
0.0542164574569278
 50
190.4762567677229015
 51
263.9181184381616845
  0
ARC
  5
1EF35
  8
0
 10
4986.7587282787026197
 20
571.0658153122166141
 30
0.0
 40
4.3238967997505542
 50
184.933575507969806
 51
186.9074958085415119
  0
ARC
  5
1EF36
  8
0
 10
4982.6248728516693518
 20
570.5705186914326532
 30
0.0
 40
0.1605717636116459
 50
188.8574316934241892
 51
208.5572909546268079
  0
ARC
  5
1EF37
  8
0
 10
4982.5070029815960879
 20
570.5084251729052767
 30
0.0
 40
0.0274185876833075
 50
212.3360555075157947
 51
262.4627634914683085
  0
LINE
  5
1EF38
  8
0
 10
4982.6165293427493452
 20
570.2366380415708136
 30
0.0
 11
4996.9822805957983292
 21
570.2366380415708136
 31
0.0
  0
ARC
  5
1EF39
  8
0
 10
4982.6318666255083372
 20
570.2684722232166905
 30
0.0
 40
0.035336204712565
 50
190.2715144901208077
 51
244.2758550460495997
  0
ARC
  5
1EF3A
  8
0
 10
4983.1737272829277572
 20
570.3940010738620003
 30
0.0
 40
0.591508144076634
 50
183.3037820463686103
 51
192.8776914921762113
  0
ARC
  5
1EF3B
  8
0
 10
4985.360353997839411
 20
570.5571375743702447
 30
0.0
 40
2.784146142764004
 50
181.6131544064272987
 51
184.0621562024273885
  0
ARC
  5
1EF3C
  8
0
 10
4982.9708514246640334
 20
570.2599791149207249
 30
0.0
 40
0.2309324258223603
 50
34.2174552033317028
 51
70.7324710487382902
  0
ARC
  5
1EF3D
  8
0
 10
4983.184821095686857
 20
570.4074060743763539
 30
0.0
 40
0.0289479517517644
 50
217.3581866783333112
 51
251.2271539736958061
  0
ARC
  5
1EF3E
  8
0
 10
4983.2788745263896999
 20
570.8136206388785467
 30
0.0
 40
0.4457731872893526
 50
256.591758672172773
 51
266.1977945879486924
  0
LINE
  5
1EF3F
  8
0
 10
4983.2128261304005719
 20
570.3235106716707605
 30
0.0
 11
4983.2128261304005719
 21
570.3727676657757684
 31
0.0
  0
ARC
  5
1EF40
  8
0
 10
4983.2555224924253707
 20
570.3241638839190273
 30
0.0
 40
0.0427013584834956
 50
180.8765005632542966
 51
226.4888268406891996
  0
ARC
  5
1EF41
  8
0
 10
4983.2681675355161133
 20
570.3436728027877507
 30
0.0
 40
0.0656944106454533
 50
230.2077996816780967
 51
258.8131618263778932
  0
ARC
  5
1EF42
  8
0
 10
4984.0295804287370629
 20
570.2599791149207249
 30
0.0
 40
0.2309324258223603
 50
109.2675289512616956
 51
145.7825447966683043
  0
ARC
  5
1EF43
  8
0
 10
4983.8156107577160583
 20
570.4074060743763539
 30
0.0
 40
0.0289479517517644
 50
288.7728460263041939
 51
322.6418133216665751
  0
ARC
  5
1EF44
  8
0
 10
4983.7215573270123059
 20
570.8136206388785467
 30
0.0
 40
0.4457731872893526
 50
273.8022054120511939
 51
283.408241327827227
  0
LINE
  5
1EF45
  8
0
 10
4983.7876057230014339
 20
570.3235106716707605
 30
0.0
 11
4983.7876057230014339
 21
570.3727676657757684
 31
0.0
  0
ARC
  5
1EF46
  8
0
 10
4983.7449093609766351
 20
570.3241638839190273
 30
0.0
 40
0.0427013584834956
 50
313.511173159310772
 51
359.1234994367424065
  0
ARC
  5
1EF47
  8
0
 10
4983.732264317884983
 20
570.3436728027877507
 30
0.0
 40
0.0656944106454533
 50
281.1868381736219931
 51
309.7922003183218749
  0
ARC
  5
1EF48
  8
0
 10
4983.5002159267005482
 20
574.0980364922246508
 30
0.0
 40
3.7376386764339138
 50
266.1509323499556103
 51
273.8490676500445034
  0
ARC
  5
1EF49
  8
0
 10
4983.3841255787683622
 20
571.0077944658687557
 30
0.0
 40
0.7398484196002012
 50
259.981911304059679
 51
266.5584532385017837
  0
ARC
  5
1EF4A
  8
0
 10
4983.6163062746327341
 20
571.0077944658687557
 30
0.0
 40
0.7398484196002012
 50
273.4415467614982163
 51
280.0180886959402073
  0
ARC
  5
1EF4B
  8
0
 10
4983.5002159267005482
 20
572.9570360950632448
 30
0.0
 40
2.6925438760181621
 50
266.5825499944647845
 51
273.4174500055352155
  0
LINE
  5
1EF4C
  8
0
 10
4985.5554462334721393
 20
570.3255149172706524
 30
0.0
 11
4984.7789508758305601
 21
570.3255149172706524
 31
0.0
  0
ARC
  5
1EF4D
  8
0
 10
4984.7791995504330771
 20
570.345198367195394
 30
0.0
 40
0.019685020700925
 50
202.3455466112835097
 51
269.2761813986847983
  0
ARC
  5
1EF4E
  8
0
 10
4984.5431994458413101
 20
570.2481884368608007
 30
0.0
 40
0.2354756658299088
 50
22.3455466112835417
 51
81.7775677746155623
  0
LINE
  5
1EF4F
  8
0
 10
4984.7764863533011521
 20
570.2664597991707751
 30
0.0
 11
4984.7764863533011521
 21
570.3257012237811523
 31
0.0
  0
ARC
  5
1EF50
  8
0
 10
4984.8172261752670238
 20
570.2668659337647341
 30
0.0
 40
0.0407418462896776
 50
180.5711617335416008
 51
208.0599593406512042
  0
ARC
  5
1EF51
  8
0
 10
4985.5551975588696223
 20
570.345198367195394
 30
0.0
 40
0.019685020700925
 50
270.7238186013153154
 51
337.6544533887163766
  0
ARC
  5
1EF52
  8
0
 10
4985.7911976634622988
 20
570.2481884368608007
 30
0.0
 40
0.2354756658299088
 50
98.2224322253844662
 51
157.654453388716405
  0
LINE
  5
1EF53
  8
0
 10
4985.5579107560015473
 20
570.2664597991707751
 30
0.0
 11
4985.5579107560015473
 21
570.3257012237811523
 31
0.0
  0
ARC
  5
1EF54
  8
0
 10
4985.5171709340356756
 20
570.2668659337647341
 30
0.0
 40
0.0407418462896776
 50
326.0879604379351804
 51
359.4288382664583992
  0
ARC
  5
1EF55
  8
0
 10
5021.37463936939821
 20
8385.9552019119419128
 30
0.0
 40
7815.7931658750167117
 50
269.7317414816483279
 51
269.7373841023194245
  0
ARC
  5
1EF56
  8
0
 10
4983.0184940148392343
 20
569.8160887821584311
 30
0.0
 40
0.1922504974433575
 50
31.1331484398019889
 51
69.2166292413423747
  0
ARC
  5
1EF57
  8
0
 10
4983.2174496061670652
 20
569.9386749833425938
 30
0.0
 40
0.0414811072275841
 50
213.9854197809773098
 51
260.5802408794987173
  0
LINE
  5
1EF58
  8
0
 10
4983.2031796060000488
 20
569.8977532165707771
 30
0.0
 11
4983.2031796060000488
 21
569.8898792005707037
 31
0.0
  0
LINE
  5
1EF59
  8
0
 10
4983.2031796060000488
 20
569.8977532165707771
 30
0.0
 11
4983.7779827512022166
 21
569.8977532165707771
 31
0.0
  0
LINE
  5
1EF5A
  8
0
 10
4983.7779827512022166
 20
569.8977532165707771
 30
0.0
 11
4983.7779827512022166
 21
569.8898792005707037
 31
0.0
  0
ARC
  5
1EF5B
  8
0
 10
4983.9243176325544482
 20
569.764036443955888
 30
0.0
 40
0.1905154654176322
 50
106.6955465893413049
 51
131.3984343508923871
  0
ARC
  5
1EF5C
  8
0
 10
4983.7716702424850155
 20
569.9394135826499905
 30
0.0
 40
0.0420101694871498
 50
277.3990207230492047
 51
309.3929773934470973
  0
ARC
  5
1EF5D
  8
0
 10
4982.8071097391521107
 20
558.5689467121657117
 30
0.0
 40
11.4303028177506807
 50
82.0675850361548669
 51
88.6476998782229657
  0
ARC
  5
1EF5E
  8
0
 10
4984.5702850874386058
 20
569.815197396066651
 30
0.0
 40
0.1967209873232062
 50
22.3109598511606002
 51
66.8409901111959073
  0
ARC
  5
1EF5F
  8
0
 10
4985.8741327791967706
 20
569.5813322153119316
 30
0.0
 40
0.4116688718536498
 50
109.8774814124826946
 51
131.4526700069567084
  0
ARC
  5
1EF60
  8
0
 10
4985.424775664315348
 20
568.3089570786388549
 30
0.0
 40
1.688110743503793
 50
79.4395224584899466
 51
88.0259722759102488
  0
ARC
  5
1EF61
  8
0
 10
4996.9044745612791303
 20
569.6534326288391412
 30
0.0
 40
0.2364466072638635
 50
29.2773580897597405
 51
89.9685889860990926
  0
ARC
  5
1EF62
  8
0
 10
4996.7696180619641382
 20
570.2049407389124553
 30
0.0
 40
0.3151193788319365
 50
221.5170731226631062
 51
268.9022013291597091
  0
ARC
  5
1EF63
  8
0
 10
4996.6719696087266129
 20
570.5418307792040196
 30
0.0
 40
1.296261339681825
 50
84.2631686734455485
 51
89.4610887369517087
  0
ARC
  5
1EF64
  8
0
 10
4996.7105562438855486
 20
570.929843844971856
 30
0.0
 40
0.9063346188039118
 50
72.2324330330388591
 51
84.2383768357050968
  0
ARC
  5
1EF65
  8
0
 10
4996.8971554320260111
 20
571.5121645716274088
 30
0.0
 40
0.2948473452594913
 50
45.8826825300727705
 51
72.2324330330388591
  0
ARC
  5
1EF66
  8
0
 10
4996.992765702527322
 20
571.6161288320366793
 30
0.0
 40
0.1536979143450458
 50
1.138318120742513
 51
44.4911432194909011
  0
ARC
  5
1EF67
  8
0
 10
4949.6195025402712417
 20
571.1031239653053717
 30
0.0
 40
47.5297324006967585
 50
359.8468671692972976
 51
0.6221061813256772
  0
ARC
  5
1EF68
  8
0
 10
4955.4720118064278722
 20
570.9984683023749312
 30
0.0
 40
41.677059384515843
 50
359.1447132309680796
 51
359.9692390467927225
  0
ARC
  5
1EF69
  8
0
 10
4990.9580282763099603
 20
570.4689027157978671
 30
0.0
 40
6.1870917266226266
 50
356.9054172657972117
 51
359.1429190723064266
  0
ARC
  5
1EF6A
  8
0
 10
4996.4960206476544045
 20
570.1695009154855143
 30
0.0
 40
0.6410119450912739
 50
347.8110387338202827
 51
356.9054172657972117
  0
ARC
  5
1EF6B
  8
0
 10
4997.075211686563307
 20
570.0428422747955892
 30
0.0
 40
0.0481594214911251
 50
283.7650112761414789
 51
349.6137062978738754
  0
ARC
  5
1EF6C
  8
0
 10
4996.6214459772472765
 20
570.5543819251063269
 30
0.0
 40
1.2851840035887589
 50
78.8573785254196622
 51
87.2029078510161071
  0
ARC
  5
1EF6D
  8
0
 10
4996.7699339985138067
 20
571.2849632058515681
 30
0.0
 40
0.5396979740064913
 50
69.601363949796081
 51
79.335401940845415
  0
ARC
  5
1EF6E
  8
0
 10
4996.8888600250984382
 20
571.6047689565465362
 30
0.0
 40
0.1984955150813204
 50
51.3373839884971517
 51
69.601363949796081
  0
ARC
  5
1EF6F
  8
0
 10
4996.986882042761863
 20
571.7272841703344284
 30
0.0
 40
0.0415933367767409
 50
4.3875361315690329
 51
51.3373839884971517
  0
LINE
  5
1EF70
  8
0
 10
4997.0283534868449351
 20
571.7304661492707964
 30
0.0
 11
4997.0219382123950709
 21
570.9648167131562104
 31
0.0
  0
ARC
  5
1EF71
  8
0
 10
4996.1375008948280083
 20
570.9617073551241901
 30
0.0
 40
0.8844427832320992
 50
349.5237432322771269
 51
0.2014301689081766
  0
ARC
  5
1EF72
  8
0
 10
4996.9538876309397892
 20
570.8107489200841655
 30
0.0
 40
0.0542164574569278
 50
276.0818815618383724
 51
349.5237432322771269
  0
ARC
  5
1EF73
  8
0
 10
4992.8400816598441452
 20
571.0658153122166141
 30
0.0
 40
4.3238967997505542
 50
353.0925041914584881
 51
355.066424492030194
  0
ARC
  5
1EF74
  8
0
 10
4996.9739370868774131
 20
570.5705186914326532
 30
0.0
 40
0.1605717636116459
 50
331.4427090453733058
 51
351.1425683065758108
  0
ARC
  5
1EF75
  8
0
 10
4997.0918069569497675
 20
570.5084251729052767
 30
0.0
 40
0.0274185876833075
 50
277.5372365085316915
 51
327.6639444924842905
  0
ARC
  5
1EF76
  8
0
 10
4996.9669433130384277
 20
570.2684722232166905
 30
0.0
 40
0.035336204712565
 50
295.7241449539503719
 51
349.7284855098791923
  0
ARC
  5
1EF77
  8
0
 10
4996.4250826556171887
 20
570.3940010738620003
 30
0.0
 40
0.591508144076634
 50
347.1223085078204917
 51
356.6962179536313897
  0
ARC
  5
1EF78
  8
0
 10
4994.2384559407073539
 20
570.5571375743702447
 30
0.0
 40
2.784146142764004
 50
355.9378437975726115
 51
358.437959286659293
  0
ARC
  5
1EF79
  8
0
 10
4996.627958513881822
 20
570.2599791149207249
 30
0.0
 40
0.2309324258223603
 50
106.6376363497773951
 51
145.7825447966683043
  0
ARC
  5
1EF7A
  8
0
 10
4996.4139888428608174
 20
570.4074060743763539
 30
0.0
 40
0.0289479517517644
 50
288.7728460263041939
 51
322.6418133216665751
  0
ARC
  5
1EF7B
  8
0
 10
4996.319935412157065
 20
570.8136206388785467
 30
0.0
 40
0.4457731872893526
 50
273.8022054120511939
 51
283.408241327827227
  0
LINE
  5
1EF7C
  8
0
 10
4996.385983808146193
 20
570.3235106716707605
 30
0.0
 11
4996.385983808146193
 21
570.3727676657757684
 31
0.0
  0
ARC
  5
1EF7D
  8
0
 10
4996.3432874461213942
 20
570.3241638839190273
 30
0.0
 40
0.0427013584834956
 50
313.511173159310772
 51
359.1234994367424065
  0
ARC
  5
1EF7E
  8
0
 10
4996.3306424030297421
 20
570.3436728027877507
 30
0.0
 40
0.0656944106454533
 50
281.1868381736219931
 51
309.7922003183218749
  0
ARC
  5
1EF7F
  8
0
 10
4995.5692295098087925
 20
570.2599791149207249
 30
0.0
 40
0.2309324258223603
 50
34.2174552033317028
 51
73.3623636502225906
  0
ARC
  5
1EF80
  8
0
 10
4995.7831991808297971
 20
570.4074060743763539
 30
0.0
 40
0.0289479517517644
 50
217.3581866783333112
 51
251.2271539736958061
  0
ARC
  5
1EF81
  8
0
 10
4995.8772526115335495
 20
570.8136206388785467
 30
0.0
 40
0.4457731872893526
 50
256.591758672172773
 51
266.1977945879486924
  0
LINE
  5
1EF82
  8
0
 10
4995.811204215545331
 20
570.3235106716707605
 30
0.0
 11
4995.811204215545331
 21
570.3727676657757684
 31
0.0
  0
ARC
  5
1EF83
  8
0
 10
4995.8539005775692203
 20
570.3241638839190273
 30
0.0
 40
0.0427013584834956
 50
180.8765005632542966
 51
226.4888268406891996
  0
ARC
  5
1EF84
  8
0
 10
4995.8665456206608724
 20
570.3436728027877507
 30
0.0
 40
0.0656944106454533
 50
230.2077996816780967
 51
258.8131618263778932
  0
ARC
  5
1EF85
  8
0
 10
4996.0985940118453073
 20
574.0980364922246508
 30
0.0
 40
3.7376386764339138
 50
266.1509323499556103
 51
273.8490676500445034
  0
ARC
  5
1EF86
  8
0
 10
4996.2146843597765837
 20
571.0077944658687557
 30
0.0
 40
0.7398484196002012
 50
273.4415467614982163
 51
280.0180886959402073
  0
ARC
  5
1EF87
  8
0
 10
4995.9825036639131213
 20
571.0077944658687557
 30
0.0
 40
0.7398484196002012
 50
259.981911304059679
 51
266.5584532385017837
  0
ARC
  5
1EF88
  8
0
 10
4996.0985940118453073
 20
572.9570360950632448
 30
0.0
 40
2.6925438760181621
 50
266.5825499944647845
 51
273.4174500055352155
  0
LINE
  5
1EF89
  8
0
 10
4994.0433637050764446
 20
570.3255149172706524
 30
0.0
 11
4994.8198590627152953
 21
570.3255149172706524
 31
0.0
  0
ARC
  5
1EF8A
  8
0
 10
4994.8196103881127783
 20
570.345198367195394
 30
0.0
 40
0.019685020700925
 50
270.7238186013153154
 51
337.6544533887163766
  0
ARC
  5
1EF8B
  8
0
 10
4995.0556104927045453
 20
570.2481884368608007
 30
0.0
 40
0.2354756658299088
 50
98.2224322253844662
 51
157.654453388716405
  0
LINE
  5
1EF8C
  8
0
 10
4994.8223235852456128
 20
570.2664597991707751
 30
0.0
 11
4994.8223235852456128
 21
570.3257012237811523
 31
0.0
  0
ARC
  5
1EF8D
  8
0
 10
4994.7815837632797411
 20
570.2668659337647341
 30
0.0
 40
0.0407418462896776
 50
331.9400406593488242
 51
359.4288382664583992
  0
ARC
  5
1EF8E
  8
0
 10
4994.0436123796771426
 20
570.345198367195394
 30
0.0
 40
0.019685020700925
 50
202.3455466112835097
 51
269.2761813986847983
  0
ARC
  5
1EF8F
  8
0
 10
4993.8076122750862851
 20
570.2481884368608007
 30
0.0
 40
0.2354756658299088
 50
22.3455466112835417
 51
81.7775677746155623
  0
LINE
  5
1EF90
  8
0
 10
4994.0408991825452176
 20
570.2664597991707751
 30
0.0
 11
4994.0408991825452176
 21
570.3257012237811523
 31
0.0
  0
ARC
  5
1EF91
  8
0
 10
4994.0816390045110893
 20
570.2668659337647341
 30
0.0
 40
0.0407418462896776
 50
180.5711617335416008
 51
213.9120395620647059
  0
ARC
  5
1EF92
  8
0
 10
4958.2241705691485549
 20
8385.9552019119419128
 30
0.0
 40
7815.7931658750167117
 50
270.2626158976805186
 51
270.2682585183516721
  0
ARC
  5
1EF93
  8
0
 10
4996.5803159237084401
 20
569.8160887821584311
 30
0.0
 40
0.1922504974433575
 50
110.7833707586588048
 51
148.8668515601980005
  0
ARC
  5
1EF94
  8
0
 10
4996.3813603323796997
 20
569.9386749833425938
 30
0.0
 40
0.0414811072275841
 50
279.4197591205012827
 51
326.0145802190227187
  0
LINE
  5
1EF95
  8
0
 10
4996.3956303325448971
 20
569.8977532165707771
 30
0.0
 11
4996.3956303325448971
 21
569.8898792005707037
 31
0.0
  0
LINE
  5
1EF96
  8
0
 10
4996.3956303325448971
 20
569.8977532165707771
 30
0.0
 11
4995.8208271873445483
 21
569.8977532165707771
 31
0.0
  0
LINE
  5
1EF97
  8
0
 10
4995.8208271873445483
 20
569.8977532165707771
 30
0.0
 11
4995.8208271873445483
 21
569.8898792005707037
 31
0.0
  0
ARC
  5
1EF98
  8
0
 10
4995.6744923059941357
 20
569.764036443955888
 30
0.0
 40
0.1905154654176322
 50
48.6015656491075916
 51
73.3044534106587236
  0
ARC
  5
1EF99
  8
0
 10
4995.8271396960617494
 20
569.9394135826499905
 30
0.0
 40
0.0420101694871498
 50
230.6070226065529027
 51
262.6009792769507953
  0
ARC
  5
1EF9A
  8
0
 10
4996.7917001993946542
 20
558.5689467121657117
 30
0.0
 40
11.4303028177506807
 50
91.3523001217770343
 51
97.9324149638451331
  0
ARC
  5
1EF9B
  8
0
 10
4995.0285248511072496
 20
569.815197396066651
 30
0.0
 40
0.1967209873232062
 50
113.1590098888041069
 51
157.6890401488394104
  0
ARC
  5
1EF9C
  8
0
 10
4993.7246771593499943
 20
569.5813322153119316
 30
0.0
 40
0.4116688718536498
 50
48.5473299930432418
 51
70.1225185875172343
  0
ARC
  5
1EF9D
  8
0
 10
4994.1740342742295979
 20
568.3089570786388549
 30
0.0
 40
1.688110743503793
 50
91.9740277240897655
 51
100.5604775415099965
  0
ENDSEC
  0
EOF
