  0
SECTION
  2
HEADER
  9
$ACADVER
  1
AC1009
  9
$INSBASE
 10
5012.6235134527832997
 20
574.3475497469585207
 30
0.0
  9
$EXTMIN
 10
5004.6285880785462723
 20
545.6323115161536634
 30
0.0
  9
$EXTMAX
 10
5020.1316050360092049
 20
574.3518891453917377
 30
0.0
  9
$LIMMIN
 10
0.0
 20
0.0
  9
$LIMMAX
 10
11.6929133858000007
 20
8.2677165353999982
  9
$ORTHOMODE
 70
     0
  9
$REGENMODE
 70
     1
  9
$FILLMODE
 70
     1
  9
$QTEXTMODE
 70
     0
  9
$MIRRTEXT
 70
     0
  9
$DRAGMODE
 70
     2
  9
$LTSCALE
 40
0.6431102362
  9
$OSMODE
 70
     7
  9
$ATTMODE
 70
     1
  9
$TEXTSIZE
 40
0.2
  9
$TRACEWID
 40
0.05
  9
$TEXTSTYLE
  7
STANDARD
  9
$CLAYER
  8
0
  9
$CELTYPE
  6
BYLAYER
  9
$CECOLOR
 62
   256
  9
$DIMSCALE
 40
1.0
  9
$DIMASZ
 40
0.1875
  9
$DIMEXO
 40
0.0625
  9
$DIMDLI
 40
0.4443307087
  9
$DIMRND
 40
0.0
  9
$DIMDLE
 40
0.0
  9
$DIMEXE
 40
0.125
  9
$DIMTP
 40
0.01
  9
$DIMTM
 40
0.01
  9
$DIMTXT
 40
2.0
  9
$DIMCEN
 40
0.1052362205
  9
$DIMTSZ
 40
0.0
  9
$DIMTOL
 70
     1
  9
$DIMLIM
 70
     0
  9
$DIMTIH
 70
     1
  9
$DIMTOH
 70
     1
  9
$DIMSE1
 70
     0
  9
$DIMSE2
 70
     0
  9
$DIMTAD
 70
     0
  9
$DIMZIN
 70
     0
  9
$DIMBLK
  1

  9
$DIMASO
 70
     1
  9
$DIMSHO
 70
     1
  9
$DIMPOST
  1
\X
  9
$DIMAPOST
  1

  9
$DIMALT
 70
     1
  9
$DIMALTD
 70
     2
  9
$DIMALTF
 40
25.3999999999999986
  9
$DIMLFAC
 40
1.0
  9
$DIMTOFL
 70
     0
  9
$DIMTVP
 40
0.0
  9
$DIMTIX
 70
     0
  9
$DIMSOXD
 70
     0
  9
$DIMSAH
 70
     0
  9
$DIMBLK1
  1

  9
$DIMBLK2
  1

  9
$DIMSTYLE
  2
STANDARD
  9
$DIMCLRD
 70
     0
  9
$DIMCLRE
 70
     0
  9
$DIMCLRT
 70
     0
  9
$DIMTFAC
 40
1.0
  9
$DIMGAP
 40
0.09
  9
$LUNITS
 70
     2
  9
$LUPREC
 70
     4
  9
$SKETCHINC
 40
0.1
  9
$FILLETRAD
 40
0.0
  9
$AUNITS
 70
     0
  9
$AUPREC
 70
     0
  9
$MENU
  1
.
  9
$ELEVATION
 40
0.0
  9
$PELEVATION
 40
0.0
  9
$THICKNESS
 40
0.0
  9
$LIMCHECK
 70
     0
  9
$BLIPMODE
 70
     0
  9
$CHAMFERA
 40
0.0
  9
$CHAMFERB
 40
0.0
  9
$SKPOLY
 70
     0
  9
$TDCREATE
 40
2458060.468368056230247
  9
$TDUPDATE
 40
2459457.6309143519029021
  9
$TDINDWG
 40
1.6742909027999999
  9
$TDUSRTIMER
 40
1.6742909027999999
  9
$USRTIMER
 70
     1
  9
$ANGBASE
 50
0.0
  9
$ANGDIR
 70
     0
  9
$PDMODE
 70
     0
  9
$PDSIZE
 40
0.3125
  9
$PLINEWID
 40
0.0
  9
$COORDS
 70
     1
  9
$SPLFRAME
 70
     0
  9
$SPLINETYPE
 70
     6
  9
$SPLINESEGS
 70
     8
  9
$ATTDIA
 70
     1
  9
$ATTREQ
 70
     1
  9
$HANDLING
 70
     1
  9
$HANDSEED
  5
1F1AF
  9
$SURFTAB1
 70
     6
  9
$SURFTAB2
 70
     6
  9
$SURFTYPE
 70
     6
  9
$SURFU
 70
     6
  9
$SURFV
 70
     6
  9
$UCSNAME
  2

  9
$UCSORG
 10
0.0
 20
0.0
 30
0.0
  9
$UCSXDIR
 10
1.0
 20
0.0
 30
0.0
  9
$UCSYDIR
 10
0.0
 20
1.0
 30
0.0
  9
$PUCSNAME
  2

  9
$PUCSORG
 10
0.0
 20
0.0
 30
0.0
  9
$PUCSXDIR
 10
1.0
 20
0.0
 30
0.0
  9
$PUCSYDIR
 10
0.0
 20
1.0
 30
0.0
  9
$USERI1
 70
     0
  9
$USERI2
 70
     0
  9
$USERI3
 70
     0
  9
$USERI4
 70
     0
  9
$USERI5
 70
     0
  9
$USERR1
 40
0.0
  9
$USERR2
 40
0.0
  9
$USERR3
 40
0.0
  9
$USERR4
 40
0.0
  9
$USERR5
 40
0.0
  9
$WORLDVIEW
 70
     1
  9
$SHADEDGE
 70
     3
  9
$SHADEDIF
 70
    70
  9
$TILEMODE
 70
     1
  9
$MAXACTVP
 70
    64
  9
$PLIMCHECK
 70
     0
  9
$PEXTMIN
 10
1.0000000000000000E+20
 20
1.0000000000000000E+20
 30
1.0000000000000000E+20
  9
$PEXTMAX
 10
-1.0000000000000000E+20
 20
-1.0000000000000000E+20
 30
-1.0000000000000000E+20
  9
$PLIMMIN
 10
0.0
 20
0.0
  9
$PLIMMAX
 10
12.0
 20
9.0
  9
$UNITMODE
 70
     0
  9
$VISRETAIN
 70
     1
  9
$PLINEGEN
 70
     0
  9
$PSLTSCALE
 70
     1
  0
ENDSEC
  0
SECTION
  2
TABLES
  0
TABLE
  2
VPORT
 70
     1
  0
VPORT
  2
*ACTIVE
 70
     0
 10
0.0
 20
0.0
 11
1.0
 21
1.0
 12
1100.9730288873799964
 22
427.4218999332152862
 13
0.0
 23
0.0
 14
1.0
 24
1.0
 15
0.0
 25
0.0
 16
0.0
 26
0.0
 36
60.4960186965801583
 17
3911.3653564453120453
 27
132.5796051025390057
 37
0.0
 40
28.9937799894970603
 41
2.5092105263157891
 42
50.0
 43
0.0
 44
0.0
 50
0.0
 51
0.0
 71
     0
 72
   100
 73
     1
 74
     1
 75
     0
 76
     0
 77
     0
 78
     0
  0
ENDTAB
  0
TABLE
  2
LTYPE
 70
     2
  0
LTYPE
  2
CONTINUOUS
 70
     0
  3
Solid line
 72
    65
 73
     0
 40
0.0
  0
LTYPE
  2
PHANTOM2
 70
     0
  3
___ _ _ ___ _ _ ___ _ _ ___ _ _
 72
    65
 73
     6
 40
1.25
 49
0.625
 49
-0.125
 49
0.125
 49
-0.125
 49
0.125
 49
-0.125
  0
ENDTAB
  0
TABLE
  2
LAYER
 70
     2
  0
LAYER
  2
0
 70
     0
 62
   255
  6
CONTINUOUS
  0
LAYER
  2
DEFPOINTS
 70
     0
 62
     7
  6
CONTINUOUS
  0
ENDTAB
  0
TABLE
  2
STYLE
 70
     1
  0
STYLE
  2
STANDARD
 70
     0
 40
0.0
 41
0.8
 50
0.0
 71
     0
 42
0.2
  3
txt
  4

  0
ENDTAB
  0
TABLE
  2
VIEW
 70
     0
  0
ENDTAB
  0
TABLE
  2
UCS
 70
     0
  0
ENDTAB
  0
TABLE
  2
APPID
 70
    11
  0
APPID
  2
ACAD
 70
     0
  0
APPID
  2
ACAD_MLEADERVER
 70
     0
  0
APPID
  2
ACAD_EXEMPT_FROM_CAD_STANDARDS
 70
     0
  0
APPID
  2
ACAD_NAV_VCDISPLAY
 70
     0
  0
APPID
  2
ACAECLAYERSTANDARD
 70
     0
  0
APPID
  2
ACCMTRANSPARENCY
 70
     0
  0
APPID
  2
ACAD_DSTYLE_DIMJAG
 70
     0
  0
APPID
  2
ACAD_DSTYLE_DIMTALN
 70
     0
  0
APPID
  2
ACDBATTR
 70
     0
  0
APPID
  2
ACADANNOTATIVE
 70
     0
  0
APPID
  2
DCO15
 70
     0
  0
ENDTAB
  0
TABLE
  2
DIMSTYLE
 70
     1
  0
DIMSTYLE
  2
STANDARD
 70
     0
  3

  4

  5

  6

  7

 40
1.0
 41
0.1875
 42
0.0625
 43
0.38
 44
0.125
 45
0.0
 46
0.0
 47
0.01
 48
0.01
140
0.15625
141
0.09
142
0.0
143
25.3999999999999986
144
1.0
145
0.0
146
1.0
147
0.09
 71
     1
 72
     0
 73
     1
 74
     1
 75
     0
 76
     0
 77
     0
 78
     4
170
     0
171
     2
172
     0
173
     0
174
     0
175
     0
176
     0
177
     0
178
     0
  0
ENDTAB
  0
ENDSEC
  0
SECTION
  2
BLOCKS
  0
BLOCK
  8
0
  2
$MODEL_SPACE
 70
     0
 10
0.0
 20
0.0
 30
0.0
  3
$MODEL_SPACE
  1

  0
ENDBLK
  5
21
  8
0
  0
BLOCK
 67
     1
  8
0
  2
$PAPER_SPACE
 70
     0
 10
0.0
 20
0.0
 30
0.0
  3
$PAPER_SPACE
  1

  0
ENDBLK
  5
1D
 67
     1
  8
0
  0
ENDSEC
  0
SECTION
  2
ENTITIES
  0
ATTDEF
  5
159BF
  8
DEFPOINTS
 10
5012.6235181796719189
 20
574.3508891453914202
 30
0.0
 40
0.001
  1
K-1666T-SL
  3

  2
MODELNUMBER
 70
     0
1001
ACDBATTR
1070
     0
1070
     1
  0
ATTDEF
  5
159C0
  8
DEFPOINTS
 10
5012.6235181796719189
 20
574.3492223050122902
 30
0.0
 40
0.001
  1
VEIL
  3

  2
TRADENAME
 70
     0
1001
ACDBATTR
1070
     0
1070
     1
  0
ATTDEF
  5
159C1
  8
DEFPOINTS
 10
5012.6235181796719189
 20
574.3475558120579763
 30
0.0
 40
0.001
  1
TOILET
  3

  2
PRODUCT
 70
     0
1001
ACDBATTR
1070
     0
1070
     1
  0
LINE
  5
1F0A8
  8
0
 10
5019.7900091248448007
 20
573.9575497469585343
 30
0.0
 11
5005.4570177807199798
 21
573.9575497469585343
 31
0.0
  0
ARC
  5
1F0A9
  8
0
 10
5005.4571335243081194
 20
573.6820760843950211
 30
0.0
 40
0.2754736868789891
 50
90.0240735127011931
 51
179.5240735232702889
  0
LINE
  5
1F0AA
  8
0
 10
5005.1816693408964056
 20
573.6843642758584565
 30
0.0
 11
5005.1390855901963732
 21
568.8047497701585371
 31
0.0
  0
ARC
  5
1F0AB
  8
0
 10
4993.1471587946170985
 20
568.8586290789587565
 30
0.0
 40
11.9920478338958194
 50
357.8125976112913804
 51
359.7425737933771188
  0
ARC
  5
1F0AC
  8
0
 10
5005.3210193202967275
 20
568.3349132780583659
 30
0.0
 40
0.1966795085000005
 50
74.9282040723245757
 51
135.8483711585008962
  0
LINE
  5
1F0AD
  8
0
 10
5005.1799019845830117
 20
568.4719122803353457
 30
0.0
 11
5005.171151778161402
 21
568.4628951405370572
 31
0.0
  0
ARC
  5
1F0AE
  8
0
 10
5005.3134263593674405
 20
568.3251657357860722
 30
0.0
 40
0.1980188005977197
 50
135.929974470105094
 51
179.311159293778104
  0
ARC
  5
1F0AF
  8
0
 10
5005.3908456222916357
 20
568.2986097289840473
 30
0.0
 40
0.2754352346567689
 50
180.5231625773799919
 51
251.0983660673896054
  0
ARC
  5
1F0B0
  8
0
 10
5680.4491841514745829
 20
550.5034105439467567
 30
0.0
 40
675.2732915634749133
 50
178.5150506566963884
 51
178.8131149215984976
  0
ARC
  5
1F0B1
  8
0
 10
5012.6235134527832997
 20
550.5131389571744194
 30
0.0
 40
4.8808274410206058
 50
243.559492074299186
 51
296.4405079257008992
  0
ARC
  5
1F0B2
  8
0
 10
5013.1030594834355725
 20
551.485412865960825
 30
0.0
 40
5.9649264693310853
 50
219.5256661074851081
 51
243.5934820893220945
  0
ARC
  5
1F0B3
  8
0
 10
5016.9099913582549561
 20
554.90936714535394
 30
0.0
 40
11.0825981072702806
 50
203.1779828682479092
 51
220.6538565538633065
  0
ARC
  5
1F0B4
  8
0
 10
5017.8578120476804543
 20
555.7673630702799983
 30
0.0
 40
12.2986416926146607
 50
191.8610116907748022
 51
205.1149426911655951
  0
ARC
  5
1F0B5
  8
0
 10
5005.4146656496377545
 20
568.8023450844258377
 30
0.0
 40
0.2755905507734478
 50
179.5000550943466067
 51
250.7647221361220886
  0
ARC
  5
1F0B6
  8
0
 10
5019.7898933812566611
 20
573.6820760843950211
 30
0.0
 40
0.2754736868789891
 50
0.475926476729689
 51
89.9759264871945845
  0
LINE
  5
1F0B7
  8
0
 10
5020.0653575646683748
 20
573.6843642758584565
 30
0.0
 11
5020.1079413153693167
 21
568.8047497701585371
 31
0.0
  0
ARC
  5
1F0B8
  8
0
 10
5032.099868110947682
 20
568.8586290789587565
 30
0.0
 40
11.9920478338958194
 50
180.2574262066196127
 51
182.1874023887087048
  0
ARC
  5
1F0B9
  8
0
 10
5019.9260075852689624
 20
568.3349132780583659
 30
0.0
 40
0.1966795085000005
 50
44.1516288414990612
 51
105.0717960111092992
  0
LINE
  5
1F0BA
  8
0
 10
5020.0671249209817688
 20
568.4719122803353457
 30
0.0
 11
5020.0758751274033784
 21
568.4628951405370572
 31
0.0
  0
ARC
  5
1F0BB
  8
0
 10
5019.933600546199159
 20
568.3251657357860722
 30
0.0
 40
0.1980188005977228
 50
0.6888407061501944
 51
44.070025529892547
  0
ARC
  5
1F0BC
  8
0
 10
5019.8561812832731448
 20
568.2986097289840473
 30
0.0
 40
0.2754352346567779
 50
288.901633932610423
 51
359.4768374226200081
  0
ARC
  5
1F0BD
  8
0
 10
5019.8323612559261164
 20
568.8023450844258377
 30
0.0
 40
0.2755905507734478
 50
289.2352778638779114
 51
0.4999449056533834
  0
ARC
  5
1F0BE
  8
0
 10
5012.6235134527832997
 20
588.8029849363549602
 30
0.0
 40
22.0180290153389997
 50
250.5769340241720897
 51
289.4230659758279103
  0
ARC
  5
1F0BF
  8
0
 10
5012.6235134527487389
 20
588.8265603008599101
 30
0.0
 40
21.5578864977367211
 50
250.2080025305864979
 51
289.7919974696949907
  0
LINE
  5
1F0C0
  8
0
 10
5005.1154218695573945
 20
568.3275463670581757
 30
0.0
 11
5005.1154218695573945
 21
568.2960947897305459
 31
0.0
  0
LINE
  5
1F0C1
  8
0
 10
5020.1316050360082954
 20
568.3275463670581757
 30
0.0
 11
5020.1316050360082954
 21
568.2960947897305459
 31
0.0
  0
LINE
  5
1F0C3
  8
0
 10
5004.6991832374351361
 20
572.256139638458535
 30
0.0
 11
5005.1166770471354539
 21
572.2634392846584888
 31
0.0
  0
LINE
  5
1F0C4
  8
0
 10
5005.1166770471354539
 20
572.2634392846584888
 30
0.0
 11
5005.1201236275346673
 21
572.2634092067585243
 31
0.0
  0
ARC
  5
1F0C5
  8
0
 10
5004.8402633385003355
 20
572.2480366301485901
 30
0.0
 40
0.2802821747650863
 50
359.0549792142973047
 51
3.144067048807786
  0
LINE
  5
1F0C6
  8
0
 10
5005.1205073897363036
 20
572.2434139428584103
 30
0.0
 11
5005.1090767907353438
 21
570.9335989079586398
 31
0.0
  0
ARC
  5
1F0C7
  8
0
 10
5006.2737908665440045
 20
570.9204379973850791
 30
0.0
 40
1.164788430555826
 50
179.3526028793015996
 51
182.239936360678513
  0
LINE
  5
1F0C8
  8
0
 10
5005.1098924315347176
 20
570.8749130488586161
 30
0.0
 11
5005.1404241298350826
 21
570.8706968493586373
 31
0.0
  0
ARC
  5
1F0C9
  8
0
 10
5003.9577837434535468
 20
570.7636915232637875
 30
0.0
 40
1.187471441050886
 50
1.2317423339358271
 51
5.1700455350581249
  0
ARC
  5
1F0CA
  8
0
 10
5014.2062291531055962
 20
570.9840461327671619
 30
0.0
 40
9.0633426470373788
 50
181.2317423339358129
 51
181.7481235384803142
  0
LINE
  5
1F0CB
  8
0
 10
5005.1317571377358036
 20
570.8073449083585729
 30
0.0
 11
5005.1396077875351693
 21
570.8072763967585388
 31
0.0
  0
ARC
  5
1F0CC
  8
0
 10
5003.819897589233733
 20
570.6909066793849661
 30
0.0
 40
1.3248309018966109
 50
0.7175035468847197
 51
5.039207121596041
  0
ARC
  5
1F0CD
  8
0
 10
5006.778307722162026
 20
570.6456222018588278
 30
0.0
 40
1.654473650703763
 50
174.3904526956555117
 51
177.8745739836284088
  0
LINE
  5
1F0CE
  8
0
 10
5005.124972292936036
 20
570.7069819552584704
 30
0.0
 11
5005.1556931430150144
 21
570.7077868278004189
 31
0.0
  0
ARC
  5
1F0CF
  8
0
 10
5021.1301622164737637
 20
570.1244852034831183
 30
0.0
 40
16.0157861797154588
 50
177.9156834768546958
 51
181.0849185823628034
  0
ARC
  5
1F0D0
  8
0
 10
5006.3065616348640106
 20
569.8432446999777312
 30
0.0
 40
1.1895180437826121
 50
181.0600627486774101
 51
187.0085254765253922
  0
ARC
  5
1F0D1
  8
0
 10
5003.8925700157979009
 20
569.8701988658044684
 30
0.0
 40
1.245310344523799
 50
352.0565896384533744
 51
357.7072775845538217
  0
LINE
  5
1F0D2
  8
0
 10
5005.1172471764348302
 20
569.8212379860584633
 30
0.0
 11
5005.1479446483681386
 21
569.8198972865670839
 31
0.0
  0
ARC
  5
1F0D3
  8
0
 10
5003.1945845830496182
 20
569.8781403183841121
 30
0.0
 40
1.945636296602524
 50
352.9412930959481969
 51
358.2956283864127158
  0
ARC
  5
1F0D4
  8
0
 10
5007.2322502710667322
 20
569.8543146184248371
 30
0.0
 40
2.117745026927953
 50
180.8916370267189961
 51
185.8341249276842007
  0
LINE
  5
1F0D5
  8
0
 10
5005.1254744348352688
 20
569.6390483299585412
 30
0.0
 11
5004.6747415077352343
 21
569.6547928798586327
 31
0.0
  0
ARC
  5
1F0D6
  8
0
 10
5008.6315460044615975
 20
570.5843907719341814
 30
0.0
 40
3.5111965042387929
 50
175.3216617079997945
 51
178.0191647380684117
  0
ARC
  5
1F0D7
  8
0
 10
5024.2161817935830186
 20
570.0975878240784596
 30
0.0
 40
19.1034173037386701
 50
178.1756478990573953
 51
180.8285042894544006
  0
LINE
  5
1F0D8
  8
0
 10
5005.1404241298350826
 20
570.8706968493586373
 30
0.0
 11
5005.1320477749350175
 21
570.8707699487586069
 31
0.0
  0
LINE
  5
1F0D9
  8
0
 10
5005.1320477749350175
 20
570.8707699487586069
 30
0.0
 11
5005.1026736895355498
 21
570.8749760451586326
 31
0.0
  0
LINE
  5
1F0DA
  8
0
 10
5005.1026736895355498
 20
570.8749760451586326
 30
0.0
 11
5004.6820304934362866
 21
570.8694938190585617
 31
0.0
  0
ARC
  5
1F0DB
  8
0
 10
5004.3872493502612997
 20
570.9116742987722546
 30
0.0
 40
0.2807974575380406
 50
351.7827202725640063
 51
1.09022476153365
  0
ARC
  5
1F0DC
  8
0
 10
5006.3376436641783584
 20
570.6444969525604165
 30
0.0
 40
1.687820301367128
 50
172.2692003593436141
 51
173.5153487215750943
  0
ARC
  5
1F0DD
  8
0
 10
5010.625064868845584
 20
570.2161211178238318
 30
0.0
 40
5.9964767902993641
 50
174.0750223374087113
 51
185.0240726114093093
  0
ARC
  5
1F0DE
  8
0
 10
5004.7978805692591777
 20
569.7039808469169202
 30
0.0
 40
0.1468303282506207
 50
185.0782584916759959
 51
192.1867757960091865
  0
ARC
  5
1F0DF
  8
0
 10
5004.6759125377520832
 20
569.6766191254489513
 30
0.0
 40
0.0218576372893257
 50
189.5704175534689
 51
266.9288896322221945
  0
LINE
  5
1F0E0
  8
0
 10
5004.6679959758348559
 20
570.9170169936585353
 30
0.0
 11
5004.6795328430353038
 21
572.2363172170586267
 31
0.0
  0
ARC
  5
1F0E1
  8
0
 10
5004.6995320772566629
 20
572.2361426851498436
 30
0.0
 40
0.0199999957711935
 50
90.9994033652044436
 51
179.4999964600368116
  0
LINE
  5
1F0E2
  8
0
 10
5005.1098924315347176
 20
570.8749130488586161
 30
0.0
 11
5005.1026736895355498
 21
570.8749760451586326
 31
0.0
  0
ARC
  5
1F0E3
  8
0
 10
5004.6833460685884347
 20
570.8483963683712545
 30
0.0
 40
0.0211384285953981
 50
93.5681767293589814
 51
166.475391765355198
  0
ARC
  5
1F0E4
  8
0
 10
5007.7535381404732107
 20
855.9817518771228606
 30
0.0
 40
291.2421104318580092
 50
269.6050834642941822
 51
269.9985947732571958
  0
ARC
  5
1F0E5
  8
0
 10
5005.7413979347138593
 20
564.2723933423949347
 30
0.0
 40
0.4741899350632386
 50
89.4269564149694389
 51
149.9362388379641118
  0
ARC
  5
1F0E6
  8
0
 10
5005.7180598101431315
 20
564.2916373668980441
 30
0.0
 40
0.4443786933190057
 50
150.5762252218652861
 51
180.1868999303493126
  0
ARC
  5
1F0E7
  8
0
 10
5753.9340502436971292
 20
563.6994420774850596
 30
0.0
 40
748.6605998325488827
 50
179.954789606862505
 51
180.3139088632451887
  0
ARC
  5
1F0E8
  8
0
 10
5089.3626227525428476
 20
560.0594057832171302
 30
0.0
 40
84.0792036946058658
 50
180.3146014348637891
 51
182.1882966348275943
  0
ARC
  5
1F0E9
  8
0
 10
5033.9071097131309216
 20
558.7875224325061936
 30
0.0
 40
28.6280860769929504
 50
183.8827961850224995
 51
191.1743826356494935
  0
LINE
  5
1F0EA
  8
0
 10
5007.8190897016102099
 20
564.8240778969584426
 30
0.0
 11
5007.8171809347104499
 21
564.759484934258353
 31
0.0
  0
ARC
  5
1F0EB
  8
0
 10
5007.7500492814770041
 20
564.9220581582452496
 30
0.0
 40
0.1824532204094555
 50
268.8524274993466747
 51
286.1442188023879112
  0
ARC
  5
1F0EC
  8
0
 10
5007.7920069336423694
 20
564.7750873066675013
 30
0.0
 40
0.0296169605892744
 50
287.2336175330112837
 51
328.2101437764640082
  0
ARC
  5
1F0ED
  8
0
 10
5007.8632615868664288
 20
564.7836142785250786
 30
0.0
 40
0.0599037550061099
 50
106.6363923218580965
 51
137.5087844466802949
  0
ARC
  5
1F0EE
  8
0
 10
5007.8727489141347178
 20
564.7518633472120655
 30
0.0
 40
0.0930418149664832
 50
90.5115850845795364
 51
106.636392321859006
  0
LINE
  5
1F0EF
  8
0
 10
5007.8719181693104474
 20
564.8449014533584887
 30
0.0
 11
5008.2534481397096897
 21
564.8449014533584887
 31
0.0
  0
ARC
  5
1F0F0
  8
0
 10
5008.2536538302210829
 20
564.7662879563883962
 30
0.0
 40
0.0786137660620916
 50
3.568641952437134
 51
90.1499128230688882
  0
ARC
  5
1F0F1
  8
0
 10
4999.6320563399103776
 20
564.6096288561939218
 30
0.0
 40
8.7015586324600473
 50
0.079001721080979
 51
1.0638094309956561
  0
LINE
  5
1F0F2
  8
0
 10
5008.3506219474102181
 20
564.8241739946585085
 30
0.0
 11
5008.3450104700095835
 21
564.6353738270585154
 31
0.0
  0
ARC
  5
1F0F3
  8
0
 10
5008.4043053082041297
 20
564.7650390031451479
 30
0.0
 40
0.0798677059102231
 50
89.9148029179086166
 51
132.233493974006592
  0
LINE
  5
1F0F4
  8
0
 10
5008.4044240690100196
 20
564.8449066207583655
 30
0.0
 11
5008.8111476888107063
 21
564.8449069356585142
 31
0.0
  0
ARC
  5
1F0F5
  8
0
 10
5008.8120438744572311
 20
564.7670567521688554
 30
0.0
 40
0.0778553416156757
 50
47.1922577097863609
 51
90.6595409922071553
  0
LINE
  5
1F0F6
  8
0
 10
5008.8649497280102878
 20
564.824174392858481
 30
0.0
 11
5008.8705607825113475
 21
564.6353742468585324
 31
0.0
  0
ARC
  5
1F0F7
  8
0
 10
5008.3294106975727118
 20
564.6374666591193545
 30
0.0
 40
0.0157395313188053
 50
302.4080222432976939
 51
352.3589450354617156
  0
ARC
  5
1F0F8
  8
0
 10
5008.2822206355967865
 20
564.7118032902782261
 30
0.0
 40
0.1037897254203075
 50
289.9970145569768079
 51
302.4080222432976939
  0
ARC
  5
1F0F9
  8
0
 10
5008.2307867445815646
 20
564.9246415612630017
 30
0.0
 40
0.3223137991685369
 50
269.3423595910679182
 51
285.6462228283542117
  0
LINE
  5
1F0FA
  8
0
 10
5008.2270873111101537
 20
564.6023489933585324
 30
0.0
 11
5005.7462600126100369
 21
564.6023471180584465
 31
0.0
  0
ARC
  5
1F0FB
  8
0
 10
5005.7392241779925826
 20
564.1300583304597467
 30
0.0
 40
0.4723411922119965
 50
89.1465098860041252
 51
149.2764531264458867
  0
ARC
  5
1F0FC
  8
0
 10
5005.7214022357566137
 20
564.1473238136296686
 30
0.0
 40
0.4482365400529761
 50
150.0098015952594892
 51
177.2457667921798929
  0
LINE
  5
1F0FD
  8
0
 10
5008.9227613868097251
 20
564.8449014526585188
 30
0.0
 11
5016.3243361900103992
 21
564.8449014526585188
 31
0.0
  0
LINE
  5
1F0FE
  8
0
 10
5016.2584120566107231
 20
564.6023554680583629
 30
0.0
 11
5008.9886552247098734
 21
564.6023497027583744
 31
0.0
  0
ARC
  5
1F0FF
  8
0
 10
5008.8815652049161145
 20
564.6357582510922839
 30
0.0
 40
0.0110111203659287
 50
181.998550868260395
 51
218.8105263119093991
  0
ARC
  5
1F100
  8
0
 10
5008.9095516862716977
 20
564.6641113431151098
 30
0.0
 40
0.0507935057005472
 50
223.9532014193470104
 51
248.5582685868643011
  0
ARC
  5
1F101
  8
0
 10
5008.9837171276385561
 20
564.9056191744175521
 30
0.0
 40
0.303309672188357
 50
252.1974387262146138
 51
270.9328572330869065
  0
ARC
  5
1F102
  8
0
 10
5008.922761385614649
 20
564.8055313751533504
 30
0.0
 40
0.0393700775050832
 50
89.9999982609781455
 51
179.999918931680611
  0
LINE
  5
1F103
  8
0
 10
5008.8833913081107312
 20
564.8055314308585366
 30
0.0
 11
5008.8833913081107312
 21
564.6205726840199759
 31
0.0
  0
LINE
  5
1F104
  8
0
 10
5015.316454939011237
 20
564.8787682273583641
 30
0.0
 11
5009.930651158800174
 21
564.8787682273583641
 31
0.0
  0
ARC
  5
1F105
  8
0
 10
5015.316257722557566
 20
563.499287011983256
 30
0.0
 40
1.3794812294727119
 50
77.2778861874036096
 51
89.9918087537659801
  0
ARC
  5
1F106
  8
0
 10
4344.7978427540892881
 20
550.5034105439467567
 30
0.0
 40
675.2732915634749133
 50
1.1868850784014611
 51
1.484949343303622
  0
ARC
  5
1F107
  8
0
 10
5012.143967422129208
 20
551.485412865960825
 30
0.0
 40
5.9649264693310853
 50
296.4065179106777919
 51
320.4743338925148919
  0
ARC
  5
1F108
  8
0
 10
5008.3370355473098243
 20
554.90936714535394
 30
0.0
 40
11.0825981072702806
 50
319.3461434461366935
 51
336.8220171317520908
  0
ARC
  5
1F109
  8
0
 10
5007.3892148578843262
 20
555.7673630702799983
 30
0.0
 40
12.2986416926146607
 50
334.8850573088342912
 51
348.1389883092252262
  0
ARC
  5
1F10A
  8
0
 10
5017.4934887650915698
 20
855.9817518771228606
 30
0.0
 40
291.2421104318580092
 50
270.0014052267428042
 51
270.3949165357058178
  0
ARC
  5
1F10B
  8
0
 10
5019.5056289708509212
 20
564.2723933423949347
 30
0.0
 40
0.4741899350632386
 50
30.0637611620358705
 51
90.5730435850305611
  0
ARC
  5
1F10C
  8
0
 10
5019.5289670954207395
 20
564.2916373668980441
 30
0.0
 40
0.4443786933190057
 50
359.8131000696506021
 51
29.4237747781347387
  0
ARC
  5
1F10D
  8
0
 10
4271.3129766618667418
 20
563.6994420774850596
 30
0.0
 40
748.6605998325488827
 50
359.6860911367515996
 51
0.045210393134262
  0
ARC
  5
1F10E
  8
0
 10
4935.8844041530210234
 20
560.0594057832171302
 30
0.0
 40
84.0792036946058658
 50
357.8117033651723773
 51
359.6853985651362109
  0
ARC
  5
1F10F
  8
0
 10
4991.3399171924329494
 20
558.7875224325061936
 30
0.0
 40
28.6280860769929504
 50
348.8256173643504781
 51
356.1172038149774721
  0
LINE
  5
1F110
  8
0
 10
5017.4279372039536611
 20
564.8240778969584426
 30
0.0
 11
5017.42984597085524
 21
564.759484934258353
 31
0.0
  0
ARC
  5
1F111
  8
0
 10
5017.4969776240868669
 20
564.9220581582452496
 30
0.0
 40
0.1824532204094555
 50
253.8557811976120888
 51
271.1475725006533253
  0
ARC
  5
1F112
  8
0
 10
5017.4550199719224111
 20
564.7750873066675013
 30
0.0
 40
0.0296169605892744
 50
211.7898562235359918
 51
252.7663824669886026
  0
ARC
  5
1F113
  8
0
 10
5017.3837653186983516
 20
564.7836142785250786
 30
0.0
 40
0.0599037550061099
 50
42.4912155533196128
 51
73.3636076781409514
  0
ARC
  5
1F114
  8
0
 10
5017.3742779914300627
 20
564.7518633472120655
 30
0.0
 40
0.0930418149664832
 50
73.3636076781409514
 51
89.4884149154204636
  0
LINE
  5
1F115
  8
0
 10
5017.3751087362552425
 20
564.8449014533584887
 30
0.0
 11
5016.9935787658550908
 21
564.8449014533584887
 31
0.0
  0
ARC
  5
1F116
  8
0
 10
5016.9933730753436976
 20
564.7662879563883962
 30
0.0
 40
0.0786137660620916
 50
89.850087176931126
 51
176.43135804756281
  0
ARC
  5
1F117
  8
0
 10
5025.6149705656553124
 20
564.6096288561939218
 30
0.0
 40
8.7015586324600473
 50
178.9361905690043102
 51
179.9209982789190008
  0
LINE
  5
1F118
  8
0
 10
5016.8964049581545623
 20
564.8241739946585085
 30
0.0
 11
5016.9020164355551969
 21
564.6353738270585154
 31
0.0
  0
ARC
  5
1F119
  8
0
 10
5016.8427215973597413
 20
564.7650390031451479
 30
0.0
 40
0.0798677059102231
 50
47.7665060259933725
 51
90.0851970820913834
  0
LINE
  5
1F11A
  8
0
 10
5016.8426028365547609
 20
564.8449066207583655
 30
0.0
 11
5016.4358792167540742
 21
564.8449069356585142
 31
0.0
  0
ARC
  5
1F11B
  8
0
 10
5016.4349830311066398
 20
564.7670567521688554
 30
0.0
 40
0.0778553416156757
 50
89.3404590077928447
 51
132.8077422902136107
  0
LINE
  5
1F11C
  8
0
 10
5016.3820771775554022
 20
564.824174392858481
 30
0.0
 11
5016.3764661230543425
 21
564.6353742468585324
 31
0.0
  0
ARC
  5
1F11D
  8
0
 10
5016.9176162079920687
 20
564.6374666591193545
 30
0.0
 40
0.0157395313188053
 50
187.6410549645383128
 51
237.5919777567023061
  0
ARC
  5
1F11E
  8
0
 10
5016.9648062699670845
 20
564.7118032902782261
 30
0.0
 40
0.1037897254203075
 50
237.5919777567023061
 51
250.0029854430231069
  0
ARC
  5
1F11F
  8
0
 10
5017.0162401609841254
 20
564.9246415612630017
 30
0.0
 40
0.3223137991685369
 50
254.3537771716457883
 51
270.6576404089320818
  0
LINE
  5
1F120
  8
0
 10
5017.0199395944546268
 20
564.6023489933585324
 30
0.0
 11
5019.5007668929547435
 21
564.6023471180584465
 31
0.0
  0
ARC
  5
1F121
  8
0
 10
5019.5078027275721979
 20
564.1300583304597467
 30
0.0
 40
0.4723411922119965
 50
30.7235468735540707
 51
90.853490113995889
  0
ARC
  5
1F122
  8
0
 10
5019.5256246698072573
 20
564.1473238136296686
 30
0.0
 40
0.4482365400529761
 50
2.754233207820092
 51
29.9901984047404895
  0
ARC
  5
1F123
  8
0
 10
5016.3654617006495755
 20
564.6357582510922839
 30
0.0
 40
0.0110111203659287
 50
321.1894736880905725
 51
358.001449131739605
  0
ARC
  5
1F124
  8
0
 10
5016.3374752192930828
 20
564.6641113431151098
 30
0.0
 40
0.0507935057005472
 50
291.4417314131355852
 51
316.0467985806529896
  0
ARC
  5
1F125
  8
0
 10
5016.2633646099202451
 20
564.9053838959606537
 30
0.0
 40
0.303068896294484
 50
269.0636682395817161
 51
287.8062907269128914
  0
ARC
  5
1F126
  8
0
 10
5016.3242654113400931
 20
564.8055313301656497
 30
0.0
 40
0.0393701861149038
 50
0.0001465391840335
 51
89.8969951202076345
  0
LINE
  5
1F127
  8
0
 10
5016.3636355974531398
 20
564.8055314308585366
 30
0.0
 11
5016.3636355974531398
 21
564.6205726840199759
 31
0.0
  0
ENDSEC
  0
EOF
