  0
SECTION
  2
HEADER
  9
$ACADVER
  1
AC1009
  9
$INSBASE
 10
5209.009160956942651
 20
514.9460353753746631
 30
0.0
  9
$EXTMIN
 10
5193.2215479922424493
 20
495.2550915070216888
 30
-0.0000000000112498
  9
$EXTMAX
 10
5224.8836656936546206
 20
516.9478562729234454
 30
0.0000000000002956
  9
$LIMMIN
 10
0.0
 20
0.0
  9
$LIMMAX
 10
11.6929133858000007
 20
8.2677165353999982
  9
$ORTHOMODE
 70
     0
  9
$REGENMODE
 70
     1
  9
$FILLMODE
 70
     1
  9
$QTEXTMODE
 70
     0
  9
$MIRRTEXT
 70
     0
  9
$DRAGMODE
 70
     2
  9
$LTSCALE
 40
0.6431102362
  9
$OSMODE
 70
     7
  9
$ATTMODE
 70
     1
  9
$TEXTSIZE
 40
0.2
  9
$TRACEWID
 40
0.05
  9
$TEXTSTYLE
  7
STANDARD
  9
$CLAYER
  8
0
  9
$CELTYPE
  6
BYLAYER
  9
$CECOLOR
 62
   256
  9
$DIMSCALE
 40
1.0
  9
$DIMASZ
 40
0.1875
  9
$DIMEXO
 40
0.0625
  9
$DIMDLI
 40
0.4443307087
  9
$DIMRND
 40
0.0
  9
$DIMDLE
 40
0.0
  9
$DIMEXE
 40
0.125
  9
$DIMTP
 40
0.01
  9
$DIMTM
 40
0.01
  9
$DIMTXT
 40
2.0
  9
$DIMCEN
 40
0.1052362205
  9
$DIMTSZ
 40
0.0
  9
$DIMTOL
 70
     1
  9
$DIMLIM
 70
     0
  9
$DIMTIH
 70
     1
  9
$DIMTOH
 70
     1
  9
$DIMSE1
 70
     0
  9
$DIMSE2
 70
     0
  9
$DIMTAD
 70
     0
  9
$DIMZIN
 70
     0
  9
$DIMBLK
  1

  9
$DIMASO
 70
     1
  9
$DIMSHO
 70
     1
  9
$DIMPOST
  1
\X
  9
$DIMAPOST
  1

  9
$DIMALT
 70
     1
  9
$DIMALTD
 70
     2
  9
$DIMALTF
 40
25.3999999999999986
  9
$DIMLFAC
 40
1.0
  9
$DIMTOFL
 70
     0
  9
$DIMTVP
 40
0.0
  9
$DIMTIX
 70
     0
  9
$DIMSOXD
 70
     0
  9
$DIMSAH
 70
     0
  9
$DIMBLK1
  1

  9
$DIMBLK2
  1

  9
$DIMSTYLE
  2
STANDARD
  9
$DIMCLRD
 70
     0
  9
$DIMCLRE
 70
     0
  9
$DIMCLRT
 70
     0
  9
$DIMTFAC
 40
1.0
  9
$DIMGAP
 40
0.09
  9
$LUNITS
 70
     2
  9
$LUPREC
 70
     4
  9
$SKETCHINC
 40
0.1
  9
$FILLETRAD
 40
0.0
  9
$AUNITS
 70
     0
  9
$AUPREC
 70
     0
  9
$MENU
  1
.
  9
$ELEVATION
 40
0.0
  9
$PELEVATION
 40
0.0
  9
$THICKNESS
 40
0.0
  9
$LIMCHECK
 70
     0
  9
$BLIPMODE
 70
     0
  9
$CHAMFERA
 40
0.0
  9
$CHAMFERB
 40
0.0
  9
$SKPOLY
 70
     0
  9
$TDCREATE
 40
2458060.468368056230247
  9
$TDUPDATE
 40
2459393.5763657409697771
  9
$TDINDWG
 40
1.6985848843
  9
$TDUSRTIMER
 40
1.6985848843
  9
$USRTIMER
 70
     1
  9
$ANGBASE
 50
0.0
  9
$ANGDIR
 70
     0
  9
$PDMODE
 70
     0
  9
$PDSIZE
 40
0.3125
  9
$PLINEWID
 40
0.0
  9
$COORDS
 70
     1
  9
$SPLFRAME
 70
     0
  9
$SPLINETYPE
 70
     6
  9
$SPLINESEGS
 70
     8
  9
$ATTDIA
 70
     1
  9
$ATTREQ
 70
     1
  9
$HANDLING
 70
     1
  9
$HANDSEED
  5
1F54E
  9
$SURFTAB1
 70
     6
  9
$SURFTAB2
 70
     6
  9
$SURFTYPE
 70
     6
  9
$SURFU
 70
     6
  9
$SURFV
 70
     6
  9
$UCSNAME
  2

  9
$UCSORG
 10
0.0
 20
0.0
 30
0.0
  9
$UCSXDIR
 10
1.0
 20
0.0
 30
0.0
  9
$UCSYDIR
 10
0.0
 20
1.0
 30
0.0
  9
$PUCSNAME
  2

  9
$PUCSORG
 10
0.0
 20
0.0
 30
0.0
  9
$PUCSXDIR
 10
1.0
 20
0.0
 30
0.0
  9
$PUCSYDIR
 10
0.0
 20
1.0
 30
0.0
  9
$USERI1
 70
     0
  9
$USERI2
 70
     0
  9
$USERI3
 70
     0
  9
$USERI4
 70
     0
  9
$USERI5
 70
     0
  9
$USERR1
 40
0.0
  9
$USERR2
 40
0.0
  9
$USERR3
 40
0.0
  9
$USERR4
 40
0.0
  9
$USERR5
 40
0.0
  9
$WORLDVIEW
 70
     1
  9
$SHADEDGE
 70
     3
  9
$SHADEDIF
 70
    70
  9
$TILEMODE
 70
     1
  9
$MAXACTVP
 70
    64
  9
$PLIMCHECK
 70
     0
  9
$PEXTMIN
 10
1.0000000000000000E+20
 20
1.0000000000000000E+20
 30
1.0000000000000000E+20
  9
$PEXTMAX
 10
-1.0000000000000000E+20
 20
-1.0000000000000000E+20
 30
-1.0000000000000000E+20
  9
$PLIMMIN
 10
0.0
 20
0.0
  9
$PLIMMAX
 10
12.0
 20
9.0
  9
$UNITMODE
 70
     0
  9
$VISRETAIN
 70
     1
  9
$PLINEGEN
 70
     0
  9
$PSLTSCALE
 70
     1
  0
ENDSEC
  0
SECTION
  2
TABLES
  0
TABLE
  2
VPORT
 70
     1
  0
VPORT
  2
*ACTIVE
 70
     0
 10
0.0
 20
0.0
 11
1.0
 21
1.0
 12
1297.687250397634898
 22
373.5218687874335046
 13
0.0
 23
0.0
 14
1.0
 24
1.0
 15
0.0
 25
0.0
 16
0.0
 26
0.0
 36
60.4960186965801583
 17
3911.3653564453120453
 27
132.5796051025390057
 37
0.0
 40
21.8594185285079483
 41
2.3461538461538458
 42
50.0
 43
0.0
 44
0.0
 50
0.0
 51
0.0
 71
     0
 72
   100
 73
     1
 74
     1
 75
     0
 76
     0
 77
     0
 78
     0
  0
ENDTAB
  0
TABLE
  2
LTYPE
 70
     2
  0
LTYPE
  2
CONTINUOUS
 70
     0
  3
Solid line
 72
    65
 73
     0
 40
0.0
  0
LTYPE
  2
PHANTOM2
 70
     0
  3
___ _ _ ___ _ _ ___ _ _ ___ _ _
 72
    65
 73
     6
 40
1.25
 49
0.625
 49
-0.125
 49
0.125
 49
-0.125
 49
0.125
 49
-0.125
  0
ENDTAB
  0
TABLE
  2
LAYER
 70
     2
  0
LAYER
  2
0
 70
     0
 62
   255
  6
CONTINUOUS
  0
LAYER
  2
DEFPOINTS
 70
     0
 62
     7
  6
CONTINUOUS
  0
ENDTAB
  0
TABLE
  2
STYLE
 70
     1
  0
STYLE
  2
STANDARD
 70
     0
 40
0.0
 41
0.8
 50
0.0
 71
     0
 42
0.2
  3
txt
  4

  0
ENDTAB
  0
TABLE
  2
VIEW
 70
     0
  0
ENDTAB
  0
TABLE
  2
UCS
 70
     0
  0
ENDTAB
  0
TABLE
  2
APPID
 70
    11
  0
APPID
  2
ACAD
 70
     0
  0
APPID
  2
ACAD_MLEADERVER
 70
     0
  0
APPID
  2
ACAD_EXEMPT_FROM_CAD_STANDARDS
 70
     0
  0
APPID
  2
ACAD_NAV_VCDISPLAY
 70
     0
  0
APPID
  2
ACAECLAYERSTANDARD
 70
     0
  0
APPID
  2
ACCMTRANSPARENCY
 70
     0
  0
APPID
  2
ACAD_DSTYLE_DIMJAG
 70
     0
  0
APPID
  2
ACAD_DSTYLE_DIMTALN
 70
     0
  0
APPID
  2
ACDBATTR
 70
     0
  0
APPID
  2
ACADANNOTATIVE
 70
     0
  0
APPID
  2
DCO15
 70
     0
  0
ENDTAB
  0
TABLE
  2
DIMSTYLE
 70
     1
  0
DIMSTYLE
  2
STANDARD
 70
     0
  3

  4

  5

  6

  7

 40
1.0
 41
0.1875
 42
0.0625
 43
0.38
 44
0.125
 45
0.0
 46
0.0
 47
0.01
 48
0.01
140
0.15625
141
0.09
142
0.0
143
25.3999999999999986
144
1.0
145
0.0
146
1.0
147
0.09
 71
     1
 72
     0
 73
     1
 74
     1
 75
     0
 76
     0
 77
     0
 78
     4
170
     0
171
     2
172
     0
173
     0
174
     0
175
     0
176
     0
177
     0
178
     0
  0
ENDTAB
  0
ENDSEC
  0
SECTION
  2
BLOCKS
  0
BLOCK
  8
0
  2
$MODEL_SPACE
 70
     0
 10
0.0
 20
0.0
 30
0.0
  3
$MODEL_SPACE
  1

  0
ENDBLK
  5
21
  8
0
  0
BLOCK
 67
     1
  8
0
  2
$PAPER_SPACE
 70
     0
 10
0.0
 20
0.0
 30
0.0
  3
$PAPER_SPACE
  1

  0
ENDBLK
  5
1D
 67
     1
  8
0
  0
ENDSEC
  0
SECTION
  2
ENTITIES
  0
ATTDEF
  5
159BF
  8
DEFPOINTS
 10
5209.0091654015095628
 20
514.9493762794396616
 30
0.0
 40
0.001
  1
K-1704X-1P
  3

  2
MODELNUMBER
 70
     0
1001
ACDBATTR
1070
     0
1070
     1
  0
ATTDEF
  5
159C0
  8
DEFPOINTS
 10
5209.0091654015095628
 20
514.9477094390605316
 30
0.0
 40
0.001
  1
EVOK
  3

  2
TRADENAME
 70
     0
1001
ACDBATTR
1070
     0
1070
     1
  0
ATTDEF
  5
159C1
  8
DEFPOINTS
 10
5209.0091654015095628
 20
514.9460429461063313
 30
0.0
 40
0.001
  1
BATH
  3

  2
PRODUCT
 70
     0
1001
ACDBATTR
1070
     0
1070
     1
  0
LINE
  5
1F4AC
  8
0
 10
5202.1193971773936937
 20
495.2609960052748193
 30
0.0
 11
5199.7571924529929674
 21
495.2609960052748193
 31
0.0
  0
LINE
  5
1F4AD
  8
0
 10
5213.5367200120927009
 20
495.2609960052748193
 30
0.0
 11
5215.8989247364934272
 21
495.2609960052748193
 31
0.0
  0
LINE
  5
1F4AE
  8
0
 10
5193.261129460893244
 20
514.9460353753746631
 30
0.0
 11
5224.7571924529929674
 21
514.9460353753746631
 31
0.0
  0
LINE
  5
1F4AF
  8
0
 10
5193.261129460893244
 20
516.6323115488436315
 30
0.0
 11
5193.261129460893244
 21
514.9460353753746631
 31
0.0
  0
ARC
  5
1F4B0
  8
0
 10
5193.5383806691861537
 20
516.631660631665909
 30
0.0
 40
0.2772519723878243
 50
94.7044406673322356
 51
179.8654839599780075
  0
LINE
  5
1F4B1
  8
0
 10
5202.1193971773936937
 20
495.2609960052748193
 30
0.0
 11
5202.1193971773936937
 21
497.4978060242747802
 31
0.0
  0
LINE
  5
1F4B2
  8
0
 10
5199.7571924529929674
 20
495.2609960052748193
 30
0.0
 11
5199.7571924529929674
 21
497.4982072618748248
 31
0.0
  0
ARC
  5
1F4B3
  8
0
 10
5152.9277281297090667
 20
499.7102487550371279
 30
0.0
 40
44.579734735379617
 50
3.5731863377621709
 51
19.9845134944792413
  0
LINE
  5
1F4B4
  8
0
 10
5197.420800050894286
 20
502.4886115990747726
 30
0.0
 11
5197.7387835428926337
 21
498.9680482653747049
 31
0.0
  0
ARC
  5
1F4B5
  8
0
 10
5199.9244363146017349
 20
499.2586734680299969
 30
0.0
 40
2.2048902573358511
 50
187.5741615989184936
 51
265.6498606539174716
  0
ARC
  5
1F4B6
  8
0
 10
5200.9373402282617462
 20
491.8780703245190011
 30
0.0
 40
5.7427073724944
 50
78.121547389155694
 51
101.8589884038685938
  0
LINE
  5
1F4B7
  8
0
 10
5206.7796152377932231
 20
496.8554841942748226
 30
0.0
 11
5208.8765019516931716
 21
496.8554841942748226
 31
0.0
  0
LINE
  5
1F4B8
  8
0
 10
5206.7796152377932231
 20
496.8554841942748226
 30
0.0
 11
5206.2532554450936004
 21
496.967335650174789
 31
0.0
  0
LINE
  5
1F4B9
  8
0
 10
5206.2532554450936004
 20
496.967335650174789
 30
0.0
 11
5206.2532554450936004
 21
497.0047867162747934
 31
0.0
  0
LINE
  5
1F4BA
  8
0
 10
5206.2532554450936004
 20
496.967335650174789
 30
0.0
 11
5209.4028617443927942
 21
496.967335650174789
 31
0.0
  0
ARC
  5
1F4BB
  8
0
 10
5207.8280585947431973
 20
459.6487173542698201
 30
0.0
 40
37.3933889232823233
 50
87.779039578885957
 51
92.2209604211140856
  0
LINE
  5
1F4BC
  8
0
 10
5206.3789389367939293
 20
497.0140165954747999
 30
0.0
 11
5206.2532554450936004
 21
497.0047867162747934
 31
0.0
  0
LINE
  5
1F4BD
  8
0
 10
5206.2532554450936004
 20
497.0047867162747934
 30
0.0
 11
5202.1193971773936937
 21
497.029270664574824
 31
0.0
  0
LINE
  5
1F4BE
  8
0
 10
5193.5156416401678143
 20
516.9079785513748675
 30
0.0
 11
5224.5026802737193066
 21
516.9079785513748675
 31
0.0
  0
LINE
  5
1F4BF
  8
0
 10
5224.7571924529929674
 20
516.6323115488436315
 30
0.0
 11
5224.7571924529929674
 21
514.9460353753746631
 31
0.0
  0
ARC
  5
1F4C0
  8
0
 10
5224.4799412447009672
 20
516.631660631665909
 30
0.0
 40
0.2772519723878243
 50
0.1345160400219179
 51
85.2955593326677644
  0
LINE
  5
1F4C1
  8
0
 10
5213.5367200120927009
 20
495.2609960052748193
 30
0.0
 11
5213.5367200120927009
 21
497.4978060242747802
 31
0.0
  0
LINE
  5
1F4C2
  8
0
 10
5215.8989247364934272
 20
495.2609960052748193
 30
0.0
 11
5215.8989247364934272
 21
497.4982072618748248
 31
0.0
  0
ARC
  5
1F4C3
  8
0
 10
5262.7283890597800564
 20
499.7102487550366163
 30
0.0
 40
44.5797347353814928
 50
160.0154865055237963
 51
176.4268136622378051
  0
LINE
  5
1F4C4
  8
0
 10
5218.2353171385930182
 20
502.4886115990747726
 30
0.0
 11
5217.9173336465928514
 21
498.9680482653747049
 31
0.0
  0
ARC
  5
1F4C5
  8
0
 10
5215.7316808748846597
 20
499.2586734680299969
 30
0.0
 40
2.2048902573358511
 50
274.3501393460824147
 51
352.425838401081478
  0
ARC
  5
1F4C6
  8
0
 10
5214.7187769612255579
 20
491.8780703245190011
 30
0.0
 40
5.7427073724944
 50
78.1410115961314204
 51
101.878452610844306
  0
LINE
  5
1F4C7
  8
0
 10
5208.8765019516931716
 20
496.8554841942748226
 30
0.0
 11
5209.4028617443927942
 21
496.967335650174789
 31
0.0
  0
LINE
  5
1F4C8
  8
0
 10
5209.4028617443927942
 20
496.967335650174789
 30
0.0
 11
5209.4028617443927942
 21
497.0047867162747934
 31
0.0
  0
LINE
  5
1F4C9
  8
0
 10
5209.2771782526942843
 20
497.0140165954747999
 30
0.0
 11
5209.4028617443927942
 21
497.0047867162747934
 31
0.0
  0
LINE
  5
1F4CA
  8
0
 10
5209.4028617443927942
 20
497.0047867162747934
 30
0.0
 11
5213.5367200120927009
 21
497.029270664574824
 31
0.0
  0
ENDSEC
  0
EOF
