  0
SECTION
  2
HEADER
  9
$ACADVER
  1
AC1009
  9
$INSBASE
 10
4281.0650813650509008
 20
184.2670024591824927
 30
0.0
  9
$EXTMIN
 10
4247.6005133622011272
 20
169.5032239676231995
 30
0.0
  9
$EXTMAX
 10
4314.5296472817999529
 20
199.0307809497232086
 30
0.0
  9
$LIMMIN
 10
0.0
 20
0.0
  9
$LIMMAX
 10
11.6929133858000007
 20
8.2677165353999982
  9
$ORTHOMODE
 70
     0
  9
$REGENMODE
 70
     1
  9
$FILLMODE
 70
     1
  9
$QTEXTMODE
 70
     0
  9
$MIRRTEXT
 70
     0
  9
$DRAGMODE
 70
     2
  9
$LTSCALE
 40
0.6431102362
  9
$OSMODE
 70
  4095
  9
$ATTMODE
 70
     1
  9
$TEXTSIZE
 40
0.2
  9
$TRACEWID
 40
0.05
  9
$TEXTSTYLE
  7
STANDARD
  9
$CLAYER
  8
0
  9
$CELTYPE
  6
BYLAYER
  9
$CECOLOR
 62
   256
  9
$DIMSCALE
 40
1.0
  9
$DIMASZ
 40
0.1875
  9
$DIMEXO
 40
0.0625
  9
$DIMDLI
 40
0.4443307087
  9
$DIMRND
 40
0.0
  9
$DIMDLE
 40
0.0
  9
$DIMEXE
 40
0.125
  9
$DIMTP
 40
0.01
  9
$DIMTM
 40
0.01
  9
$DIMTXT
 40
2.0
  9
$DIMCEN
 40
0.1052362205
  9
$DIMTSZ
 40
0.0
  9
$DIMTOL
 70
     1
  9
$DIMLIM
 70
     0
  9
$DIMTIH
 70
     1
  9
$DIMTOH
 70
     1
  9
$DIMSE1
 70
     0
  9
$DIMSE2
 70
     0
  9
$DIMTAD
 70
     0
  9
$DIMZIN
 70
     0
  9
$DIMBLK
  1

  9
$DIMASO
 70
     1
  9
$DIMSHO
 70
     1
  9
$DIMPOST
  1
\X
  9
$DIMAPOST
  1

  9
$DIMALT
 70
     1
  9
$DIMALTD
 70
     2
  9
$DIMALTF
 40
25.3999999999999986
  9
$DIMLFAC
 40
1.0
  9
$DIMTOFL
 70
     0
  9
$DIMTVP
 40
0.0
  9
$DIMTIX
 70
     0
  9
$DIMSOXD
 70
     0
  9
$DIMSAH
 70
     0
  9
$DIMBLK1
  1

  9
$DIMBLK2
  1

  9
$DIMSTYLE
  2
STANDARD
  9
$DIMCLRD
 70
     0
  9
$DIMCLRE
 70
     0
  9
$DIMCLRT
 70
     0
  9
$DIMTFAC
 40
1.0
  9
$DIMGAP
 40
0.09
  9
$LUNITS
 70
     2
  9
$LUPREC
 70
     4
  9
$SKETCHINC
 40
0.1
  9
$FILLETRAD
 40
0.0
  9
$AUNITS
 70
     0
  9
$AUPREC
 70
     0
  9
$MENU
  1
.
  9
$ELEVATION
 40
0.0
  9
$PELEVATION
 40
0.0
  9
$THICKNESS
 40
0.0
  9
$LIMCHECK
 70
     0
  9
$BLIPMODE
 70
     0
  9
$CHAMFERA
 40
0.0
  9
$CHAMFERB
 40
0.0
  9
$SKPOLY
 70
     0
  9
$TDCREATE
 40
2458060.468368056230247
  9
$TDUPDATE
 40
2459446.5371643519029021
  9
$TDINDWG
 40
0.3746482639
  9
$TDUSRTIMER
 40
0.3746482639
  9
$USRTIMER
 70
     1
  9
$ANGBASE
 50
0.0
  9
$ANGDIR
 70
     0
  9
$PDMODE
 70
     0
  9
$PDSIZE
 40
0.3125
  9
$PLINEWID
 40
0.0
  9
$COORDS
 70
     1
  9
$SPLFRAME
 70
     0
  9
$SPLINETYPE
 70
     6
  9
$SPLINESEGS
 70
     8
  9
$ATTDIA
 70
     1
  9
$ATTREQ
 70
     1
  9
$HANDLING
 70
     1
  9
$HANDSEED
  5
806E
  9
$SURFTAB1
 70
     6
  9
$SURFTAB2
 70
     6
  9
$SURFTYPE
 70
     6
  9
$SURFU
 70
     6
  9
$SURFV
 70
     6
  9
$UCSNAME
  2

  9
$UCSORG
 10
0.0
 20
0.0
 30
0.0
  9
$UCSXDIR
 10
1.0
 20
0.0
 30
0.0
  9
$UCSYDIR
 10
0.0
 20
1.0
 30
0.0
  9
$PUCSNAME
  2

  9
$PUCSORG
 10
0.0
 20
0.0
 30
0.0
  9
$PUCSXDIR
 10
1.0
 20
0.0
 30
0.0
  9
$PUCSYDIR
 10
0.0
 20
1.0
 30
0.0
  9
$USERI1
 70
     0
  9
$USERI2
 70
     0
  9
$USERI3
 70
     0
  9
$USERI4
 70
     0
  9
$USERI5
 70
     0
  9
$USERR1
 40
0.0
  9
$USERR2
 40
0.0
  9
$USERR3
 40
0.0
  9
$USERR4
 40
0.0
  9
$USERR5
 40
0.0
  9
$WORLDVIEW
 70
     1
  9
$SHADEDGE
 70
     3
  9
$SHADEDIF
 70
    70
  9
$TILEMODE
 70
     1
  9
$MAXACTVP
 70
    64
  9
$PLIMCHECK
 70
     0
  9
$PEXTMIN
 10
1.0000000000000000E+20
 20
1.0000000000000000E+20
 30
1.0000000000000000E+20
  9
$PEXTMAX
 10
-1.0000000000000000E+20
 20
-1.0000000000000000E+20
 30
-1.0000000000000000E+20
  9
$PLIMMIN
 10
0.0
 20
0.0
  9
$PLIMMAX
 10
12.0
 20
9.0
  9
$UNITMODE
 70
     0
  9
$VISRETAIN
 70
     1
  9
$PLINEGEN
 70
     0
  9
$PSLTSCALE
 70
     1
  0
ENDSEC
  0
SECTION
  2
TABLES
  0
TABLE
  2
VPORT
 70
     1
  0
VPORT
  2
*ACTIVE
 70
     0
 10
0.0
 20
0.0
 11
1.0
 21
1.0
 12
252.230427884786792
 22
51.9221746120465326
 13
0.0
 23
0.0
 14
1.0
 24
1.0
 15
0.0
 25
0.0
 16
0.0
 26
0.0
 36
47.0568789906323275
 17
4028.786865234375
 27
135.8743591308592897
 37
0.0
 40
36.856272806392802
 41
2.0410052910052912
 42
50.0
 43
0.0
 44
0.0
 50
0.0
 51
0.0
 71
     0
 72
   100
 73
     1
 74
     1
 75
     0
 76
     0
 77
     0
 78
     0
  0
ENDTAB
  0
TABLE
  2
LTYPE
 70
     2
  0
LTYPE
  2
CONTINUOUS
 70
     0
  3
Solid line
 72
    65
 73
     0
 40
0.0
  0
LTYPE
  2
PHANTOM2
 70
     0
  3
___ _ _ ___ _ _ ___ _ _ ___ _ _
 72
    65
 73
     6
 40
1.25
 49
0.625
 49
-0.125
 49
0.125
 49
-0.125
 49
0.125
 49
-0.125
  0
ENDTAB
  0
TABLE
  2
LAYER
 70
     2
  0
LAYER
  2
0
 70
     0
 62
   255
  6
CONTINUOUS
  0
LAYER
  2
DEFPOINTS
 70
     0
 62
     7
  6
CONTINUOUS
  0
ENDTAB
  0
TABLE
  2
STYLE
 70
     1
  0
STYLE
  2
STANDARD
 70
     0
 40
0.0
 41
0.8
 50
0.0
 71
     0
 42
0.2
  3
txt
  4

  0
ENDTAB
  0
TABLE
  2
VIEW
 70
     0
  0
ENDTAB
  0
TABLE
  2
UCS
 70
     0
  0
ENDTAB
  0
TABLE
  2
APPID
 70
     9
  0
APPID
  2
ACAD
 70
     0
  0
APPID
  2
ACAD_MLEADERVER
 70
     0
  0
APPID
  2
ACAD_EXEMPT_FROM_CAD_STANDARDS
 70
     0
  0
APPID
  2
ACAD_NAV_VCDISPLAY
 70
     0
  0
APPID
  2
ACAECLAYERSTANDARD
 70
     0
  0
APPID
  2
ACCMTRANSPARENCY
 70
     0
  0
APPID
  2
ACAD_DSTYLE_DIMJAG
 70
     0
  0
APPID
  2
ACAD_DSTYLE_DIMTALN
 70
     0
  0
APPID
  2
ACDBATTR
 70
     0
  0
ENDTAB
  0
TABLE
  2
DIMSTYLE
 70
     1
  0
DIMSTYLE
  2
STANDARD
 70
     0
  3

  4

  5

  6

  7

 40
1.0
 41
0.1875
 42
0.0625
 43
0.38
 44
0.125
 45
0.0
 46
0.0
 47
0.01
 48
0.01
140
0.15625
141
0.09
142
0.0
143
25.3999999999999986
144
1.0
145
0.0
146
1.0
147
0.09
 71
     1
 72
     0
 73
     1
 74
     1
 75
     0
 76
     0
 77
     0
 78
     4
170
     0
171
     2
172
     0
173
     0
174
     0
175
     0
176
     0
177
     0
178
     0
  0
ENDTAB
  0
ENDSEC
  0
SECTION
  2
BLOCKS
  0
BLOCK
  8
0
  2
$MODEL_SPACE
 70
     0
 10
0.0
 20
0.0
 30
0.0
  3
$MODEL_SPACE
  1

  0
ENDBLK
  5
21
  8
0
  0
BLOCK
 67
     1
  8
0
  2
$PAPER_SPACE
 70
     0
 10
0.0
 20
0.0
 30
0.0
  3
$PAPER_SPACE
  1

  0
ENDBLK
  5
1D
 67
     1
  8
0
  0
ENDSEC
  0
SECTION
  2
ENTITIES
  0
ATTDEF
  5
7608
  8
DEFPOINTS
 10
4281.059652497314346
 20
184.2622520082520055
 30
0.0
 40
0.001
  1
K-1707T-58
  3

  2
MODELNUMBER
 70
     0
1001
ACDBATTR
1070
     0
1070
     1
  0
ATTDEF
  5
7609
  8
DEFPOINTS
 10
4281.059652497314346
 20
184.2605853415853119
 30
0.0
 40
0.001
  1
OVE
  3

  2
TRADENAME
 70
     0
1001
ACDBATTR
1070
     0
1070
     1
  0
ATTDEF
  5
760A
  8
DEFPOINTS
 10
4281.059652497314346
 20
184.2589186749187036
 30
0.0
 40
0.001
  1
BATH
  3

  2
PRODUCT
 70
     0
1001
ACDBATTR
1070
     0
1070
     1
  0
LINE
  5
7F73
  8
0
 10
4314.5296472817999529
 20
198.6374809497231979
 30
0.0
 11
4314.5296472817999529
 21
169.8965239676232102
 31
0.0
  0
LINE
  5
7F74
  8
0
 10
4247.6005133622011272
 20
198.6374809497231979
 30
0.0
 11
4247.6005133622011272
 21
169.8965239676232102
 31
0.0
  0
LINE
  5
7F75
  8
0
 10
4247.9938133621999441
 20
199.0307809497232086
 30
0.0
 11
4314.136347281801136
 21
199.0307809497232086
 31
0.0
  0
ARC
  5
7F76
  8
0
 10
4247.9938133621999441
 20
198.6374809497231979
 30
0.0
 40
0.3933
 50
90.0
 51
179.9999999999984084
  0
ARC
  5
7F77
  8
0
 10
4314.136347281801136
 20
198.6374809497231979
 30
0.0
 40
0.3933
 50
359.9999999999968168
 51
90.0
  0
LINE
  5
7F78
  8
0
 10
4247.9938133621999441
 20
169.5032239676231995
 30
0.0
 11
4314.136347281801136
 21
169.5032239676231995
 31
0.0
  0
ARC
  5
7F79
  8
0
 10
4247.9938133621999441
 20
169.8965239676232102
 30
0.0
 40
0.3933
 50
180.0
 51
270.0
  0
ARC
  5
7F7A
  8
0
 10
4314.136347281801136
 20
169.8965239676232102
 30
0.0
 40
0.3933
 50
270.0
 51
359.9999999999984084
  0
CIRCLE
  5
7F7B
  8
0
 10
4301.4048025400998085
 20
184.2670035258232133
 30
0.0
 40
1.0004142704000001
  0
CIRCLE
  5
7F7C
  8
0
 10
4301.4048025400998085
 20
184.2670035258232133
 30
0.0
 40
1.7716535335000161
  0
LINE
  5
7F7D
  8
0
 10
4306.3978517314699275
 20
197.005671010723205
 30
0.0
 11
4251.7777681999496053
 21
197.005671010723205
 31
0.0
  0
ARC
  5
7F7E
  8
0
 10
4289.9116876685930038
 20
183.9975050396791119
 30
0.0
 40
21.1357633805343212
 50
0.7305884240401208
 51
36.7014858399410997
  0
ARC
  5
7F7F
  8
0
 10
4324.59700748002615
 20
209.9026344135444901
 30
0.0
 40
22.1556754597622501
 50
215.9234132744716987
 51
216.805341256458405
  0
ARC
  5
7F80
  8
0
 10
4306.4227676625332606
 20
196.6923418877547931
 30
0.0
 40
0.3143182191993535
 50
42.2862084559399491
 51
94.5465929928865876
  0
LINE
  5
7F81
  8
0
 10
4306.3978517314699275
 20
171.5283360330651874
 30
0.0
 11
4251.7777941886406552
 21
171.5283360330651874
 31
0.0
  0
ARC
  5
7F82
  8
0
 10
4289.9116876685930038
 20
184.5365020041093089
 30
0.0
 40
21.1357633805343212
 50
323.2985141600589145
 51
359.2694115759599072
  0
ARC
  5
7F83
  8
0
 10
4324.59700748002615
 20
158.6313726302439022
 30
0.0
 40
22.1556754597622501
 50
143.194658743541595
 51
144.0765867255283013
  0
ARC
  5
7F84
  8
0
 10
4306.4227676625332606
 20
171.8416651560337129
 30
0.0
 40
0.3143182191993535
 50
265.4534070071134124
 51
317.7137915440600864
  0
ARC
  5
7F85
  8
0
 10
4302.251939791463883
 20
191.0821339124755127
 30
0.0
 40
1.528049061788779
 50
33.892330823282947
 51
87.640408270418078
  0
LINE
  5
7F86
  8
0
 10
4266.1901954141012538
 20
192.6683391248232056
 30
0.0
 11
4302.3148511064764534
 21
192.6088873639787096
 31
0.0
  0
ARC
  5
7F87
  8
0
 10
4266.2128504090596834
 20
191.2141047472437094
 30
0.0
 40
1.4544108338879109
 50
90.8925181682286336
 51
151.6650546770488006
  0
ARC
  5
7F88
  8
0
 10
4302.251939791463883
 20
177.4518731391708002
 30
0.0
 40
1.528049061788733
 50
272.3595917295820072
 51
326.1076691767170246
  0
LINE
  5
7F89
  8
0
 10
4266.2402918492880417
 20
175.8657503724888045
 30
0.0
 11
4302.3148511064764534
 21
175.9251196876676886
 31
0.0
  0
ARC
  5
7F8A
  8
0
 10
4266.2128504090596834
 20
177.3199023044026887
 30
0.0
 40
1.4544108338879109
 50
212.7798645153197867
 51
271.0811058151483053
  0
ARC
  5
7F8B
  8
0
 10
4278.1420433045368554
 20
184.1711898200508131
 30
0.0
 40
15.3065177111074693
 50
149.6537996207013919
 51
179.6413446234338949
  0
ARC
  5
7F8C
  8
0
 10
4276.8302266949249315
 20
184.1794015283030035
 30
0.0
 40
13.9946753999245495
 50
179.6413446234338949
 51
196.2774312731901887
  0
ARC
  5
7F8D
  8
0
 10
4279.6112773063314307
 20
184.9914486519427896
 30
0.0
 40
16.891857312441811
 50
196.2774312731901887
 51
210.0511422831216066
  0
ARC
  5
7F8E
  8
0
 10
4291.1624788917933984
 20
184.0709362266362916
 30
0.0
 40
14.6474703511043103
 50
0.7669695843605818
 51
32.4685121994860495
  0
ARC
  5
7F8F
  8
0
 10
4292.4199771895346203
 20
184.0877702860746012
 30
0.0
 40
13.3898593801027808
 50
325.9975486734734886
 51
0.7669695843605818
  0
ARC
  5
7F90
  8
0
 10
4276.9374013768856457
 20
-135.9644533278394931
 30
0.0
 40
308.5203742750492779
 50
93.5701065164105756
 51
94.6776226162599386
  0
ARC
  5
7F91
  8
0
 10
4256.1742422787201576
 20
192.6947176371224941
 30
0.0
 40
20.7954951315673284
 50
274.2791041314553127
 51
295.5020109160689117
  0
ARC
  5
7F92
  8
0
 10
4276.9374013768856457
 20
504.4984582451858728
 30
0.0
 40
308.5203742750492779
 50
265.3223725412158274
 51
266.4298934835894102
  0
ARC
  5
7F93
  8
0
 10
4256.2162595122354105
 20
175.9972775541507133
 30
0.0
 40
20.6348321220075093
 50
64.4144188458661091
 51
85.8045055317889762
  0
ARC
  5
7F95
  8
0
 10
4280.1238901012393399
 20
183.6666386937729101
 30
0.0
 40
19.0921504606310606
 50
147.3423548976363975
 51
178.1980009368124058
  0
ARC
  5
7F96
  8
0
 10
4265.2550938567856065
 20
193.1967219573413104
 30
0.0
 40
1.431358044387488
 50
121.2915260317164012
 51
147.3423548976363975
  0
ARC
  5
7F97
  8
0
 10
4265.1913993031475911
 20
193.3015060323706962
 30
0.0
 40
1.308733827719553
 50
92.7945189167891158
 51
121.2912992473413993
  0
ARC
  5
7F98
  8
0
 10
4280.1233649820032952
 20
184.8673614202010071
 30
0.0
 40
19.0916253887829903
 50
181.8020283675969893
 51
212.6581070169962118
  0
ARC
  5
7F99
  8
0
 10
4265.2550938567856065
 20
175.3374319123653038
 30
0.0
 40
1.431358044387488
 50
212.6576451023636025
 51
238.708473968283613
  0
ARC
  5
7F9A
  8
0
 10
4265.1923815938389453
 20
175.2348368926693922
 30
0.0
 40
1.3111146831485481
 50
238.7217044717640988
 51
267.1675576669471752
  0
ARC
  5
7F9B
  8
0
 10
4290.8168228925433141
 20
184.0286505193035111
 30
0.0
 40
16.890941334334709
 50
0.8085440511037393
 51
35.7990130461433935
  0
ARC
  5
7F9C
  8
0
 10
4303.3910556155651648
 20
193.1087000896158088
 30
0.0
 40
1.3810234018924621
 50
35.4101475474608307
 51
62.6787481409675422
  0
ARC
  5
7F9D
  8
0
 10
4303.3843582325280295
 20
193.0984702459699918
 30
0.0
 40
1.3931866005657489
 50
62.6271359706724979
 51
89.6564404173178673
  0
ARC
  5
7F9E
  8
0
 10
4290.5292126405129238
 20
184.5551294731309042
 30
0.0
 40
17.1792861224602085
 50
324.4425356899557755
 51
359.0390066779579001
  0
ARC
  5
7F9F
  8
0
 10
4302.9337672400333759
 20
176.1298006498711004
 30
0.0
 40
2.2175708577815141
 50
298.9237234561086893
 51
315.1205969533318125
  0
ARC
  5
7FA0
  8
0
 10
4303.3850548729506045
 20
175.4333552336468927
 30
0.0
 40
1.3909506989810501
 50
270.3154066271125089
 51
296.5271544074220742
  0
LINE
  5
7FA1
  8
0
 10
4303.3927120719026789
 20
194.4916318006289941
 30
0.0
 11
4265.1275930050996976
 21
194.6086835215232043
 31
0.0
  0
LINE
  5
7FA2
  8
0
 10
4265.127592453401121
 20
173.9253239757231881
 30
0.0
 11
4303.392711856700771
 21
174.042425610123189
 31
0.0
  0
ENDSEC
  0
EOF
