  0
SECTION
  2
HEADER
  9
$ACADVER
  1
AC1009
  9
$INSBASE
 10
4572.8327953633643119
 20
289.0675768796949114
 30
0.0
  9
$EXTMIN
 10
4553.1937104860571708
 20
289.0481940210506195
 30
-0.0000000000000058
  9
$EXTMAX
 10
4572.930582437992598
 20
322.628551405417511
 30
0.0000000000000104
  9
$LIMMIN
 10
0.0
 20
0.0
  9
$LIMMAX
 10
11.6929133858000007
 20
8.2677165353999982
  9
$ORTHOMODE
 70
     0
  9
$REGENMODE
 70
     1
  9
$FILLMODE
 70
     1
  9
$QTEXTMODE
 70
     0
  9
$MIRRTEXT
 70
     0
  9
$DRAGMODE
 70
     2
  9
$LTSCALE
 40
0.6431102362
  9
$OSMODE
 70
   575
  9
$ATTMODE
 70
     1
  9
$TEXTSIZE
 40
0.2
  9
$TRACEWID
 40
0.05
  9
$TEXTSTYLE
  7
STANDARD
  9
$CLAYER
  8
0
  9
$CELTYPE
  6
BYLAYER
  9
$CECOLOR
 62
   256
  9
$DIMSCALE
 40
1.0
  9
$DIMASZ
 40
0.1875
  9
$DIMEXO
 40
0.0625
  9
$DIMDLI
 40
0.4443307087
  9
$DIMRND
 40
0.0
  9
$DIMDLE
 40
0.0
  9
$DIMEXE
 40
0.125
  9
$DIMTP
 40
0.01
  9
$DIMTM
 40
0.01
  9
$DIMTXT
 40
2.0
  9
$DIMCEN
 40
0.1052362205
  9
$DIMTSZ
 40
0.0
  9
$DIMTOL
 70
     1
  9
$DIMLIM
 70
     0
  9
$DIMTIH
 70
     1
  9
$DIMTOH
 70
     1
  9
$DIMSE1
 70
     0
  9
$DIMSE2
 70
     0
  9
$DIMTAD
 70
     0
  9
$DIMZIN
 70
     0
  9
$DIMBLK
  1

  9
$DIMASO
 70
     1
  9
$DIMSHO
 70
     1
  9
$DIMPOST
  1
\X
  9
$DIMAPOST
  1

  9
$DIMALT
 70
     1
  9
$DIMALTD
 70
     2
  9
$DIMALTF
 40
25.3999999999999986
  9
$DIMLFAC
 40
1.0
  9
$DIMTOFL
 70
     0
  9
$DIMTVP
 40
0.0
  9
$DIMTIX
 70
     0
  9
$DIMSOXD
 70
     0
  9
$DIMSAH
 70
     0
  9
$DIMBLK1
  1

  9
$DIMBLK2
  1

  9
$DIMSTYLE
  2
STANDARD
  9
$DIMCLRD
 70
     0
  9
$DIMCLRE
 70
     0
  9
$DIMCLRT
 70
     0
  9
$DIMTFAC
 40
1.0
  9
$DIMGAP
 40
0.09
  9
$LUNITS
 70
     2
  9
$LUPREC
 70
     4
  9
$SKETCHINC
 40
0.1
  9
$FILLETRAD
 40
0.0
  9
$AUNITS
 70
     0
  9
$AUPREC
 70
     0
  9
$MENU
  1
.
  9
$ELEVATION
 40
0.0
  9
$PELEVATION
 40
0.0
  9
$THICKNESS
 40
0.0
  9
$LIMCHECK
 70
     0
  9
$BLIPMODE
 70
     0
  9
$CHAMFERA
 40
0.0
  9
$CHAMFERB
 40
0.0
  9
$SKPOLY
 70
     0
  9
$TDCREATE
 40
2458060.468368056230247
  9
$TDUPDATE
 40
2459543.0224884259514511
  9
$TDINDWG
 40
0.5110255787
  9
$TDUSRTIMER
 40
0.5110255787
  9
$USRTIMER
 70
     1
  9
$ANGBASE
 50
0.0
  9
$ANGDIR
 70
     0
  9
$PDMODE
 70
     0
  9
$PDSIZE
 40
0.3125
  9
$PLINEWID
 40
0.0
  9
$COORDS
 70
     1
  9
$SPLFRAME
 70
     0
  9
$SPLINETYPE
 70
     6
  9
$SPLINESEGS
 70
     8
  9
$ATTDIA
 70
     1
  9
$ATTREQ
 70
     1
  9
$HANDLING
 70
     1
  9
$HANDSEED
  5
2089D
  9
$SURFTAB1
 70
     6
  9
$SURFTAB2
 70
     6
  9
$SURFTYPE
 70
     6
  9
$SURFU
 70
     6
  9
$SURFV
 70
     6
  9
$UCSNAME
  2

  9
$UCSORG
 10
0.0
 20
0.0
 30
0.0
  9
$UCSXDIR
 10
1.0
 20
0.0
 30
0.0
  9
$UCSYDIR
 10
0.0
 20
1.0
 30
0.0
  9
$PUCSNAME
  2

  9
$PUCSORG
 10
0.0
 20
0.0
 30
0.0
  9
$PUCSXDIR
 10
1.0
 20
0.0
 30
0.0
  9
$PUCSYDIR
 10
0.0
 20
1.0
 30
0.0
  9
$USERI1
 70
     0
  9
$USERI2
 70
     0
  9
$USERI3
 70
     0
  9
$USERI4
 70
     0
  9
$USERI5
 70
     0
  9
$USERR1
 40
0.0
  9
$USERR2
 40
0.0
  9
$USERR3
 40
0.0
  9
$USERR4
 40
0.0
  9
$USERR5
 40
0.0
  9
$WORLDVIEW
 70
     1
  9
$SHADEDGE
 70
     3
  9
$SHADEDIF
 70
    70
  9
$TILEMODE
 70
     1
  9
$MAXACTVP
 70
    64
  9
$PLIMCHECK
 70
     0
  9
$PEXTMIN
 10
1.0000000000000000E+20
 20
1.0000000000000000E+20
 30
1.0000000000000000E+20
  9
$PEXTMAX
 10
-1.0000000000000000E+20
 20
-1.0000000000000000E+20
 30
-1.0000000000000000E+20
  9
$PLIMMIN
 10
0.0
 20
0.0
  9
$PLIMMAX
 10
12.0
 20
9.0
  9
$UNITMODE
 70
     0
  9
$VISRETAIN
 70
     1
  9
$PLINEGEN
 70
     0
  9
$PSLTSCALE
 70
     1
  0
ENDSEC
  0
SECTION
  2
TABLES
  0
TABLE
  2
VPORT
 70
     1
  0
VPORT
  2
*ACTIVE
 70
     0
 10
0.0
 20
0.0
 11
1.0
 21
1.0
 12
651.6967897046740745
 22
173.2587677151491903
 13
0.0
 23
0.0
 14
1.0
 24
1.0
 15
0.0
 25
0.0
 16
0.0
 26
0.0
 36
60.4960186965801583
 17
3911.3653564453120453
 27
132.5796051025390057
 37
0.0
 40
43.4098398206225582
 41
2.5704809286898831
 42
50.0
 43
0.0
 44
0.0
 50
0.0
 51
0.0
 71
     0
 72
   100
 73
     1
 74
     1
 75
     0
 76
     0
 77
     0
 78
     0
  0
ENDTAB
  0
TABLE
  2
LTYPE
 70
     2
  0
LTYPE
  2
CONTINUOUS
 70
     0
  3
Solid line
 72
    65
 73
     0
 40
0.0
  0
LTYPE
  2
PHANTOM2
 70
     0
  3
___ _ _ ___ _ _ ___ _ _ ___ _ _
 72
    65
 73
     6
 40
1.25
 49
0.625
 49
-0.125
 49
0.125
 49
-0.125
 49
0.125
 49
-0.125
  0
ENDTAB
  0
TABLE
  2
LAYER
 70
     2
  0
LAYER
  2
0
 70
     0
 62
   255
  6
CONTINUOUS
  0
LAYER
  2
DEFPOINTS
 70
     0
 62
     7
  6
CONTINUOUS
  0
ENDTAB
  0
TABLE
  2
STYLE
 70
     1
  0
STYLE
  2
STANDARD
 70
     0
 40
0.0
 41
0.8
 50
0.0
 71
     0
 42
0.2
  3
txt
  4

  0
ENDTAB
  0
TABLE
  2
VIEW
 70
     0
  0
ENDTAB
  0
TABLE
  2
UCS
 70
     0
  0
ENDTAB
  0
TABLE
  2
APPID
 70
    11
  0
APPID
  2
ACAD
 70
     0
  0
APPID
  2
ACAD_MLEADERVER
 70
     0
  0
APPID
  2
ACAD_EXEMPT_FROM_CAD_STANDARDS
 70
     0
  0
APPID
  2
ACAD_NAV_VCDISPLAY
 70
     0
  0
APPID
  2
ACAECLAYERSTANDARD
 70
     0
  0
APPID
  2
ACCMTRANSPARENCY
 70
     0
  0
APPID
  2
ACAD_DSTYLE_DIMJAG
 70
     0
  0
APPID
  2
ACAD_DSTYLE_DIMTALN
 70
     0
  0
APPID
  2
ACDBATTR
 70
     0
  0
APPID
  2
ACADANNOTATIVE
 70
     0
  0
APPID
  2
DCO15
 70
     0
  0
ENDTAB
  0
TABLE
  2
DIMSTYLE
 70
     1
  0
DIMSTYLE
  2
STANDARD
 70
     0
  3

  4

  5

  6

  7

 40
1.0
 41
0.1875
 42
0.0625
 43
0.38
 44
0.125
 45
0.0
 46
0.0
 47
0.01
 48
0.01
140
0.15625
141
0.09
142
0.0
143
25.3999999999999986
144
1.0
145
0.0
146
1.0
147
0.09
 71
     1
 72
     0
 73
     1
 74
     1
 75
     0
 76
     0
 77
     0
 78
     4
170
     0
171
     2
172
     0
173
     0
174
     0
175
     0
176
     0
177
     0
178
     0
  0
ENDTAB
  0
ENDSEC
  0
SECTION
  2
BLOCKS
  0
BLOCK
  8
0
  2
$MODEL_SPACE
 70
     0
 10
0.0
 20
0.0
 30
0.0
  3
$MODEL_SPACE
  1

  0
ENDBLK
  5
21
  8
0
  0
BLOCK
 67
     1
  8
0
  2
$PAPER_SPACE
 70
     0
 10
0.0
 20
0.0
 30
0.0
  3
$PAPER_SPACE
  1

  0
ENDBLK
  5
1D
 67
     1
  8
0
  0
ENDSEC
  0
SECTION
  2
ENTITIES
  0
ATTDEF
  5
20106
  8
DEFPOINTS
 10
4572.8327894780995848
 20
289.0710514922457719
 30
0.0
 40
0.001
  1
K-17151W
  3

  2
MODELNUMBER
 70
     0
1001
ACDBATTR
1070
     0
1070
     1
  0
ATTDEF
  5
20107
  8
DEFPOINTS
 10
4572.8327996819061809
 20
289.0693844797776819
 30
0.0
 40
0.001
  1
CANDIDE
  3

  2
TRADENAME
 70
     0
1001
ACDBATTR
1070
     0
1070
     1
  0
ATTDEF
  5
20108
  8
DEFPOINTS
 10
4572.8327896456903545
 20
289.0677179868235953
 30
0.0
 40
0.001
  1
BATHROOM SINK
  3

  2
PRODUCT
 70
     0
1001
ACDBATTR
1070
     0
1070
     1
  0
LINE
  5
20726
  8
0
 10
4553.8675772824017258
 20
317.3488951609159017
 30
0.0
 11
4553.4499701383629144
 21
322.1635749582811172
 31
0.0
  0
LINE
  5
20727
  8
0
 10
4562.5470333735638633
 20
315.4641737370811256
 30
0.0
 11
4562.4392404164591426
 21
316.5973266156348132
 31
0.0
  0
LINE
  5
20728
  8
0
 10
4562.4392404164591426
 20
316.5973266156348132
 30
0.0
 11
4564.2314581003638523
 21
316.5851749266810771
 31
0.0
  0
LINE
  5
20729
  8
0
 10
4568.3732308829639805
 20
316.6045535863810869
 30
0.0
 11
4568.3732826743644182
 21
316.6045494931810822
 31
0.0
  0
LINE
  5
2072A
  8
0
 10
4565.2445416050632048
 20
315.4641737370811256
 30
0.0
 11
4565.2470954955251727
 21
315.4904988842349098
 31
0.0
  0
ARC
  5
2072B
  8
0
 10
4554.1029150080639738
 20
317.3692979483810745
 30
0.0
 40
0.2362204878
 50
184.9549130548982987
 51
256.0544156187988847
  0
ARC
  5
2072C
  8
0
 10
4565.4821846862641905
 20
315.4681352658810738
 30
0.0
 40
0.2361505007999999
 50
99.4450494645770533
 51
174.5659063266988937
  0
ARC
  5
2072D
  8
0
 10
4565.1269621628644018
 20
315.4753586671811263
 30
0.0
 40
0.1181102362
 50
270.0
 51
354.5660000000028163
  0
ARC
  5
2072E
  8
0
 10
4562.6646128157653948
 20
315.4753586671811263
 30
0.0
 40
0.1181102362
 50
185.4339999999972122
 51
270.0
  0
ARC
  5
2072F
  8
0
 10
4572.7146851437628357
 20
316.6851789024922823
 30
0.0
 40
0.1181102218081852
 50
269.9581563036568923
 51
359.9889235658117173
  0
ARC
  5
20730
  8
0
 10
4572.5966908065693133
 20
322.3714722640630725
 30
0.0
 40
0.2361046156317529
 50
0.0404493490771365
 51
90.0
  0
ARC
  5
20731
  8
0
 10
4556.6376744701447024
 20
297.5262102014485777
 30
0.0
 40
25.0894843685236602
 50
91.4575374126664968
 51
94.1797115739840933
  0
ARC
  5
20732
  8
0
 10
4536.946555895397978
 20
552.2174992378975276
 30
0.0
 40
230.3621135063044107
 50
274.2268924520005839
 51
274.4472266974581771
  0
ARC
  5
20733
  8
0
 10
4553.9975288200357681
 20
321.2038787351967812
 30
0.0
 40
1.2801109571357621
 50
93.2169618700402935
 51
102.6529123267371943
  0
ARC
  5
20734
  8
0
 10
4553.834503443844369
 20
321.9710481899185766
 30
0.0
 40
0.4959437679856443
 50
103.6901733384218005
 51
126.8573102749774932
  0
ARC
  5
20735
  8
0
 10
4553.6853075436238214
 20
322.1839869741938855
 30
0.0
 40
0.2362209658521642
 50
128.8829071554087022
 51
184.9571497773198132
  0
ARC
  5
20736
  8
0
 10
4597.78373138581901
 20
3829.1525372310129569
 30
0.0
 40
3512.6749259010462083
 50
269.5000325195535993
 51
269.591090063298509
  0
ARC
  5
20737
  8
0
 10
4568.7600190620050853
 20
-24.5861410389131301
 30
0.0
 40
341.2013697247984965
 50
90.2733432066387991
 51
90.7604748157923638
  0
ARC
  5
20738
  8
0
 10
4561.1595377578742045
 20
260.8590719404891729
 30
0.0
 40
55.7529431790445926
 50
88.6847689665931824
 51
91.9592023585530853
  0
ARC
  5
20739
  8
0
 10
4558.4696719916692018
 20
330.6391493130964818
 30
0.0
 40
14.0815562020113099
 50
269.523197720948815
 51
273.1907811733790936
  0
ARC
  5
2073A
  8
0
 10
4558.4990976970875636
 20
330.5877158591105172
 30
0.0
 40
14.0304011591196591
 50
268.6142993801877878
 51
269.4012885233397014
  0
ARC
  5
2073B
  8
0
 10
4558.1684275837606037
 20
315.9376957680298119
 30
0.0
 40
0.623781633916222
 50
90.7920306148116367
 51
95.5300011625223959
  0
ARC
  5
2073C
  8
0
 10
4558.0549620481160673
 20
316.7886779567662074
 30
0.0
 40
0.2362082247704624
 50
268.9494006235805159
 51
283.0543542467362954
  0
ARC
  5
2073D
  8
0
 10
4558.2918434569792225
 20
329.67098275863151
 30
0.0
 40
13.1206907445562599
 50
267.7351258855006222
 51
268.9466080586033172
  0
ARC
  5
2073E
  8
0
 10
4558.3583994085465747
 20
331.0472234793085136
 30
0.0
 40
14.4984916621907995
 50
263.5155776015615743
 51
267.6872453215648875
  0
ARC
  5
2073F
  8
0
 10
4558.9345477620199745
 20
335.6864379425082916
 30
0.0
 40
19.1731548537148697
 50
257.7841515484159913
 51
263.3705185524759145
  0
ARC
  5
20740
  8
0
 10
4560.3364068902637882
 20
342.4058020847492116
 30
0.0
 40
26.037052995781071
 50
256.0193039820151171
 51
257.8978483397655737
  0
ARC
  5
20741
  8
0
 10
4568.1208576044218717
 20
316.2426945718091815
 30
0.0
 40
3.2735285923937161
 50
173.8567704344071956
 51
187.7470222394451014
  0
ARC
  5
20742
  8
0
 10
4564.9616145253557988
 20
315.8144639376757254
 30
0.0
 40
0.0854089017677921
 50
188.7815444025063982
 51
220.1284291420826946
  0
ARC
  5
20743
  8
0
 10
4565.0374758704992928
 20
315.8837751760523247
 30
0.0
 40
0.1881286622017783
 50
221.3780070557365889
 51
245.0228716131836109
  0
ARC
  5
20744
  8
0
 10
4565.1735568113308545
 20
316.1718115527594932
 30
0.0
 40
0.5066908490384038
 50
244.827364632989088
 51
276.7593739519841165
  0
ARC
  5
20745
  8
0
 10
4563.714447269361699
 20
326.2082676104417942
 30
0.0
 40
10.64848757811267
 50
278.1998073360895205
 51
279.3444307885887952
  0
ARC
  5
20746
  8
0
 10
4565.0265590685421557
 20
318.6866602050070014
 30
0.0
 40
3.014539113198663
 50
277.9487606939168813
 51
293.5211420861111264
  0
ARC
  5
20747
  8
0
 10
4565.1281522061990472
 20
318.2706440076025842
 30
0.0
 40
2.5935679911255081
 50
295.1312664634401131
 51
309.1522410105928884
  0
ARC
  5
20748
  8
0
 10
4564.8282546683876717
 20
318.6441632833506787
 30
0.0
 40
3.0725733627887299
 50
309.0912280876881937
 51
318.5779151390854054
  0
ARC
  5
20749
  8
0
 10
4572.7164703723074126
 20
317.2870325573238119
 30
0.0
 40
0.1163402632872683
 50
269.1215877974498767
 51
359.0716140174005204
  0
ARC
  5
2074A
  8
0
 10
4565.6395642405186663
 20
-98.7251341748190612
 30
0.0
 40
415.95601595132689
 50
89.0253916361759252
 51
90.3807414682094361
  0
ARC
  5
2074B
  8
0
 10
4560.176691735589884
 20
245.0360570197412073
 30
0.0
 40
72.236072538481551
 50
87.8588952947708037
 51
93.1439828649249648
  0
ARC
  5
2074C
  8
0
 10
4551.9194985041076507
 20
415.4741777153740259
 30
0.0
 40
98.4045652998061513
 50
271.7741402238115143
 51
272.5017693316337954
  0
ARC
  5
2074D
  8
0
 10
4554.6582845309612821
 20
324.1724908796178966
 30
0.0
 40
7.0624166849417129
 50
268.2271219604439239
 51
272.4977720279729851
  0
ARC
  5
2074E
  8
0
 10
4554.5337230168079259
 20
318.6577829026359154
 30
0.0
 40
1.5471821193684749
 50
259.2890334818765723
 51
266.5193055026223874
  0
ARC
  5
2074F
  8
0
 10
4553.5459459126514048
 20
313.6769010219043139
 30
0.0
 40
3.5307868921252932
 50
78.5612589884837433
 51
80.1567678670470514
  0
ARC
  5
20750
  8
0
 10
4554.1230102698818882
 20
316.9934555878775768
 30
0.0
 40
0.1644115634306927
 50
80.7124799372400332
 51
101.2064865046098987
  0
ARC
  5
20751
  8
0
 10
4554.1296699229005753
 20
316.9598007023710124
 30
0.0
 40
0.1987190297301962
 50
101.204180514990199
 51
114.905177295686201
  0
LINE
  5
20752
  8
0
 10
4562.6646128157653948
 20
315.3572484309810875
 30
0.0
 11
4565.1269621628644018
 21
315.3572484309810875
 31
0.0
  0
LINE
  5
20753
  8
0
 10
4572.8327953633643119
 20
316.6851560693954184
 30
0.0
 11
4572.8327953633643119
 21
322.3716389478450992
 31
0.0
  0
LINE
  5
20754
  8
0
 10
4555.9994962585533358
 20
322.6075768796948751
 30
0.0
 11
4572.5966908065693133
 21
322.6075768796948751
 31
0.0
  0
ENDSEC
  0
EOF
