  0
SECTION
  2
HEADER
  9
$ACADVER
  1
AC1009
  9
$INSBASE
 10
4635.723421865198361
 20
493.6028302811030244
 30
0.0
  9
$EXTMIN
 10
4628.0647151075099828
 20
493.6015785750952887
 30
-0.0000000000000058
  9
$EXTMAX
 10
4643.2972298164249878
 20
521.4911452733250599
 30
0.0000000000000104
  9
$LIMMIN
 10
0.0
 20
0.0
  9
$LIMMAX
 10
11.6929133858000007
 20
8.2677165353999982
  9
$ORTHOMODE
 70
     0
  9
$REGENMODE
 70
     1
  9
$FILLMODE
 70
     1
  9
$QTEXTMODE
 70
     0
  9
$MIRRTEXT
 70
     0
  9
$DRAGMODE
 70
     2
  9
$LTSCALE
 40
0.6431102362
  9
$OSMODE
 70
   575
  9
$ATTMODE
 70
     1
  9
$TEXTSIZE
 40
0.2
  9
$TRACEWID
 40
0.05
  9
$TEXTSTYLE
  7
STANDARD
  9
$CLAYER
  8
0
  9
$CELTYPE
  6
BYLAYER
  9
$CECOLOR
 62
   256
  9
$DIMSCALE
 40
1.0
  9
$DIMASZ
 40
0.1875
  9
$DIMEXO
 40
0.0625
  9
$DIMDLI
 40
0.4443307087
  9
$DIMRND
 40
0.0
  9
$DIMDLE
 40
0.0
  9
$DIMEXE
 40
0.125
  9
$DIMTP
 40
0.01
  9
$DIMTM
 40
0.01
  9
$DIMTXT
 40
2.0
  9
$DIMCEN
 40
0.1052362205
  9
$DIMTSZ
 40
0.0
  9
$DIMTOL
 70
     1
  9
$DIMLIM
 70
     0
  9
$DIMTIH
 70
     1
  9
$DIMTOH
 70
     1
  9
$DIMSE1
 70
     0
  9
$DIMSE2
 70
     0
  9
$DIMTAD
 70
     0
  9
$DIMZIN
 70
     0
  9
$DIMBLK
  1

  9
$DIMASO
 70
     1
  9
$DIMSHO
 70
     1
  9
$DIMPOST
  1
\X
  9
$DIMAPOST
  1

  9
$DIMALT
 70
     1
  9
$DIMALTD
 70
     2
  9
$DIMALTF
 40
25.3999999999999986
  9
$DIMLFAC
 40
1.0
  9
$DIMTOFL
 70
     0
  9
$DIMTVP
 40
0.0
  9
$DIMTIX
 70
     0
  9
$DIMSOXD
 70
     0
  9
$DIMSAH
 70
     0
  9
$DIMBLK1
  1

  9
$DIMBLK2
  1

  9
$DIMSTYLE
  2
STANDARD
  9
$DIMCLRD
 70
     0
  9
$DIMCLRE
 70
     0
  9
$DIMCLRT
 70
     0
  9
$DIMTFAC
 40
1.0
  9
$DIMGAP
 40
0.09
  9
$LUNITS
 70
     2
  9
$LUPREC
 70
     4
  9
$SKETCHINC
 40
0.1
  9
$FILLETRAD
 40
0.0
  9
$AUNITS
 70
     0
  9
$AUPREC
 70
     0
  9
$MENU
  1
.
  9
$ELEVATION
 40
0.0
  9
$PELEVATION
 40
0.0
  9
$THICKNESS
 40
0.0
  9
$LIMCHECK
 70
     0
  9
$BLIPMODE
 70
     0
  9
$CHAMFERA
 40
0.0
  9
$CHAMFERB
 40
0.0
  9
$SKPOLY
 70
     0
  9
$TDCREATE
 40
2458060.468368056230247
  9
$TDUPDATE
 40
2459383.7111921301111579
  9
$TDINDWG
 40
1.4993140509
  9
$TDUSRTIMER
 40
1.4993140509
  9
$USRTIMER
 70
     1
  9
$ANGBASE
 50
0.0
  9
$ANGDIR
 70
     0
  9
$PDMODE
 70
     0
  9
$PDSIZE
 40
0.3125
  9
$PLINEWID
 40
0.0
  9
$COORDS
 70
     2
  9
$SPLFRAME
 70
     0
  9
$SPLINETYPE
 70
     6
  9
$SPLINESEGS
 70
     8
  9
$ATTDIA
 70
     1
  9
$ATTREQ
 70
     1
  9
$HANDLING
 70
     1
  9
$HANDSEED
  5
1BCDE
  9
$SURFTAB1
 70
     6
  9
$SURFTAB2
 70
     6
  9
$SURFTYPE
 70
     6
  9
$SURFU
 70
     6
  9
$SURFV
 70
     6
  9
$UCSNAME
  2

  9
$UCSORG
 10
0.0
 20
0.0
 30
0.0
  9
$UCSXDIR
 10
1.0
 20
0.0
 30
0.0
  9
$UCSYDIR
 10
0.0
 20
1.0
 30
0.0
  9
$PUCSNAME
  2

  9
$PUCSORG
 10
0.0
 20
0.0
 30
0.0
  9
$PUCSXDIR
 10
1.0
 20
0.0
 30
0.0
  9
$PUCSYDIR
 10
0.0
 20
1.0
 30
0.0
  9
$USERI1
 70
     0
  9
$USERI2
 70
     0
  9
$USERI3
 70
     0
  9
$USERI4
 70
     0
  9
$USERI5
 70
     0
  9
$USERR1
 40
0.0
  9
$USERR2
 40
0.0
  9
$USERR3
 40
0.0
  9
$USERR4
 40
0.0
  9
$USERR5
 40
0.0
  9
$WORLDVIEW
 70
     1
  9
$SHADEDGE
 70
     3
  9
$SHADEDIF
 70
    70
  9
$TILEMODE
 70
     1
  9
$MAXACTVP
 70
    64
  9
$PLIMCHECK
 70
     0
  9
$PEXTMIN
 10
1.0000000000000000E+20
 20
1.0000000000000000E+20
 30
1.0000000000000000E+20
  9
$PEXTMAX
 10
-1.0000000000000000E+20
 20
-1.0000000000000000E+20
 30
-1.0000000000000000E+20
  9
$PLIMMIN
 10
0.0
 20
0.0
  9
$PLIMMAX
 10
12.0
 20
9.0
  9
$UNITMODE
 70
     0
  9
$VISRETAIN
 70
     1
  9
$PLINEGEN
 70
     0
  9
$PSLTSCALE
 70
     1
  0
ENDSEC
  0
SECTION
  2
TABLES
  0
TABLE
  2
VPORT
 70
     1
  0
VPORT
  2
*ACTIVE
 70
     0
 10
0.0
 20
0.0
 11
1.0
 21
1.0
 12
724.3156159307520738
 22
374.9667567843562779
 13
0.0
 23
0.0
 14
1.0
 24
1.0
 15
0.0
 25
0.0
 16
0.0
 26
0.0
 36
60.4960186965801583
 17
3911.3653564453120453
 27
132.5796051025390057
 37
0.0
 40
34.3493216705369377
 41
2.4101748807631158
 42
50.0
 43
0.0
 44
0.0
 50
0.0
 51
0.0
 71
     0
 72
   100
 73
     1
 74
     1
 75
     0
 76
     0
 77
     0
 78
     0
  0
ENDTAB
  0
TABLE
  2
LTYPE
 70
     2
  0
LTYPE
  2
CONTINUOUS
 70
     0
  3
Solid line
 72
    65
 73
     0
 40
0.0
  0
LTYPE
  2
PHANTOM2
 70
     0
  3
___ _ _ ___ _ _ ___ _ _ ___ _ _
 72
    65
 73
     6
 40
1.25
 49
0.625
 49
-0.125
 49
0.125
 49
-0.125
 49
0.125
 49
-0.125
  0
ENDTAB
  0
TABLE
  2
LAYER
 70
     2
  0
LAYER
  2
0
 70
     0
 62
   255
  6
CONTINUOUS
  0
LAYER
  2
DEFPOINTS
 70
     0
 62
     7
  6
CONTINUOUS
  0
ENDTAB
  0
TABLE
  2
STYLE
 70
     1
  0
STYLE
  2
STANDARD
 70
     0
 40
0.0
 41
0.8
 50
0.0
 71
     0
 42
0.2
  3
txt
  4

  0
ENDTAB
  0
TABLE
  2
VIEW
 70
     2
  0
ENDTAB
  0
TABLE
  2
UCS
 70
     0
  0
ENDTAB
  0
TABLE
  2
APPID
 70
    11
  0
APPID
  2
ACAD
 70
     0
  0
APPID
  2
ACAD_MLEADERVER
 70
     0
  0
APPID
  2
ACAD_EXEMPT_FROM_CAD_STANDARDS
 70
     0
  0
APPID
  2
ACAD_NAV_VCDISPLAY
 70
     0
  0
APPID
  2
ACAECLAYERSTANDARD
 70
     0
  0
APPID
  2
ACCMTRANSPARENCY
 70
     0
  0
APPID
  2
ACAD_DSTYLE_DIMJAG
 70
     0
  0
APPID
  2
ACAD_DSTYLE_DIMTALN
 70
     0
  0
APPID
  2
ACDBATTR
 70
     0
  0
APPID
  2
ACADANNOTATIVE
 70
     0
  0
APPID
  2
DCO15
 70
     0
  0
ENDTAB
  0
TABLE
  2
DIMSTYLE
 70
     1
  0
DIMSTYLE
  2
STANDARD
 70
     0
  3

  4

  5

  6

  7

 40
1.0
 41
0.1875
 42
0.0625
 43
0.38
 44
0.125
 45
0.0
 46
0.0
 47
0.01
 48
0.01
140
0.15625
141
0.09
142
0.0
143
25.3999999999999986
144
1.0
145
0.0
146
1.0
147
0.09
 71
     1
 72
     0
 73
     1
 74
     1
 75
     0
 76
     0
 77
     0
 78
     4
170
     0
171
     2
172
     0
173
     0
174
     0
175
     0
176
     0
177
     0
178
     0
  0
ENDTAB
  0
ENDSEC
  0
SECTION
  2
BLOCKS
  0
BLOCK
  8
0
  2
$MODEL_SPACE
 70
     0
 10
0.0
 20
0.0
 30
0.0
  3
$MODEL_SPACE
  1

  0
ENDBLK
  5
21
  8
0
  0
BLOCK
 67
     1
  8
0
  2
$PAPER_SPACE
 70
     0
 10
0.0
 20
0.0
 30
0.0
  3
$PAPER_SPACE
  1

  0
ENDBLK
  5
1D
 67
     1
  8
0
  0
ENDSEC
  0
SECTION
  2
ENTITIES
  0
ATTDEF
  5
159BF
  8
DEFPOINTS
 10
4635.7234187631111126
 20
493.6061720286057835
 30
0.0
 40
0.001
  1
K-17181T-SBG2
  3

  2
MODELNUMBER
 70
     0
1001
ACDBATTR
1070
     0
1070
     1
  0
ATTDEF
  5
159C0
  8
DEFPOINTS
 10
4635.7234187631111126
 20
493.6045051882267103
 30
0.0
 40
0.001
  1
REVE
  3

  2
TRADENAME
 70
     0
1001
ACDBATTR
1070
     0
1070
     1
  0
ATTDEF
  5
159C1
  8
DEFPOINTS
 10
4635.7234187631111126
 20
493.6028386952726237
 30
0.0
 40
0.001
  1
TOILET
  3

  2
PRODUCT
 70
     0
1001
ACDBATTR
1070
     0
1070
     1
  0
LINE
  5
1BBCD
  8
0
 10
4641.1877624390381243
 20
493.6028302811030244
 30
0.0
 11
4630.2590812913585978
 21
493.6028302811030244
 31
0.0
  0
LINE
  5
1BBCE
  8
0
 10
4629.4889405848480237
 20
509.6604961604530217
 30
0.0
 11
4641.9579031455486984
 21
509.6604961604530217
 31
0.0
  0
LINE
  5
1BBCF
  8
0
 10
4642.9854047019289283
 20
509.8626727723029148
 30
0.0
 11
4628.4614390284677938
 21
509.8626727723029148
 31
0.0
  0
LINE
  5
1BBD0
  8
0
 10
4634.8034218293487356
 20
521.4540982454028608
 30
0.0
 11
4636.6434218293488811
 21
521.4540982454028608
 31
0.0
  0
LINE
  5
1BBD1
  8
0
 10
4634.7834218293482991
 20
521.4340982454029927
 30
0.0
 11
4634.7834218293482991
 21
521.4037519070512872
 31
0.0
  0
ARC
  5
1BBD2
  8
0
 10
4634.8034218293487356
 20
521.4340982454029927
 30
0.0
 40
0.0199999999999925
 50
89.9999999999478888
 51
180.0000000000194973
  0
ARC
  5
1BBD3
  8
0
 10
4636.6434218293488811
 20
521.4340982454029927
 30
0.0
 40
0.0199999999999969
 50
359.9999999999902229
 51
90.0000000000521254
  0
LINE
  5
1BBD4
  8
0
 10
4636.6634218293484082
 20
521.4340982454029927
 30
0.0
 11
4636.6634218293484082
 21
521.4037518986476698
 31
0.0
  0
ARC
  5
1BBD5
  8
0
 10
4628.9451843749302498
 20
520.9526334631409554
 30
0.0
 40
0.4334667897872524
 50
89.7936416941559372
 51
112.8232509485239063
  0
ARC
  5
1BBD6
  8
0
 10
4629.0931839131835659
 20
521.0712724288653135
 30
0.0
 40
0.4597198880404517
 50
160.1663775877555906
 51
179.5944004435096133
  0
ARC
  5
1BBD7
  8
0
 10
4628.8774084384149319
 20
521.1421000463276414
 30
0.0
 40
0.2328058440171381
 50
115.5370472160427937
 51
158.5457243714963056
  0
LINE
  5
1BBD8
  8
0
 10
4628.6334755440484514
 20
521.0745267807029677
 30
0.0
 11
4628.6317367494475548
 21
520.9128188786030478
 31
0.0
  0
ARC
  5
1BBD9
  8
0
 10
4628.7106302099564346
 20
520.9120143099617053
 30
0.0
 40
0.0788975629633245
 50
179.4157083595902122
 51
200.6769637563739082
  0
LINE
  5
1BBDA
  8
0
 10
4628.6384619352484151
 20
521.0786576032030553
 30
0.0
 11
4628.5576890867268958
 21
511.5408940089774887
 31
0.0
  0
ARC
  5
1BBDB
  8
0
 10
4628.8746739373918899
 20
521.0766571847974546
 30
0.0
 40
0.2362204725061091
 50
90.7830966588906279
 51
179.5147884488779937
  0
LINE
  5
1BBDC
  8
0
 10
4628.8714454674227454
 20
521.3128555942176945
 30
0.0
 11
4635.723421865198361
 21
521.3628028186028587
 31
0.0
  0
LINE
  5
1BBDD
  8
0
 10
4630.6676463826488543
 20
509.6658233383029142
 30
0.0
 11
4630.0550160793482064
 21
509.6658233383029142
 31
0.0
  0
ARC
  5
1BBDE
  8
0
 10
4628.6485337361446
 20
509.4140034857977071
 30
0.0
 40
0.2366421422542922
 50
102.3345571300698964
 51
192.8317160918778939
  0
ARC
  5
1BBDF
  8
0
 10
4628.7520123609729126
 20
508.4437509071528893
 30
0.0
 40
1.2112657828492901
 50
89.510439914492423
 51
97.305771406656973
  0
LINE
  5
1BBE0
  8
0
 10
4628.4883381037489016
 20
511.3784349772030282
 30
0.0
 11
4628.4221199822486597
 21
509.903820585702988
 31
0.0
  0
ARC
  5
1BBE1
  8
0
 10
4628.4614499095041538
 20
509.9020428546893982
 30
0.0
 40
0.0393700838900836
 50
177.4119656672237966
 51
269.9841646898947261
  0
LINE
  5
1BBE2
  8
0
 10
4628.5434766659491288
 20
509.8626727721029965
 30
0.0
 11
4628.5414637874482651
 21
509.6249894507029126
 31
0.0
  0
LINE
  5
1BBE3
  8
0
 10
4629.8475623398981043
 20
509.7445625307029218
 30
0.0
 11
4629.3521144808219105
 21
509.7445625307029218
 31
0.0
  0
ARC
  5
1BBE4
  8
0
 10
4629.3521144804590222
 20
510.0595373506473038
 30
0.0
 40
0.314974819944364
 50
218.6834262025315923
 51
270.0000000661800073
  0
ARC
  5
1BBE5
  8
0
 10
4630.0594743929277683
 20
509.9902278725757014
 30
0.0
 40
0.3244351682797279
 50
203.1512998429062122
 51
269.2126297733888123
  0
ARC
  5
1BBE6
  8
0
 10
4630.6591915182625598
 20
509.9898523924860001
 30
0.0
 40
0.324139341466747
 50
271.4946750759060023
 51
336.8985153622687108
  0
ARC
  5
1BBE7
  8
0
 10
4630.1060343199751514
 20
509.9054341265479025
 30
0.0
 40
0.2400465982997135
 50
273.4530606228208853
 51
349.7386938558911993
  0
ARC
  5
1BBE8
  8
0
 10
4629.340010313950188
 20
507.4986320263527091
 30
0.0
 40
2.8599219918819561
 50
50.9149239773044897
 51
55.6055090968065215
  0
ARC
  5
1BBE9
  8
0
 10
4631.3211265815371007
 20
509.9552410454709843
 30
0.0
 40
0.2961724175792569
 50
233.0557390678135903
 51
264.3722741850211264
  0
ARC
  5
1BBEA
  8
0
 10
4631.6694320821334259
 20
509.767701140069903
 30
0.0
 40
0.1083255084753749
 50
238.3468439106106871
 51
261.7518060941501972
  0
ARC
  5
1BBEB
  8
0
 10
4631.6193156770841597
 20
509.6815039882499718
 30
0.0
 40
0.0090256695492237
 50
104.4566469905660995
 51
221.7829704248892995
  0
ARC
  5
1BBEC
  8
0
 10
4631.6787945448686514
 20
509.5829823305766126
 30
0.0
 40
0.1237573904291223
 50
104.1341260460162061
 51
119.9216639160077023
  0
ARC
  5
1BBED
  8
0
 10
4632.0408090233568146
 20
507.8544329622893088
 30
0.0
 40
1.889715130860625
 50
95.6070827338824785
 51
101.9795815130620014
  0
ARC
  5
1BBEE
  8
0
 10
4634.1271249091660138
 20
487.7387581337063125
 30
0.0
 40
22.1132666617868985
 50
92.5622583612889542
 51
95.8944608320727951
  0
ARC
  5
1BBEF
  8
0
 10
4634.4206951041296634
 20
486.132418330063274
 30
0.0
 40
23.7321579055419889
 50
90.7256783601353476
 51
93.0969427808878862
  0
ARC
  5
1BBF0
  8
0
 10
4629.2866396987537883
 20
473.9625080552959844
 30
0.0
 40
35.6963147064305772
 50
90.1070424807939645
 51
90.8415431738224157
  0
ARC
  5
1BBF1
  8
0
 10
4629.2187597449183158
 20
530.687596736956948
 30
0.0
 40
21.0288363049571707
 50
270.0032438794638097
 51
270.7361628355068888
  0
ARC
  5
1BBF2
  8
0
 10
4616.4993359894397145
 20
501.8272133019904118
 30
0.0
 40
13.4686299535336396
 50
3.703690061023976
 51
14.3046516785079501
  0
ARC
  5
1BBF3
  8
0
 10
4686.7936003673867162
 20
522.8233807095167549
 30
0.0
 40
59.9079088330342913
 50
192.9858516928273104
 51
197.1530696326331054
  0
ARC
  5
1BBF4
  8
0
 10
4533.0319399085738041
 20
495.0636825641295218
 30
0.0
 40
97.2080838612827165
 50
1.5324936258634001
 51
4.5039611643326669
  0
ARC
  5
1BBF5
  8
0
 10
3904.9446552569761479
 20
486.0186908810508157
 30
0.0
 40
725.3540761476605212
 50
0.5990827253629183
 51
0.9198563023647929
  0
ARC
  5
1BBF6
  8
0
 10
4628.7246415837771565
 20
511.3735929521710091
 30
0.0
 40
0.2363530830766915
 50
92.8381289838162758
 51
178.8261333238860971
  0
ARC
  5
1BBF7
  8
0
 10
4635.7012046737563651
 20
369.9857702785889728
 30
0.0
 40
141.7961949561826032
 50
92.0979438215983635
 51
92.8249024045896931
  0
LINE
  5
1BBF8
  8
0
 10
4628.7543001982548958
 20
511.6052196976331743
 30
0.0
 11
4642.6925435321409168
 21
511.6052196976331743
 31
0.0
  0
ARC
  5
1BBF9
  8
0
 10
4628.7249835263874047
 20
511.3675367585050253
 30
0.0
 40
0.2368962372570608
 50
91.5176240861803336
 51
177.3632236385109877
  0
ARC
  5
1BBFA
  8
0
 10
4631.1120488509477582
 20
414.4937602841317812
 30
0.0
 40
97.1400768381896853
 50
91.3907989229499549
 51
91.4118017804144358
  0
ARC
  5
1BBFB
  8
0
 10
4635.7234218293360755
 20
-754.1963025485138132
 30
0.0
 40
1275.6004007939170606
 50
89.6956125189907851
 51
90.3043874677209573
  0
ARC
  5
1BBFC
  8
0
 10
4642.5016593554673818
 20
520.9526334631409554
 30
0.0
 40
0.4334667897872524
 50
67.1767490514760937
 51
90.2063583058440628
  0
ARC
  5
1BBFD
  8
0
 10
4642.3536598172122467
 20
521.0712724288653135
 30
0.0
 40
0.4597198880404517
 50
0.4055995564903753
 51
19.8336224122443312
  0
ARC
  5
1BBFE
  8
0
 10
4642.5694352919808807
 20
521.1421000463276414
 30
0.0
 40
0.2328058440171381
 50
21.4542756285036589
 51
64.4629527839571494
  0
LINE
  5
1BBFF
  8
0
 10
4642.8133681863482707
 20
521.0745267807029677
 30
0.0
 11
4642.8151069809482578
 21
520.9128188786030478
 31
0.0
  0
ARC
  5
1BC00
  8
0
 10
4642.736213520441197
 20
520.9120143099617053
 30
0.0
 40
0.0788975629633245
 50
339.3230362436261203
 51
0.5842916404098289
  0
LINE
  5
1BC01
  8
0
 10
4642.8083817951473975
 20
521.0786576032030553
 30
0.0
 11
4642.8891546436707358
 21
511.5408940089774887
 31
0.0
  0
ARC
  5
1BC02
  8
0
 10
4642.5721697930039227
 20
521.0766571847974546
 30
0.0
 40
0.2362204725061091
 50
0.485211551121978
 51
89.2169033411093579
  0
LINE
  5
1BC03
  8
0
 10
4640.7791973477487772
 20
509.6658233383029142
 30
0.0
 11
4641.3918276510476062
 21
509.6658233383029142
 31
0.0
  0
ARC
  5
1BC04
  8
0
 10
4642.7983099942521221
 20
509.4140034857977071
 30
0.0
 40
0.2366421422542922
 50
347.1682839081220777
 51
77.6654428699301178
  0
ARC
  5
1BC05
  8
0
 10
4642.6948313694238095
 20
508.4437509071528893
 30
0.0
 40
1.2112657828492901
 50
82.694228593343027
 51
90.489560085507577
  0
LINE
  5
1BC06
  8
0
 10
4642.95850562664873
 20
511.3784349772030282
 30
0.0
 11
4643.0247237481489719
 21
509.903820585702988
 31
0.0
  0
ARC
  5
1BC07
  8
0
 10
4642.9853938208916588
 20
509.9020428546893982
 30
0.0
 40
0.0393700838900836
 50
270.0158353097406234
 51
2.588034332779436
  0
LINE
  5
1BC08
  8
0
 10
4642.9033670644475933
 20
509.8626727721029965
 30
0.0
 11
4642.9053799429475475
 21
509.6249894507029126
 31
0.0
  0
LINE
  5
1BC09
  8
0
 10
4641.5992813905004368
 20
509.7445625307029218
 30
0.0
 11
4642.0947292495729926
 21
509.7445625307029218
 31
0.0
  0
ARC
  5
1BC0A
  8
0
 10
4642.0947292499367904
 20
510.0595373506473038
 30
0.0
 40
0.314974819944364
 50
269.9999999338201064
 51
321.3165737974683793
  0
ARC
  5
1BC0B
  8
0
 10
4641.3873693374689537
 20
509.9902278725757014
 30
0.0
 40
0.3244351682797279
 50
270.787370226611074
 51
336.8487001570937878
  0
ARC
  5
1BC0C
  8
0
 10
4640.7876522121350717
 20
509.9898523924860001
 30
0.0
 40
0.324139341466747
 50
203.1014846377312892
 51
268.5053249240939977
  0
ARC
  5
1BC0D
  8
0
 10
4641.3408094104197517
 20
509.9054341265479025
 30
0.0
 40
0.2400465982997135
 50
190.2613061441088007
 51
266.5469393771791147
  0
ARC
  5
1BC0E
  8
0
 10
4642.1068334164474436
 20
507.4986320263527091
 30
0.0
 40
2.8599219918819561
 50
124.3944909031934003
 51
129.085076022695489
  0
ARC
  5
1BC0F
  8
0
 10
4640.1257171488587119
 20
509.9552410454709843
 30
0.0
 40
0.2961724175792569
 50
275.6277258149788736
 51
306.9442609321864097
  0
ARC
  5
1BC10
  8
0
 10
4639.7774116482632962
 20
509.767701140069903
 30
0.0
 40
0.1083255084753749
 50
278.2481939058499165
 51
301.6531560893893129
  0
ARC
  5
1BC11
  8
0
 10
4639.8275280533125624
 20
509.6815039882499718
 30
0.0
 40
0.0090256695492237
 50
318.2170295751107005
 51
75.5433530094338437
  0
ARC
  5
1BC12
  8
0
 10
4639.7680491855271612
 20
509.5829823305766126
 30
0.0
 40
0.1237573904291223
 50
60.0783360839922835
 51
75.8658739539837654
  0
ARC
  5
1BC13
  8
0
 10
4639.406034707038998
 20
507.8544329622893088
 30
0.0
 40
1.889715130860625
 50
78.0204184869379844
 51
84.3929172661175215
  0
ARC
  5
1BC14
  8
0
 10
4637.3197188212307083
 20
487.7387581337063125
 30
0.0
 40
22.1132666617868985
 50
84.1055391679272049
 51
87.4377416387110742
  0
ARC
  5
1BC15
  8
0
 10
4642.1602040316420243
 20
473.9625080552959844
 30
0.0
 40
35.6963147064305772
 50
89.1584568261775985
 51
89.8929575192060355
  0
ARC
  5
1BC16
  8
0
 10
4642.2280839854793157
 20
530.687596736956948
 30
0.0
 40
21.0288363049571707
 50
269.2638371644929975
 51
269.9967561205361903
  0
ARC
  5
1BC17
  8
0
 10
4654.9475077409560981
 20
501.8272133019904118
 30
0.0
 40
13.4686299535336396
 50
165.695348321492105
 51
176.2963099389760089
  0
ARC
  5
1BC18
  8
0
 10
4584.6532433630100059
 20
522.8233807095167549
 30
0.0
 40
59.9079088330342913
 50
342.8469303673668946
 51
347.0141483071726043
  0
ARC
  5
1BC19
  8
0
 10
4738.4149038218220085
 20
495.0636825641295218
 30
0.0
 40
97.2080838612827165
 50
175.4960388356672922
 51
178.4675063741366046
  0
ARC
  5
1BC1A
  8
0
 10
5366.5021884734223931
 20
486.0186908810508157
 30
0.0
 40
725.3540761476605212
 50
179.0801436976352079
 51
179.4009172746370098
  0
ARC
  5
1BC1B
  8
0
 10
4642.7222021466213846
 20
511.3735929521710091
 30
0.0
 40
0.2363530830766915
 50
1.1738666761138929
 51
87.1618710161837242
  0
ARC
  5
1BC1C
  8
0
 10
4635.745639056642176
 20
369.9857702785889728
 30
0.0
 40
141.7961949561826032
 50
87.1750975954103353
 51
87.9020561784016508
  0
ARC
  5
1BC1D
  8
0
 10
4642.7218602040111364
 20
511.3675367585050253
 30
0.0
 40
0.2368962372570608
 50
2.636776361488995
 51
88.4823759138196664
  0
ARC
  5
1BC1E
  8
0
 10
4640.3347948794489639
 20
414.4937602841317812
 30
0.0
 40
97.1400768381896853
 50
88.5881982195855642
 51
88.6092010770500451
  0
ARC
  5
1BC1F
  8
0
 10
4635.723421865198361
 20
368.6682402216642913
 30
0.0
 40
143.1136575741386139
 50
87.912477185093735
 51
92.0875228149062508
  0
LINE
  5
1BC20
  8
0
 10
4642.5753982629739767
 20
521.3128555942176945
 30
0.0
 11
4635.723421865198361
 21
521.3628028186028587
 31
0.0
  0
LINE
  5
1BC21
  8
0
 10
4630.2284703134882875
 20
496.1144028963868209
 30
0.0
 11
4630.2198911241475798
 21
496.1107021565028958
 31
0.0
  0
ARC
  5
1BC22
  8
0
 10
4630.2278128779953477
 20
496.0923379024500832
 30
0.0
 40
0.0200000002730284
 50
113.3338275889267948
 51
168.5282637733101012
  0
LINE
  5
1BC23
  8
0
 10
4630.2427828555628366
 20
495.027680058983492
 30
0.0
 11
4630.2321964450493397
 21
495.0319629320030117
 31
0.0
  0
ARC
  5
1BC24
  8
0
 10
4630.2396972248970997
 20
495.0505031126775179
 30
0.0
 40
0.0199999999447273
 50
192.7788400772120951
 51
247.973277107196509
  0
ARC
  5
1BC25
  8
0
 10
4632.6582642515268162
 20
495.5990772046711754
 30
0.0
 40
2.4999999992795461
 50
168.5276301433455899
 51
192.7794742276869897
  0
LINE
  5
1BC26
  8
0
 10
4630.2201926027919399
 20
495.0460793456937836
 30
0.0
 11
4630.2082124190719696
 21
496.0963155928511128
 31
0.0
  0
LINE
  5
1BC27
  8
0
 10
4630.1410264834294139
 20
499.4496684943046034
 30
0.0
 11
4630.1145092220485822
 21
499.4488350878029905
 31
0.0
  0
ARC
  5
1BC28
  8
0
 10
4630.1151374886130725
 20
499.4288449580643032
 30
0.0
 40
0.0200000001460674
 50
91.8001472598450334
 51
171.9246036833114886
  0
ARC
  5
1BC29
  8
0
 10
4635.1826940513446971
 20
498.7098448848149133
 30
0.0
 40
5.1383093520537386
 50
171.9246036833114886
 51
174.190222350689595
  0
ARC
  5
1BC2A
  8
0
 10
4630.0807106327365545
 20
499.2289651249091094
 30
0.0
 40
0.0099840281859809
 50
174.190222350689595
 51
181.8062342269329861
  0
LINE
  5
1BC2B
  8
0
 10
4630.0707315652489342
 20
499.2286504332029722
 30
0.0
 11
4630.1131395494494427
 21
497.8793166854030119
 31
0.0
  0
ARC
  5
1BC2C
  8
0
 10
4630.1231346000304256
 20
497.8796308181724157
 30
0.0
 40
0.0099999857762707
 50
181.8001468958379121
 51
189.4039877848466915
  0
ARC
  5
1BC2D
  8
0
 10
4635.1554484953003339
 20
498.7130848333554809
 30
0.0
 40
5.1108654746861069
 50
189.4039877848466915
 51
191.6817972984592018
  0
ARC
  5
1BC2E
  8
0
 10
4630.1700292082678061
 20
497.6823058018038068
 30
0.0
 40
0.0200000394774159
 50
191.6817972984592018
 51
271.8000514752851018
  0
LINE
  5
1BC2F
  8
0
 10
4630.1706574426489169
 20
497.6623156317029952
 30
0.0
 11
4630.205254258748937
 21
497.6634029692028776
 31
0.0
  0
LINE
  5
1BC30
  8
0
 10
4630.1128254162476878
 20
497.8893117502029213
 30
0.0
 11
4630.1099122286486818
 21
497.8892201921029823
 31
0.0
  0
ARC
  5
1BC31
  8
0
 10
4630.109664879824777
 20
497.8970903220429136
 30
0.0
 40
0.0078740159202556
 50
189.1984506716896988
 51
271.8001456502522046
  0
LINE
  5
1BC32
  8
0
 10
4630.0710456984488701
 20
499.2186553684030059
 30
0.0
 11
4630.0681325108489546
 21
499.2185638103030101
 31
0.0
  0
ARC
  5
1BC33
  8
0
 10
4630.0683770212790478
 20
499.2107005504906283
 30
0.0
 40
0.0078670604565956
 50
91.7810556131869362
 51
174.7138105255544076
  0
LINE
  5
1BC34
  8
0
 10
4630.0586094055133799
 20
498.2344144834844997
 30
0.0
 11
4630.0386087814486018
 21
498.8708063511029991
 31
0.0
  0
ARC
  5
1BC35
  8
0
 10
4635.145632870564441
 20
498.7130017711485266
 30
0.0
 40
5.1094615501306109
 50
174.4015329083719905
 51
178.2301511900234061
  0
ARC
  5
1BC36
  8
0
 10
4635.147288132250651
 20
498.7128673865631754
 30
0.0
 40
5.1111220259755044
 50
185.3713308232246106
 51
189.1984499114751088
  0
LINE
  5
1BC37
  8
0
 10
4630.0953358070373724
 20
499.4316544798383006
 30
0.0
 11
4630.1504434258849869
 21
497.6782562700324775
 31
0.0
  0
LINE
  5
1BC38
  8
0
 10
4630.0605433989521771
 20
499.2114617975963142
 30
0.0
 11
4630.1018921191189293
 21
497.8958316252075065
 31
0.0
  0
LINE
  5
1BC39
  8
0
 10
4641.2183449021931665
 20
496.1123541691191008
 30
0.0
 11
4641.2216129964481297
 21
496.110961056202882
 31
0.0
  0
ARC
  5
1BC3A
  8
0
 10
4641.2137702023519523
 20
496.0925629426777164
 30
0.0
 40
0.0200000000131297
 50
11.7178596669838999
 51
66.91229625481634
  0
ARC
  5
1BC3B
  8
0
 10
4638.7854601310518774
 20
495.5888664170212223
 30
0.0
 40
2.499999998395777
 50
347.4666493824997815
 51
11.71849347512142
  0
ARC
  5
1BC3C
  8
0
 10
4641.2063613271284339
 20
495.0506867138059874
 30
0.0
 40
0.019999999582686
 50
292.2728459120278899
 51
347.4672840393357092
  0
LINE
  5
1BC3D
  8
0
 10
4641.2139416796489968
 20
495.0321789252029134
 30
0.0
 11
4641.204066517731917
 21
495.0281343476586926
 31
0.0
  0
LINE
  5
1BC3E
  8
0
 10
4641.2258847719349433
 20
495.0463467729996978
 30
0.0
 11
4641.2333533933478975
 21
496.0966247930030022
 31
0.0
  0
ARC
  5
1BC40
  8
0
 10
4637.0261486262670587
 20
486.132418330063274
 30
0.0
 40
23.7321579055419889
 50
86.9030572191121138
 51
89.2743216398646666
  0
ENDSEC
  0
EOF
