  0
SECTION
  2
HEADER
  9
$ACADVER
  1
AC1009
  9
$INSBASE
 10
4657.7658551362274011
 20
520.5808019181566806
 30
0.0
  9
$EXTMIN
 10
4650.2411318527965705
 20
493.6173763975378961
 30
-0.0000000000000058
  9
$EXTMAX
 10
4665.1200842187336093
 20
520.5868789739711247
 30
0.0000000000000104
  9
$LIMMIN
 10
0.0
 20
0.0
  9
$LIMMAX
 10
11.6929133858000007
 20
8.2677165353999982
  9
$ORTHOMODE
 70
     0
  9
$REGENMODE
 70
     1
  9
$FILLMODE
 70
     1
  9
$QTEXTMODE
 70
     0
  9
$MIRRTEXT
 70
     0
  9
$DRAGMODE
 70
     2
  9
$LTSCALE
 40
0.6431102362
  9
$OSMODE
 70
     7
  9
$ATTMODE
 70
     1
  9
$TEXTSIZE
 40
0.2
  9
$TRACEWID
 40
0.05
  9
$TEXTSTYLE
  7
STANDARD
  9
$CLAYER
  8
0
  9
$CELTYPE
  6
BYLAYER
  9
$CECOLOR
 62
   256
  9
$DIMSCALE
 40
1.0
  9
$DIMASZ
 40
0.1875
  9
$DIMEXO
 40
0.0625
  9
$DIMDLI
 40
0.4443307087
  9
$DIMRND
 40
0.0
  9
$DIMDLE
 40
0.0
  9
$DIMEXE
 40
0.125
  9
$DIMTP
 40
0.01
  9
$DIMTM
 40
0.01
  9
$DIMTXT
 40
2.0
  9
$DIMCEN
 40
0.1052362205
  9
$DIMTSZ
 40
0.0
  9
$DIMTOL
 70
     1
  9
$DIMLIM
 70
     0
  9
$DIMTIH
 70
     1
  9
$DIMTOH
 70
     1
  9
$DIMSE1
 70
     0
  9
$DIMSE2
 70
     0
  9
$DIMTAD
 70
     0
  9
$DIMZIN
 70
     0
  9
$DIMBLK
  1

  9
$DIMASO
 70
     1
  9
$DIMSHO
 70
     1
  9
$DIMPOST
  1
\X
  9
$DIMAPOST
  1

  9
$DIMALT
 70
     1
  9
$DIMALTD
 70
     2
  9
$DIMALTF
 40
25.3999999999999986
  9
$DIMLFAC
 40
1.0
  9
$DIMTOFL
 70
     0
  9
$DIMTVP
 40
0.0
  9
$DIMTIX
 70
     0
  9
$DIMSOXD
 70
     0
  9
$DIMSAH
 70
     0
  9
$DIMBLK1
  1

  9
$DIMBLK2
  1

  9
$DIMSTYLE
  2
STANDARD
  9
$DIMCLRD
 70
     0
  9
$DIMCLRE
 70
     0
  9
$DIMCLRT
 70
     0
  9
$DIMTFAC
 40
1.0
  9
$DIMGAP
 40
0.09
  9
$LUNITS
 70
     2
  9
$LUPREC
 70
     4
  9
$SKETCHINC
 40
0.1
  9
$FILLETRAD
 40
0.0
  9
$AUNITS
 70
     0
  9
$AUPREC
 70
     0
  9
$MENU
  1
.
  9
$ELEVATION
 40
0.0
  9
$PELEVATION
 40
0.0
  9
$THICKNESS
 40
0.0
  9
$LIMCHECK
 70
     0
  9
$BLIPMODE
 70
     0
  9
$CHAMFERA
 40
0.0
  9
$CHAMFERB
 40
0.0
  9
$SKPOLY
 70
     0
  9
$TDCREATE
 40
2458060.468368056230247
  9
$TDUPDATE
 40
2459366.4625578699633479
  9
$TDINDWG
 40
1.5002052546
  9
$TDUSRTIMER
 40
1.5002052546
  9
$USRTIMER
 70
     1
  9
$ANGBASE
 50
0.0
  9
$ANGDIR
 70
     0
  9
$PDMODE
 70
     0
  9
$PDSIZE
 40
0.3125
  9
$PLINEWID
 40
0.0
  9
$COORDS
 70
     1
  9
$SPLFRAME
 70
     0
  9
$SPLINETYPE
 70
     6
  9
$SPLINESEGS
 70
     8
  9
$ATTDIA
 70
     1
  9
$ATTREQ
 70
     1
  9
$HANDLING
 70
     1
  9
$HANDSEED
  5
1C1CA
  9
$SURFTAB1
 70
     6
  9
$SURFTAB2
 70
     6
  9
$SURFTYPE
 70
     6
  9
$SURFU
 70
     6
  9
$SURFV
 70
     6
  9
$UCSNAME
  2

  9
$UCSORG
 10
0.0
 20
0.0
 30
0.0
  9
$UCSXDIR
 10
1.0
 20
0.0
 30
0.0
  9
$UCSYDIR
 10
0.0
 20
1.0
 30
0.0
  9
$PUCSNAME
  2

  9
$PUCSORG
 10
0.0
 20
0.0
 30
0.0
  9
$PUCSXDIR
 10
1.0
 20
0.0
 30
0.0
  9
$PUCSYDIR
 10
0.0
 20
1.0
 30
0.0
  9
$USERI1
 70
     0
  9
$USERI2
 70
     0
  9
$USERI3
 70
     0
  9
$USERI4
 70
     0
  9
$USERI5
 70
     0
  9
$USERR1
 40
0.0
  9
$USERR2
 40
0.0
  9
$USERR3
 40
0.0
  9
$USERR4
 40
0.0
  9
$USERR5
 40
0.0
  9
$WORLDVIEW
 70
     1
  9
$SHADEDGE
 70
     3
  9
$SHADEDIF
 70
    70
  9
$TILEMODE
 70
     1
  9
$MAXACTVP
 70
    64
  9
$PLIMCHECK
 70
     0
  9
$PEXTMIN
 10
1.0000000000000000E+20
 20
1.0000000000000000E+20
 30
1.0000000000000000E+20
  9
$PEXTMAX
 10
-1.0000000000000000E+20
 20
-1.0000000000000000E+20
 30
-1.0000000000000000E+20
  9
$PLIMMIN
 10
0.0
 20
0.0
  9
$PLIMMAX
 10
12.0
 20
9.0
  9
$UNITMODE
 70
     0
  9
$VISRETAIN
 70
     1
  9
$PLINEGEN
 70
     0
  9
$PSLTSCALE
 70
     1
  0
ENDSEC
  0
SECTION
  2
TABLES
  0
TABLE
  2
VPORT
 70
     1
  0
VPORT
  2
*ACTIVE
 70
     0
 10
0.0
 20
0.0
 11
1.0
 21
1.0
 12
746.3152515904530446
 22
374.5225225832155047
 13
0.0
 23
0.0
 14
1.0
 24
1.0
 15
0.0
 25
0.0
 16
0.0
 26
0.0
 36
60.4960186965801583
 17
3911.3653564453120453
 27
132.5796051025390057
 37
0.0
 40
27.1766946576860811
 41
2.3461538461538458
 42
50.0
 43
0.0
 44
0.0
 50
0.0
 51
0.0
 71
     0
 72
   100
 73
     1
 74
     1
 75
     0
 76
     0
 77
     0
 78
     0
  0
ENDTAB
  0
TABLE
  2
LTYPE
 70
     2
  0
LTYPE
  2
CONTINUOUS
 70
     0
  3
Solid line
 72
    65
 73
     0
 40
0.0
  0
LTYPE
  2
PHANTOM2
 70
     0
  3
___ _ _ ___ _ _ ___ _ _ ___ _ _
 72
    65
 73
     6
 40
1.25
 49
0.625
 49
-0.125
 49
0.125
 49
-0.125
 49
0.125
 49
-0.125
  0
ENDTAB
  0
TABLE
  2
LAYER
 70
     2
  0
LAYER
  2
0
 70
     0
 62
   255
  6
CONTINUOUS
  0
LAYER
  2
DEFPOINTS
 70
     0
 62
     7
  6
CONTINUOUS
  0
ENDTAB
  0
TABLE
  2
STYLE
 70
     2
  0
STYLE
  2
STANDARD
 70
     0
 40
0.0
 41
0.8
 50
0.0
 71
     0
 42
0.2
  3
txt
  4

  0
ENDTAB
  0
TABLE
  2
VIEW
 70
     0
  0
ENDTAB
  0
TABLE
  2
UCS
 70
     0
  0
ENDTAB
  0
TABLE
  2
APPID
 70
    11
  0
APPID
  2
ACAD
 70
     0
  0
APPID
  2
ACAD_MLEADERVER
 70
     0
  0
APPID
  2
ACAD_EXEMPT_FROM_CAD_STANDARDS
 70
     0
  0
APPID
  2
ACAD_NAV_VCDISPLAY
 70
     0
  0
APPID
  2
ACAECLAYERSTANDARD
 70
     0
  0
APPID
  2
ACCMTRANSPARENCY
 70
     0
  0
APPID
  2
ACAD_DSTYLE_DIMJAG
 70
     0
  0
APPID
  2
ACAD_DSTYLE_DIMTALN
 70
     0
  0
APPID
  2
ACDBATTR
 70
     0
  0
APPID
  2
ACADANNOTATIVE
 70
     0
  0
APPID
  2
DCO15
 70
     0
  0
ENDTAB
  0
TABLE
  2
DIMSTYLE
 70
     2
  0
DIMSTYLE
  2
STANDARD
 70
     0
  3

  4

  5

  6

  7

 40
1.0
 41
0.1875
 42
0.0625
 43
0.38
 44
0.125
 45
0.0
 46
0.0
 47
0.01
 48
0.01
140
0.15625
141
0.09
142
0.0
143
25.3999999999999986
144
1.0
145
0.0
146
1.0
147
0.09
 71
     1
 72
     0
 73
     1
 74
     1
 75
     0
 76
     0
 77
     0
 78
     4
170
     0
171
     2
172
     0
173
     0
174
     0
175
     0
176
     0
177
     0
178
     0
  0
ENDTAB
  0
ENDSEC
  0
SECTION
  2
BLOCKS
  0
BLOCK
  8
0
  2
$MODEL_SPACE
 70
     0
 10
0.0
 20
0.0
 30
0.0
  3
$MODEL_SPACE
  1

  0
ENDBLK
  5
21
  8
0
  0
BLOCK
 67
     1
  8
0
  2
$PAPER_SPACE
 70
     0
 10
0.0
 20
0.0
 30
0.0
  3
$PAPER_SPACE
  1

  0
ENDBLK
  5
1D
 67
     1
  8
0
  0
ENDSEC
  0
SECTION
  2
ENTITIES
  0
ATTDEF
  5
159BF
  8
DEFPOINTS
 10
4657.765855753532378
 20
520.5841360230887176
 30
0.0
 40
0.001
  1
K-17181T-SP2
  3

  2
MODELNUMBER
 70
     0
1001
ACDBATTR
1070
     0
1070
     1
  0
ATTDEF
  5
159C0
  8
DEFPOINTS
 10
4657.765855753532378
 20
520.5824691827094739
 30
0.0
 40
0.001
  1
REVE
  3

  2
TRADENAME
 70
     0
1001
ACDBATTR
1070
     0
1070
     1
  0
ATTDEF
  5
159C1
  8
DEFPOINTS
 10
4657.765855753532378
 20
520.5808026897552736
 30
0.0
 40
0.001
  1
TOILET
  3

  2
PRODUCT
 70
     0
1001
ACDBATTR
1070
     0
1070
     1
  0
LINE
  5
1BFE8
  8
0
 10
4650.4970847141767081
 20
520.5808019181566806
 30
0.0
 11
4665.0346255582780941
 21
520.5808019181566806
 31
0.0
  0
ARC
  5
1BFE9
  8
0
 10
4650.4988148512711632
 20
520.5361457376707222
 30
0.0
 40
0.0446896837085606
 50
92.2187297967529389
 51
174.5814635053581014
  0
ARC
  5
1BFEA
  8
0
 10
4653.8879023444778795
 20
511.4800145166568086
 30
0.0
 40
0.8503937007999979
 50
348.9563344717321911
 51
182.6535308714028929
  0
LINE
  5
1BFEB
  8
0
 10
4652.9715663364777356
 20
511.440644437856804
 30
0.0
 11
4653.3208199930768387
 21
511.440644437856804
 31
0.0
  0
LINE
  5
1BFEC
  8
0
 10
4653.3721543129777274
 20
511.1369185740567787
 30
0.0
 11
4653.3721543129777274
 21
511.5095212352567842
 31
0.0
  0
LINE
  5
1BFED
  8
0
 10
4653.4115243917767657
 20
511.548912154356799
 30
0.0
 11
4654.6831779350768556
 21
511.548912154356799
 31
0.0
  0
LINE
  5
1BFEE
  8
0
 10
4652.8278390055766067
 20
511.4406434037567806
 30
0.0
 11
4652.3742022172782526
 21
511.440643403656793
 31
0.0
  0
LINE
  5
1BFEF
  8
0
 10
4652.3473517307320435
 20
511.4359330211706833
 30
0.0
 11
4651.2154468703747625
 21
511.4361149214280999
 31
0.0
  0
ARC
  5
1BFF0
  8
0
 10
4652.3743211786068059
 20
511.361082489841408
 30
0.0
 40
0.0795610027522576
 50
90.0856699183455447
 51
109.8146345390990035
  0
ARC
  5
1BFF1
  8
0
 10
4650.6248386701563504
 20
511.4267647054132908
 30
0.0
 40
0.0380335565978888
 50
52.0329713211929175
 51
102.0266148797271057
  0
ARC
  5
1BFF2
  8
0
 10
4650.7102730855185655
 20
510.2223085888134051
 30
0.0
 40
1.2359982379934531
 50
91.3174423353751479
 51
92.8769358072152755
  0
ARC
  5
1BFF3
  8
0
 10
4650.6849519494871856
 20
511.1109992435409026
 30
0.0
 40
0.3469946718751491
 50
83.6788527526674955
 51
90.5113077028251496
  0
ARC
  5
1BFF4
  8
0
 10
4650.989689280755556
 20
514.0102535601952241
 30
0.0
 40
2.568237128316087
 50
264.0430921716907164
 51
267.1076217202365228
  0
ARC
  5
1BFF5
  8
0
 10
4651.1487410769450435
 20
516.8668870439878447
 30
0.0
 40
5.429277161542994
 50
266.9524569274440751
 51
268.4020928543512809
  0
ARC
  5
1BFF6
  8
0
 10
4651.2651740505098132
 20
521.0407142602130079
 30
0.0
 40
9.6047280675212825
 50
268.4020928543512809
 51
269.7033575278974808
  0
ARC
  5
1BFF7
  8
0
 10
4650.6352351158893725
 20
511.3730173090100948
 30
0.0
 40
0.09277324073053
 50
101.3899419807680999
 51
115.5866264735716982
  0
ARC
  5
1BFF8
  8
0
 10
4650.6835416870371773
 20
511.2563579712673913
 30
0.0
 40
0.2189606193006784
 50
113.803577416345604
 51
171.3887205463003909
  0
ARC
  5
1BFF9
  8
0
 10
4651.849655273409553
 20
495.1190784230756776
 30
0.0
 40
1.3953408355629211
 50
180.2215026579200128
 51
186.9316063180411049
  0
ARC
  5
1BFFA
  8
0
 10
4651.5651633913712431
 20
494.7478257134163755
 30
0.0
 40
1.1006502973902701
 50
180.0039857265763033
 51
269.9950186603643942
  0
ARC
  5
1BFFB
  8
0
 10
4650.8907729091515648
 20
511.2398932111540262
 30
0.0
 40
0.4265760483015
 50
173.3702125112770034
 51
177.7936635352365045
  0
ARC
  5
1BFFC
  8
0
 10
4653.8568551003781977
 20
518.0196382698568414
 30
0.0
 40
4.0020944482999594
 50
351.4170187144013084
 51
8.5829797890973527
  0
LINE
  5
1BFFD
  8
0
 10
4657.8141291096371788
 20
517.4223591150611128
 30
0.0
 11
4657.8114310724977258
 21
517.4185318893089516
 31
0.0
  0
ARC
  5
1BFFE
  8
0
 10
4657.7860856873721787
 20
517.3859611052421315
 30
0.0
 40
0.0200000308814202
 50
271.8285868489103905
 51
350.8433789821755227
  0
ARC
  5
1BFFF
  8
0
 10
4657.7658551003778484
 20
518.0196382187566542
 30
0.0
 40
0.6540000000000035
 50
88.171411933852724
 51
271.8285869140811997
  0
ARC
  5
1C000
  8
0
 10
4657.7658551003778484
 20
518.0196382187566542
 30
0.0
 40
0.6540000000000035
 50
277.4056016026668772
 51
82.5943993016407632
  0
ARC
  5
1C001
  8
0
 10
4657.7860856999659518
 20
518.6533153272214349
 30
0.0
 40
0.0200000355270307
 50
9.1565263326036845
 51
88.1714119992322907
  0
LINE
  5
1C002
  8
0
 10
4657.8058308808831498
 20
518.6564979757464471
 30
0.0
 11
4657.8114310881983329
 21
518.6207445471087567
 31
0.0
  0
LINE
  5
1C003
  8
0
 10
4657.8114310881983329
 20
518.6207445471087567
 30
0.0
 11
4657.8141291252368319
 21
518.6169173212930446
 31
0.0
  0
ARC
  5
1C004
  8
0
 10
4657.8475729654892348
 20
518.6483497477962601
 30
0.0
 40
0.0200000029766793
 50
82.5943990936537347
 51
188.9572573488775049
  0
ARC
  5
1C005
  8
0
 10
4653.8618551003637549
 20
518.0196382697548643
 30
0.0
 40
4.0150000000129928
 50
8.1376231738040659
 51
8.9640709691933207
  0
LINE
  5
1C006
  8
0
 10
4657.836427751130941
 20
518.5879667345334383
 30
0.0
 11
4657.8349452162829039
 21
518.5835229190952305
 31
0.0
  0
ARC
  5
1C007
  8
0
 10
4653.8618551003773973
 20
518.0196382697567969
 30
0.0
 40
4.0129055517000261
 50
351.9221884531975775
 51
8.0778100502003696
  0
LINE
  5
1C008
  8
0
 10
4657.8349452015536372
 20
517.4557535166387652
 30
0.0
 11
4657.836427736287078
 21
517.4513097011620175
 31
0.0
  0
ARC
  5
1C009
  8
0
 10
4653.8618551004383335
 20
518.0196382697478157
 30
0.0
 40
4.014999999938567
 50
351.0359195272901047
 51
351.8623753296031964
  0
ARC
  5
1C00A
  8
0
 10
4653.8568551003600078
 20
518.0196382698595698
 30
0.0
 40
4.0000000000178391
 50
350.838667285404199
 51
351.3570440137970081
  0
ARC
  5
1C00B
  8
0
 10
4657.8475729728461374
 20
517.3909267107959522
 30
0.0
 40
0.0200000229312173
 50
171.0444247628863934
 51
277.405601793364724
  0
ARC
  5
1C00C
  8
0
 10
4657.7658551003805769
 20
518.0196382187176596
 30
0.0
 40
0.6167961194607723
 50
274.0346370405022753
 51
275.9422025733667283
  0
ARC
  5
1C00D
  8
0
 10
4657.7658551003769389
 20
518.0196382187434665
 30
0.0
 40
0.6167961195132712
 50
84.0577959297494033
 51
85.9690932378742758
  0
CIRCLE
  5
1C00E
  8
0
 10
4657.7658551003778484
 20
518.0196382187566542
 30
0.0
 40
0.9399999999999977
  0
ARC
  5
1C00F
  8
0
 10
4657.0904440372023601
 20
518.7676086465427261
 30
0.0
 40
0.7439900966625186
 50
268.3133741917108068
 51
270.4167176728338973
  0
ARC
  5
1C010
  8
0
 10
4657.0967252075952274
 20
516.7048997876220255
 30
0.0
 40
1.310738728736293
 50
90.038034639478937
 51
91.2318706100487447
  0
LINE
  5
1C011
  8
0
 10
4657.0685462344672487
 20
518.0239408778669485
 30
0.0
 11
4657.0685462343553809
 21
518.0153355778838886
 31
0.0
  0
LINE
  5
1C012
  8
0
 10
4657.0958551004778201
 20
518.0236382275568303
 30
0.0
 11
4657.0958551003777757
 21
518.0156382275566784
 31
0.0
  0
LINE
  5
1C013
  8
0
 10
4657.0850329601780686
 20
518.023638227656761
 30
0.0
 11
4657.0850329600771147
 21
518.0155863658538919
 31
0.0
  0
ARC
  5
1C014
  8
0
 10
4656.9708213471576528
 20
518.638961394767648
 30
0.0
 40
0.7439900966625186
 50
278.3133741917346811
 51
280.4167176728651043
  0
ARC
  5
1C015
  8
0
 10
4657.3351927268677173
 20
516.6086804320881356
 30
0.0
 40
1.310738728736293
 50
100.0380346394377966
 51
101.2318706100251973
  0
LINE
  5
1C016
  8
0
 10
4657.0783927740712898
 20
517.9027890969706505
 30
0.0
 11
4657.0798870686212467
 21
517.8943145308107887
 31
0.0
  0
LINE
  5
1C017
  8
0
 10
4657.1053393117181258
 20
517.907233179415698
 30
0.0
 11
4657.1067284970422406
 21
517.8993547173741945
 31
0.0
  0
LINE
  5
1C018
  8
0
 10
4657.0946815840297859
 20
517.9053539345726449
 30
0.0
 11
4657.0960797750612983
 21
517.8974243986255033
 31
0.0
  0
ARC
  5
1C019
  8
0
 10
4656.875355355398824
 20
518.491496321682348
 30
0.0
 40
0.7439900966625186
 50
288.3133741917571911
 51
290.4167176728603863
  0
ARC
  5
1C01A
  8
0
 10
4657.5867457044359981
 20
516.5553323149230209
 30
0.0
 40
1.310738728736293
 50
110.0380346394713058
 51
111.2318706100421934
  0
LINE
  5
1C01B
  8
0
 10
4657.1091275085873349
 20
517.7851877175113486
 30
0.0
 11
4657.1120706944157064
 21
517.7771013805793245
 31
0.0
  0
LINE
  5
1C01C
  8
0
 10
4657.1348929609621337
 20
517.7942435015152114
 30
0.0
 11
4657.1376291220140047
 21
517.7867259605147865
 31
0.0
  0
LINE
  5
1C01D
  8
0
 10
4657.1247234755455793
 20
517.7905421116327034
 30
0.0
 11
4657.1274773743798505
 21
517.7829758364784993
 31
0.0
  0
ARC
  5
1C01E
  8
0
 10
4656.8069467477780563
 20
518.3296940789111886
 30
0.0
 40
0.7439900966625186
 50
298.3133741917175143
 51
300.4167176728374784
  0
ARC
  5
1C01F
  8
0
 10
4657.8437408303643679
 20
516.5464763916712627
 30
0.0
 40
1.310738728736293
 50
120.0380346394341018
 51
121.2318706100464993
  0
LINE
  5
1C020
  8
0
 10
4657.1598165786599566
 20
517.6747099978947517
 30
0.0
 11
4657.1641192285542274
 21
517.6672575894459669
 31
0.0
  0
LINE
  5
1C021
  8
0
 10
4657.1836180755290115
 20
517.6881023280428735
 30
0.0
 11
4657.1876180754416055
 21
517.6811741247627197
 31
0.0
  0
LINE
  5
1C022
  8
0
 10
4657.1742458270546194
 20
517.6826912579796272
 30
0.0
 11
4657.1782717578698794
 21
517.6757181410602016
 31
0.0
  0
ARC
  5
1C023
  8
0
 10
4656.7676740852193689
 20
518.1584709457251847
 30
0.0
 40
0.7439900966625186
 50
308.3133741917479256
 51
310.4167176728701065
  0
ARC
  5
1C024
  8
0
 10
4658.0983694377991924
 20
516.5823817450798288
 30
0.0
 40
1.310738728736293
 50
130.0380346394499043
 51
131.2318706100498105
  0
LINE
  5
1C025
  8
0
 10
4657.2289198225462314
 20
517.5747127477269487
 30
0.0
 11
4657.2344512026656957
 21
517.5681207054212791
 31
0.0
  0
LINE
  5
1C026
  8
0
 10
4657.2500341674704032
 20
517.5920347048446502
 30
0.0
 11
4657.2551764682712019
 21
517.585906349235529
 31
0.0
  0
LINE
  5
1C027
  8
0
 10
4657.2417439269656825
 20
517.5850783672261741
 30
0.0
 11
4657.2469195638914243
 21
517.5789102831705577
 31
0.0
  0
ARC
  5
1C028
  8
0
 10
4656.7587306477007587
 20
517.9830294503830146
 30
0.0
 40
0.7439900966625186
 50
318.313374191746675
 51
320.4167176728674917
  0
ARC
  5
1C029
  8
0
 10
4658.3428947653519572
 20
516.6619574091539562
 30
0.0
 40
1.310738728736293
 50
140.0380346394622961
 51
141.2318706100386976
  0
LINE
  5
1C02A
  8
0
 10
4657.3143375731442575
 20
517.4882343328531533
 30
0.0
 11
4657.3209296153054311
 21
517.4827029525604303
 31
0.0
  0
LINE
  5
1C02B
  8
0
 10
4657.3321232174394027
 20
517.5089595980389277
 30
0.0
 11
4657.3382515729190345
 21
517.5038172970848791
 31
0.0
  0
LINE
  5
1C02C
  8
0
 10
4657.3251668796656304
 20
517.5006693576638099
 30
0.0
 11
4657.3313349635918712
 21
517.4954937205848182
 31
0.0
  0
ARC
  5
1C02D
  8
0
 10
4656.7803881770478256
 20
517.808700293942934
 30
0.0
 40
0.7439900966625186
 50
328.3133741917325779
 51
330.416717672856123
  0
ARC
  5
1C02E
  8
0
 10
4658.5698870346823242
 20
516.782785517608545
 30
0.0
 40
1.310738728736293
 50
150.0380346394505011
 51
151.2318706100205077
  0
LINE
  5
1C02F
  8
0
 10
4657.413474455330288
 20
517.4179023561492841
 30
0.0
 11
4657.4209268636650449
 21
517.413599706060495
 31
0.0
  0
LINE
  5
1C030
  8
0
 10
4657.4273909911908049
 20
517.4414012027077661
 30
0.0
 11
4657.4343191943708007
 21
517.4374012026212313
 31
0.0
  0
LINE
  5
1C031
  8
0
 10
4657.4219799209549819
 20
517.4320289543347826
 30
0.0
 11
4657.428953037773681
 21
517.4280030233461503
 31
0.0
  0
ARC
  5
1C032
  8
0
 10
4656.8319886201898044
 20
517.6407803796084863
 30
0.0
 40
0.7439900966625185
 50
338.313374191726723
 51
340.4167176728440154
  0
ARC
  5
1C033
  8
0
 10
4658.7724492005463617
 20
516.9411947695095932
 30
0.0
 40
1.3107387287362919
 50
160.0380346394489095
 51
161.2318706100305121
  0
LINE
  5
1C034
  8
0
 10
4657.5233182451011089
 20
517.3658538191377829
 30
0.0
 11
4657.5314045819559396
 21
517.3629106330984087
 31
0.0
  0
LINE
  5
1C035
  8
0
 10
4657.5329428256309257
 20
517.3914122465073433
 30
0.0
 11
4657.5404603665638206
 21
517.3886760852667521
 31
0.0
  0
LINE
  5
1C036
  8
0
 10
4657.5292414355599249
 20
517.3812427611603653
 30
0.0
 11
4657.5368077106459168
 21
517.378488862138056
 31
0.0
  0
ARC
  5
1C037
  8
0
 10
4656.9119641237739415
 20
517.4843718690051446
 30
0.0
 40
0.7439900966625186
 50
348.3133741917324073
 51
350.4167176728544746
  0
ARC
  5
1C038
  8
0
 10
4658.9444265140391508
 20
517.1323719798974707
 30
0.0
 40
1.310738728736293
 50
170.0380346394505011
 51
171.2318706100352017
  0
LINE
  5
1C039
  8
0
 10
4657.6405313944906084
 20
517.333670190277644
 30
0.0
 11
4657.6490059606121577
 21
517.3321758955064524
 31
0.0
  0
LINE
  5
1C03A
  8
0
 10
4657.6455715816800875
 20
517.3605116185758561
 30
0.0
 11
4657.6534500436855524
 21
517.3591224330560863
 31
0.0
  0
LINE
  5
1C03B
  8
0
 10
4657.6436923366400151
 20
517.3498538909216222
 30
0.0
 11
4657.6516218725519138
 21
517.3484556996935453
 31
0.0
  0
ARC
  5
1C03C
  8
0
 10
4657.0178846725921176
 20
517.3442271555813932
 30
0.0
 40
0.7439900966625186
 50
358.3133741917342832
 51
0.4167176728501108
  0
ARC
  5
1C03D
  8
0
 10
4659.0805935315129318
 20
517.3505083259747153
 30
0.0
 40
1.310738728736293
 50
180.0380346394561002
 51
181.2318706100294889
  0
LINE
  5
1C03E
  8
0
 10
4657.7615524412667583
 20
517.3223293528463955
 30
0.0
 11
4657.7701577412508414
 21
517.3223293527338456
 31
0.0
  0
LINE
  5
1C03F
  8
0
 10
4657.7618550915767628
 20
517.3496382188568532
 30
0.0
 11
4657.7698550915783926
 21
517.3496382187566951
 31
0.0
  0
LINE
  5
1C040
  8
0
 10
4657.7618550914776279
 20
517.3388160785567607
 30
0.0
 11
4657.7699069532809517
 21
517.3388160784561478
 31
0.0
  0
ARC
  5
1C041
  8
0
 10
4657.146531924367082
 20
517.2246044655377091
 30
0.0
 40
0.7439900966625186
 50
8.3133741917365782
 51
10.4167176728511208
  0
ARC
  5
1C042
  8
0
 10
4659.1768128870462533
 20
517.588975845248001
 30
0.0
 40
1.310738728736293
 50
190.0380346394541959
 51
191.231870610025311
  0
LINE
  5
1C043
  8
0
 10
4657.882704222162829
 20
517.3321758924505502
 30
0.0
 11
4657.891178788322577
 21
517.3336701870000525
 31
0.0
  0
LINE
  5
1C044
  8
0
 10
4657.8782601397178951
 20
517.3591224300982958
 30
0.0
 11
4657.8861386017597397
 21
517.3605116154210464
 31
0.0
  0
LINE
  5
1C045
  8
0
 10
4657.8801393845624261
 20
517.3484647024093874
 30
0.0
 11
4657.8880689205088856
 21
517.3498628934391945
 31
0.0
  0
ARC
  5
1C046
  8
0
 10
4657.2939969974513588
 20
517.1291384737791077
 30
0.0
 40
0.7439900966625186
 50
18.3133741917253303
 51
20.4167176728591997
  0
ARC
  5
1C047
  8
0
 10
4659.230161004211368
 20
517.8405288228145764
 30
0.0
 40
1.310738728736293
 50
200.0380346394549065
 51
201.2318706100253962
  0
LINE
  5
1C048
  8
0
 10
4658.0003056016230403
 20
517.3629106269665954
 30
0.0
 11
4658.0083919385551781
 21
517.3658538127945121
 31
0.0
  0
LINE
  5
1C049
  8
0
 10
4657.9912498176190638
 20
517.3886760793410531
 30
0.0
 11
4657.9987673586201709
 21
517.3914122403938336
 31
0.0
  0
LINE
  5
1C04A
  8
0
 10
4657.9949512075008897
 20
517.3785065939258629
 30
0.0
 11
4658.0025174826560033
 21
517.3812604927592247
 31
0.0
  0
ARC
  5
1C04B
  8
0
 10
4657.455799240223314
 20
517.060729866156862
 30
0.0
 40
0.7439900966625185
 50
28.3133741917239199
 51
30.4167176728383488
  0
ARC
  5
1C04C
  8
0
 10
4659.2390169274631262
 20
518.0975239487431736
 30
0.0
 40
1.3107387287362919
 50
210.0380346394441062
 51
211.2318706100230941
  0
LINE
  5
1C04D
  8
0
 10
4658.1107833212399782
 20
517.4135996970393307
 30
0.0
 11
4658.118235729688422
 21
517.4179023469332606
 31
0.0
  0
LINE
  5
1C04E
  8
0
 10
4658.0973909910908333
 20
517.4374011939078173
 30
0.0
 11
4658.1043191943717829
 21
517.4414011938210933
 31
0.0
  0
LINE
  5
1C04F
  8
0
 10
4658.1028020611538523
 20
517.4280289454347894
 30
0.0
 11
4658.1097751780753242
 21
517.4320548762490262
 31
0.0
  0
ARC
  5
1C050
  8
0
 10
4657.6270223734090905
 20
517.0214572035973788
 30
0.0
 40
0.7439900966625185
 50
38.3133741917426605
 51
40.4167176728400577
  0
ARC
  5
1C051
  8
0
 10
4659.2031115740537643
 20
518.3521525561784529
 30
0.0
 40
1.3107387287362919
 50
220.0380346394591982
 51
221.2318706100238046
  0
LINE
  5
1C052
  8
0
 10
4658.2107805714067581
 20
517.4827029409239003
 30
0.0
 11
4658.2173726137134508
 21
517.4882343210443878
 31
0.0
  0
LINE
  5
1C053
  8
0
 10
4658.1934586142897388
 20
517.5038172858484131
 30
0.0
 11
4658.1995869698994284
 21
517.5089595866493255
 31
0.0
  0
LINE
  5
1C054
  8
0
 10
4658.2004149519079874
 20
517.4955270453446019
 30
0.0
 11
4658.2065830359651954
 21
517.5007026822694343
 31
0.0
  0
ARC
  5
1C055
  8
0
 10
4657.8024638687520564
 20
517.0125137660796781
 30
0.0
 40
0.7439900966625186
 50
48.313374191750782
 51
50.4167176728483923
  0
ARC
  5
1C056
  8
0
 10
4659.1235359099800917
 20
518.5966778837313313
 30
0.0
 40
1.310738728736293
 50
230.0380346394460958
 51
231.2318706100207919
  0
LINE
  5
1C057
  8
0
 10
4658.2972589862811219
 20
517.5681206915230632
 30
0.0
 11
4658.3027903665742997
 21
517.5747127336840094
 31
0.0
  0
LINE
  5
1C058
  8
0
 10
4658.2765337210948928
 20
517.5859063358172989
 30
0.0
 11
4658.2816760220493961
 21
517.5920346912979539
 31
0.0
  0
LINE
  5
1C059
  8
0
 10
4658.2848239614695558
 20
517.5789499980456867
 30
0.0
 11
4658.2899995985499118
 21
517.5851180819718138
 31
0.0
  0
ARC
  5
1C05A
  8
0
 10
4657.9767930251910002
 20
517.0341712954268587
 30
0.0
 40
0.7439900966625185
 50
58.3133741917436694
 51
60.416717672864273
  0
ARC
  5
1C05B
  8
0
 10
4659.0027078015264124
 20
518.8236701530602204
 30
0.0
 40
1.3107387287362919
 50
240.0380346394441062
 51
241.2318706100128054
  0
LINE
  5
1C05C
  8
0
 10
4658.3675909629846501
 20
517.6672575737084117
 30
0.0
 11
4658.3718936130735528
 21
517.6747099820446465
 31
0.0
  0
LINE
  5
1C05D
  8
0
 10
4658.3440921164255997
 20
517.6811741095706338
 30
0.0
 11
4658.3480921165137261
 21
517.688102312750857
 31
0.0
  0
LINE
  5
1C05E
  8
0
 10
4658.3534643647990379
 20
517.675763039334015
 30
0.0
 11
4658.3574902957889208
 21
517.6827361561528278
 31
0.0
  0
ARC
  5
1C05F
  8
0
 10
4658.1447129395273805
 20
517.0857717385691785
 30
0.0
 40
0.7439900966625185
 50
68.3133741917145727
 51
70.4167176728689412
  0
ARC
  5
1C060
  8
0
 10
4658.8442985496249094
 20
519.02623231892494
 30
0.0
 40
1.3107387287362919
 50
250.038034639433306
 51
251.2318706100386976
  0
LINE
  5
1C061
  8
0
 10
4658.4196394999971744
 20
517.7771013634802557
 30
0.0
 11
4658.4225826860365487
 21
517.7851877003355412
 31
0.0
  0
LINE
  5
1C062
  8
0
 10
4658.3940810726280688
 20
517.7867259440104135
 30
0.0
 11
4658.3968172338682052
 21
517.7942434849425126
 31
0.0
  0
LINE
  5
1C063
  8
0
 10
4658.4042505579736826
 20
517.7830245539397538
 30
0.0
 11
4658.4070044569962192
 21
517.7905908290251773
 31
0.0
  0
ARC
  5
1C064
  8
0
 10
4658.301121450129358
 20
517.1657472421527473
 30
0.0
 40
0.7439900966625186
 50
78.3133741917317252
 51
80.4167176728491455
  0
ARC
  5
1C065
  8
0
 10
4658.6531213392372592
 20
519.1982096324172744
 30
0.0
 40
1.310738728736293
 50
260.0380346394640014
 51
261.2318706100317058
  0
LINE
  5
1C066
  8
0
 10
4658.4518231288557217
 20
517.8943145128703236
 30
0.0
 11
4658.4533174236266859
 21
517.9027890789908497
 31
0.0
  0
LINE
  5
1C067
  8
0
 10
4658.4249817005584191
 20
517.8993547000588933
 30
0.0
 11
4658.4263708860780753
 21
517.9072331620657224
 31
0.0
  0
LINE
  5
1C068
  8
0
 10
4658.4356394282131077
 20
517.8974754550189346
 30
0.0
 11
4658.437037619441071
 21
517.9054049909311743
 31
0.0
  0
ARC
  5
1C069
  8
0
 10
4658.4412661635533368
 20
517.2716677909709233
 30
0.0
 40
0.7439900966625186
 50
88.3133741917108352
 51
90.4167176728339541
  0
ARC
  5
1C06A
  8
0
 10
4658.4349849931586505
 20
519.3343766498916239
 30
0.0
 40
1.310738728736293
 50
270.0380346394790081
 51
271.2318706100488157
  0
LINE
  5
1C06B
  8
0
 10
4658.4631639662884481
 20
518.0153355596465872
 30
0.0
 11
4658.463163966400316
 21
518.0239408596296471
 31
0.0
  0
LINE
  5
1C06C
  8
0
 10
4658.4358551002778768
 20
518.0156382099568191
 30
0.0
 11
4658.4358551003770117
 21
518.0236382099567436
 31
0.0
  0
LINE
  5
1C06D
  8
0
 10
4658.4466772405767188
 20
518.0156382098567747
 30
0.0
 11
4658.4466772406776727
 21
518.0236900716597575
 31
0.0
  0
ARC
  5
1C06E
  8
0
 10
4658.5608888535971346
 20
517.400315042745774
 30
0.0
 40
0.7439900966625186
 50
98.3133741917346953
 51
100.4167176728651043
  0
ARC
  5
1C06F
  8
0
 10
4658.1965174738870701
 20
519.4305960054255138
 30
0.0
 40
1.310738728736293
 50
280.0380346394377966
 51
281.2318706100252825
  0
LINE
  5
1C070
  8
0
 10
4658.4533174266844071
 20
518.1364873405428852
 30
0.0
 11
4658.4518231321353596
 21
518.144961906702747
 31
0.0
  0
LINE
  5
1C071
  8
0
 10
4658.4263708890366615
 20
518.1320432580979514
 30
0.0
 11
4658.4249817037125467
 21
518.1399217201394549
 31
0.0
  0
LINE
  5
1C072
  8
0
 10
4658.4370286167250015
 20
518.1339225029410045
 30
0.0
 11
4658.4356304256953081
 21
518.1418520388881461
 31
0.0
  0
ARC
  5
1C073
  8
0
 10
4658.6563548453559633
 20
517.5477801158311877
 30
0.0
 40
0.7439900966625186
 50
108.3133741917572053
 51
110.4167176728604005
  0
ARC
  5
1C074
  8
0
 10
4657.9449644963187893
 20
519.4839441225906285
 30
0.0
 40
1.310738728736293
 50
290.0380346394712774
 51
291.2318706100422787
  0
LINE
  5
1C075
  8
0
 10
4658.4225826921674525
 20
518.2540887200021871
 30
0.0
 11
4658.4196395063399905
 21
518.2621750569343249
 31
0.0
  0
LINE
  5
1C076
  8
0
 10
4658.3968172397926537
 20
518.2450329359983243
 30
0.0
 11
4658.3940810787407827
 21
518.2525504769987492
 31
0.0
  0
LINE
  5
1C077
  8
0
 10
4658.4069867252082986
 20
518.248734325880946
 30
0.0
 11
4658.4042328263749368
 21
518.2563006010351501
 31
0.0
  0
ARC
  5
1C078
  8
0
 10
4658.7247634529767311
 20
517.7095823586023471
 30
0.0
 40
0.7439900966625186
 50
118.3133741917175001
 51
120.4167176728375068
  0
ARC
  5
1C079
  8
0
 10
4657.6879693703922385
 20
519.4928000458421593
 30
0.0
 40
1.310738728736293
 50
300.0380346394341018
 51
301.2318706100465988
  0
LINE
  5
1C07A
  8
0
 10
4658.3718936220957403
 20
518.364566439618784
 30
0.0
 11
4658.3675909722005599
 21
518.3720188480674551
 31
0.0
  0
LINE
  5
1C07B
  8
0
 10
4658.3480921252257758
 20
518.3511741094705485
 30
0.0
 11
4658.3440921253140914
 21
518.3581023127509297
 31
0.0
  0
LINE
  5
1C07C
  8
0
 10
4658.3574643737001679
 20
518.3565851795340222
 30
0.0
 11
4658.3534384428858175
 21
518.3635582964534478
 31
0.0
  0
ARC
  5
1C07D
  8
0
 10
4658.7640361155372375
 20
517.880805491788351
 30
0.0
 40
0.7439900966625186
 50
128.3133741917478972
 51
130.4167176728701065
  0
ARC
  5
1C07E
  8
0
 10
4657.433340762955595
 20
519.4568946924338206
 30
0.0
 40
1.310738728736293
 50
310.0380346394500179
 51
311.2318706100498957
  0
LINE
  5
1C07F
  8
0
 10
4658.3027903782103749
 20
518.4645636897864733
 30
0.0
 11
4658.2972589980890916
 21
518.4711557320922566
 31
0.0
  0
LINE
  5
1C080
  8
0
 10
4658.2816760332852937
 20
518.4472417326688856
 30
0.0
 11
4658.2765337324854045
 21
518.4533700882781204
 31
0.0
  0
LINE
  5
1C081
  8
0
 10
4658.2899662737900144
 20
518.4541980702872479
 30
0.0
 11
4658.284790636865182
 21
518.4603661543428643
 31
0.0
  0
ARC
  5
1C082
  8
0
 10
4658.7729795530549382
 20
518.0562469871306348
 30
0.0
 40
0.7439900966625186
 50
138.3133741917467034
 51
140.4167176728674917
  0
ARC
  5
1C083
  8
0
 10
4657.1888154354028302
 20
519.3773190283595795
 30
0.0
 40
1.310738728736293
 50
320.0380346394624098
 51
321.2318706100385839
  0
LINE
  5
1C084
  8
0
 10
4658.2173726276114394
 20
518.5510421046602687
 30
0.0
 11
4658.2107805854502658
 21
518.5565734849531054
 31
0.0
  0
LINE
  5
1C085
  8
0
 10
4658.1995869833172037
 20
518.5303168394746081
 30
0.0
 11
4658.1934586278357528
 21
518.5354591404286566
 31
0.0
  0
LINE
  5
1C086
  8
0
 10
4658.206543321089157
 20
518.5386070798498395
 30
0.0
 11
4658.2003752371629162
 21
518.5437827169287175
 31
0.0
  0
ARC
  5
1C087
  8
0
 10
4658.7513220237069618
 20
518.2305761435706017
 30
0.0
 40
0.7439900966625186
 50
148.3133741917326063
 51
150.4167176728562083
  0
ARC
  5
1C088
  8
0
 10
4656.9618231660733727
 20
519.2564909199051044
 30
0.0
 40
1.310738728736293
 50
330.0380346394504727
 51
331.2318706100206214
  0
LINE
  5
1C089
  8
0
 10
4658.1182357454263183
 20
518.6213740813642517
 30
0.0
 11
4658.1107833370897424
 21
518.6256767314531544
 31
0.0
  0
LINE
  5
1C08A
  8
0
 10
4658.1043192095639824
 20
518.5978752348057697
 30
0.0
 11
4658.0973910063839867
 21
518.6018752348924181
 31
0.0
  0
LINE
  5
1C08B
  8
0
 10
4658.1097302797998054
 20
518.6072474831787531
 30
0.0
 11
4658.1027571629811064
 21
518.6112734141674991
 31
0.0
  0
ARC
  5
1C08C
  8
0
 10
4658.699721580564983
 20
518.3984960579050494
 30
0.0
 40
0.7439900966625186
 50
158.3133741917266946
 51
160.416717672843987
  0
ARC
  5
1C08D
  8
0
 10
4656.7592610002093352
 20
519.0980816680039425
 30
0.0
 40
1.310738728736293
 50
340.0380346394458115
 51
341.2318706100305121
  0
LINE
  5
1C08E
  8
0
 10
4658.0083919556545879
 20
518.6734226183757528
 30
0.0
 11
4658.0003056187988477
 21
518.6763658044151271
 31
0.0
  0
LINE
  5
1C08F
  8
0
 10
4657.9987673751238617
 20
518.6478641910063061
 30
0.0
 11
4657.9912498341918763
 21
518.6506003522468973
 31
0.0
  0
LINE
  5
1C090
  8
0
 10
4658.0024687651948625
 20
518.6580336763530568
 30
0.0
 11
4657.9949024901088706
 21
518.6607875753755934
 31
0.0
  0
ARC
  5
1C091
  8
0
 10
4658.6197460769817553
 20
518.5549045685083911
 30
0.0
 40
0.7439900966625186
 50
168.3133741917322936
 51
170.416717672854503
  0
ARC
  5
1C092
  8
0
 10
4656.5872836867165461
 20
518.9069044576161787
 30
0.0
 40
1.310738728736293
 50
350.0380346394504727
 51
351.2318706100351733
  0
LINE
  5
1C093
  8
0
 10
4657.891178806264179
 20
518.705606247235778
 30
0.0
 11
4657.8827042401426297
 21
518.7071005420069696
 31
0.0
  0
LINE
  5
1C094
  8
0
 10
4657.8861386190746998
 20
518.6787648189377933
 30
0.0
 11
4657.878260157069235
 21
518.6801540044575631
 31
0.0
  0
LINE
  5
1C095
  8
0
 10
4657.8880178641156817
 20
518.6894225465920272
 30
0.0
 11
4657.8800883282028735
 21
518.6908207378198767
 31
0.0
  0
ARC
  5
1C096
  8
0
 10
4658.5138255281626698
 20
518.6950492819321425
 30
0.0
 40
0.7439900966625186
 50
178.3133741917343116
 51
180.4167176728500976
  0
ARC
  5
1C097
  8
0
 10
4656.4511166692418556
 20
518.6887681115389341
 30
0.0
 40
1.310738728736293
 50
0.0380346394561432
 51
1.2318706100294929
  0
LINE
  5
1C098
  8
0
 10
4657.7701577594880291
 20
518.7169470846671402
 30
0.0
 11
4657.761552459503946
 21
518.7169470847796902
 31
0.0
  0
LINE
  5
1C099
  8
0
 10
4657.7698551091780246
 20
518.6896382186566825
 30
0.0
 11
4657.7618551091773043
 21
518.6896382187568406
 31
0.0
  0
LINE
  5
1C09A
  8
0
 10
4657.769855109278069
 20
518.7004603589566614
 30
0.0
 11
4657.7618032474738357
 21
518.7004603590573879
 31
0.0
  0
ARC
  5
1C09B
  8
0
 10
4658.3851782763886149
 20
518.8146719719759403
 30
0.0
 40
0.7439900966625186
 50
188.3133741917366137
 51
190.4167176728510924
  0
ARC
  5
1C09C
  8
0
 10
4656.3548973137094436
 20
518.4503005922656484
 30
0.0
 40
1.310738728736293
 50
10.0380346394542208
 51
11.2318706100252896
  0
LINE
  5
1C09D
  8
0
 10
4657.6490059785910489
 20
518.7071005450630992
 30
0.0
 11
4657.6405314124322103
 21
518.7056062505135969
 31
0.0
  0
LINE
  5
1C09E
  8
0
 10
4657.6534500610368923
 20
518.6801540074152399
 30
0.0
 11
4657.6455715989950477
 21
518.678764822092262
 31
0.0
  0
LINE
  5
1C09F
  8
0
 10
4657.6515708161932707
 20
518.6908117351041483
 30
0.0
 11
4657.6436412802468112
 21
518.6894135440744549
 31
0.0
  0
ARC
  5
1C0A0
  8
0
 10
4658.2377132033043381
 20
518.9101379637345417
 30
0.0
 40
0.7439900966625186
 50
198.3133741917253019
 51
200.4167176728591926
  0
ARC
  5
1C0A1
  8
0
 10
4656.3015491965443289
 20
518.1987476146988456
 30
0.0
 40
1.310738728736293
 50
20.03803463945491
 51
21.2318706100253891
  0
LINE
  5
1C0A2
  8
0
 10
4657.5314045991317471
 20
518.6763658105468267
 30
0.0
 11
4657.5233182621996093
 21
518.6734226247190236
 31
0.0
  0
LINE
  5
1C0A3
  8
0
 10
4657.5404603831357235
 20
518.6506003581723689
 30
0.0
 11
4657.5329428421346165
 21
518.6478641971198158
 31
0.0
  0
LINE
  5
1C0A4
  8
0
 10
4657.5367589932538976
 20
518.6607698435875591
 30
0.0
 11
4657.5291927180996936
 21
518.6580159447544247
 31
0.0
  0
ARC
  5
1C0A5
  8
0
 10
4658.0759109605323829
 20
518.97854657135656
 30
0.0
 40
0.7439900966625186
 50
208.3133741917239092
 51
210.4167176728383026
  0
ARC
  5
1C0A6
  8
0
 10
4656.2926932732916612
 20
517.9417524887702484
 30
0.0
 40
1.310738728736293
 50
30.0380346394469413
 51
31.2318706100231012
  0
LINE
  5
1C0A7
  8
0
 10
4657.4209268795157186
 20
518.6256767404743186
 30
0.0
 11
4657.4134744710672749
 21
518.6213740905801615
 31
0.0
  0
LINE
  5
1C0A8
  8
0
 10
4657.4343192096639541
 20
518.6018752436058321
 30
0.0
 11
4657.4273910063830044
 21
518.5978752436924424
 31
0.0
  0
LINE
  5
1C0A9
  8
0
 10
4657.4289081396009351
 20
518.6112474920787463
 30
0.0
 11
4657.4219350226812821
 21
518.6072215612646232
 31
0.0
  0
ARC
  5
1C0AA
  8
0
 10
4657.9046878273456969
 20
519.0178192339160432
 30
0.0
 40
0.7439900966625186
 50
218.3133741917426107
 51
220.4167176728400932
  0
ARC
  5
1C0AB
  8
0
 10
4656.328598626701023
 20
517.6871238813351965
 30
0.0
 40
1.310738728736293
 50
40.0380346394591484
 51
41.2318706100238401
  0
LINE
  5
1C0AC
  8
0
 10
4657.3209296293480293
 20
518.5565734965897491
 30
0.0
 11
4657.314337587042246
 21
518.5510421164691479
 31
0.0
  0
LINE
  5
1C0AD
  8
0
 10
4657.3382515864650486
 20
518.5354591516652363
 30
0.0
 11
4657.3321232308562685
 21
518.5303168508643239
 31
0.0
  0
LINE
  5
1C0AE
  8
0
 10
4657.3312952488468
 20
518.5437493921689338
 30
0.0
 11
4657.3251271647914109
 21
518.5385737552442151
 31
0.0
  0
ARC
  5
1C0AF
  8
0
 10
4657.7292463320027309
 20
519.0267626714337439
 30
0.0
 40
0.7439900966625186
 50
228.3133741917507962
 51
230.4167176728483071
  0
ARC
  5
1C0B0
  8
0
 10
4656.4081742907737862
 20
517.442598553782318
 30
0.0
 40
1.310738728736293
 50
50.0380346394461029
 51
51.2318706100228809
  0
LINE
  5
1C0B1
  8
0
 10
4657.2344512144736655
 20
518.4711557459903588
 30
0.0
 11
4657.2289198341813972
 21
518.4645637038295263
 31
0.0
  0
LINE
  5
1C0B2
  8
0
 10
4657.2551764796598945
 20
518.4533701016962368
 30
0.0
 11
4657.2500341787063007
 21
518.4472417462154681
 31
0.0
  0
LINE
  5
1C0B3
  8
0
 10
4657.2468862392852316
 20
518.460326439467849
 30
0.0
 11
4657.2417106022057851
 21
518.4541583555417219
 31
0.0
  0
ARC
  5
1C0B4
  8
0
 10
4657.5549171755637872
 20
519.005105142086677
 30
0.0
 40
0.7439900966625185
 50
238.3133741917436907
 51
240.4167176728641948
  0
ARC
  5
1C0B5
  8
0
 10
4656.529002399230194
 20
517.215606284453429
 30
0.0
 40
1.3107387287362919
 50
60.0380346394440991
 51
61.2318706100128196
  0
LINE
  5
1C0B6
  8
0
 10
4657.1641192377701373
 20
518.3720188638051241
 30
0.0
 11
4657.1598165876812345
 21
518.3645664554688892
 31
0.0
  0
LINE
  5
1C0B7
  8
0
 10
4657.1876180843291877
 20
518.3581023279430156
 30
0.0
 11
4657.1836180842419708
 21
518.3511741247626787
 31
0.0
  0
LINE
  5
1C0B8
  8
0
 10
4657.1782458359557495
 20
518.3635133981796344
 30
0.0
 11
4657.1742199049658666
 21
518.3565402813608216
 31
0.0
  0
ARC
  5
1C0B9
  8
0
 10
4657.3869972612292258
 20
518.9535046989442435
 30
0.0
 40
0.7439900966625185
 50
248.3133741917145016
 51
250.4167176728689128
  0
ARC
  5
1C0BA
  8
0
 10
4656.687411651129878
 20
517.0130441185887094
 30
0.0
 40
1.3107387287362919
 50
70.0380346394332918
 51
71.231870610038726
  0
LINE
  5
1C0BB
  8
0
 10
4657.1120707007576129
 20
518.26217507403328
 30
0.0
 11
4657.1091275147182387
 21
518.2540887371779945
 31
0.0
  0
LINE
  5
1C0BC
  8
0
 10
4657.1376291281276281
 20
518.2525504935032359
 30
0.0
 11
4657.1348929668884011
 21
518.2450329525711368
 31
0.0
  0
LINE
  5
1C0BD
  8
0
 10
4657.1274596427811048
 20
518.2562518835735546
 30
0.0
 11
4657.1247057437585681
 21
518.2486856084882447
 31
0.0
  0
ARC
  5
1C0BE
  8
0
 10
4657.2305887506272484
 20
518.8735291953607884
 30
0.0
 40
0.7439900966625185
 50
258.3133741917317252
 51
260.4167176728490745
  0
ARC
  5
1C0BF
  8
0
 10
4656.8785888615193471
 20
516.8410668050961476
 30
0.0
 40
1.3107387287362919
 50
80.0380346394640867
 51
81.2318706100317058
  0
LINE
  5
1C0C0
  8
0
 10
4657.0798870718990656
 20
518.1449619246433258
 30
0.0
 11
4657.0783927771271919
 21
518.1364873585225723
 31
0.0
  0
LINE
  5
1C0C1
  8
0
 10
4657.1067285001972778
 20
518.1399217374546424
 30
0.0
 11
4657.1053393146767121
 21
518.132043275447927
 31
0.0
  0
LINE
  5
1C0C2
  8
0
 10
4657.0960707725416796
 20
518.1418009824946012
 30
0.0
 11
4657.0946725813137164
 21
518.1338714465823614
 31
0.0
  0
ARC
  5
1C0C3
  8
0
 10
4657.7658551003778484
 20
518.0196382187566542
 30
0.0
 40
0.6864999999999998
 50
180.3434128214476004
 51
189.6609142403746944
  0
ARC
  5
1C0C4
  8
0
 10
4657.7658551003778484
 20
518.0196382187566542
 30
0.0
 40
0.6864999999999999
 50
190.3434128214489931
 51
199.6609142403760018
  0
ARC
  5
1C0C5
  8
0
 10
4657.7658551003778484
 20
518.0196382187566542
 30
0.0
 40
0.6864999999999998
 50
200.3434128214489078
 51
209.6609142403856936
  0
ARC
  5
1C0C6
  8
0
 10
4657.7658551003778484
 20
518.0196382187566542
 30
0.0
 40
0.6864999999999998
 50
210.3434128214427972
 51
219.6609142403684132
  0
ARC
  5
1C0C7
  8
0
 10
4657.7658551003778484
 20
518.0196382187566542
 30
0.0
 40
0.6864999999999998
 50
220.3434128214620102
 51
229.6609142403748933
  0
ARC
  5
1C0C8
  8
0
 10
4657.7658551003778484
 20
518.0196382187566542
 30
0.0
 40
0.6864999999999998
 50
230.3434128214657051
 51
239.6609142403891894
  0
ARC
  5
1C0C9
  8
0
 10
4657.7658551003778484
 20
518.0196382187566542
 30
0.0
 40
0.6864999999999999
 50
240.343412821458486
 51
249.660914240352497
  0
ARC
  5
1C0CA
  8
0
 10
4657.7658551003778484
 20
518.0196382187566542
 30
0.0
 40
0.6864999999999999
 50
250.343412821445412
 51
259.6609142403844999
  0
ARC
  5
1C0CB
  8
0
 10
4657.7658551003778484
 20
518.0196382187566542
 30
0.0
 40
0.6864999999999999
 50
260.3434128214437919
 51
269.6609142403854094
  0
ARC
  5
1C0CC
  8
0
 10
4657.7658551003778484
 20
518.0196382187566542
 30
0.0
 40
0.6864999999999999
 50
270.3434128214410066
 51
279.6609142403966075
  0
ARC
  5
1C0CD
  8
0
 10
4657.7658551003778484
 20
518.0196382187566542
 30
0.0
 40
0.6864999999999999
 50
280.3434128214586281
 51
289.6609142403688111
  0
ARC
  5
1C0CE
  8
0
 10
4657.7658551003778484
 20
518.0196382187568815
 30
0.0
 40
0.6865000000000001
 50
290.3434128214263978
 51
299.6609142403546002
  0
ARC
  5
1C0CF
  8
0
 10
4657.7658551003778484
 20
518.0196382187566542
 30
0.0
 40
0.6864999999999999
 50
300.3434128214506131
 51
309.6609142403946748
  0
ARC
  5
1C0D0
  8
0
 10
4657.7658551003778484
 20
518.0196382187566542
 30
0.0
 40
0.6865000000000001
 50
310.3434128214447014
 51
319.6609142403794976
  0
ARC
  5
1C0D1
  8
0
 10
4657.7658551003778484
 20
518.0196382187566542
 30
0.0
 40
0.6865000000000002
 50
320.3434128214440193
 51
329.6609142403685269
  0
ARC
  5
1C0D2
  8
0
 10
4657.7658551003778484
 20
518.0196382187566542
 30
0.0
 40
0.6865000000000002
 50
330.3434128214499879
 51
339.6609142403701185
  0
ARC
  5
1C0D3
  8
0
 10
4657.7658551003778484
 20
518.0196382187568815
 30
0.0
 40
0.6865000000000002
 50
340.3434128214441898
 51
349.6609142403736996
  0
ARC
  5
1C0D4
  8
0
 10
4657.7658551003778484
 20
518.0196382187568815
 30
0.0
 40
0.6865000000000002
 50
350.343412821448112
 51
359.6609142403755754
  0
ARC
  5
1C0D5
  8
0
 10
4657.7658551003778484
 20
518.0196382187568815
 30
0.0
 40
0.6865000000000004
 50
0.3434128214475991
 51
9.6609142403747512
  0
ARC
  5
1C0D6
  8
0
 10
4657.7658551003778484
 20
518.0196382187568815
 30
0.0
 40
0.6865000000000004
 50
10.3434128214489593
 51
19.6609142403760586
  0
ARC
  5
1C0D7
  8
0
 10
4657.7658551003778484
 20
518.0196382187568815
 30
0.0
 40
0.6865000000000006
 50
20.3434128214489185
 51
29.6609142403857113
  0
ARC
  5
1C0D8
  8
0
 10
4657.7658551003778484
 20
518.0196382187568815
 30
0.0
 40
0.6865000000000006
 50
30.3434128214428611
 51
39.6609142403684274
  0
ARC
  5
1C0D9
  8
0
 10
4657.7658551003778484
 20
518.0196382187568815
 30
0.0
 40
0.6865000000000006
 50
40.3434128214619818
 51
49.6609142403728328
  0
ARC
  5
1C0DA
  8
0
 10
4657.7658551003778484
 20
518.0196382187566542
 30
0.0
 40
0.6865000000000006
 50
50.3434128214657406
 51
59.6609142403891823
  0
ARC
  5
1C0DB
  8
0
 10
4657.7658551003778484
 20
518.0196382187566542
 30
0.0
 40
0.6865000000000006
 50
60.343412821456873
 51
69.660914240352497
  0
ARC
  5
1C0DC
  8
0
 10
4657.7658551003778484
 20
518.0196382187568815
 30
0.0
 40
0.6865000000000006
 50
70.3434128214454546
 51
79.6609142403845141
  0
ARC
  5
1C0DD
  8
0
 10
4657.7658551003778484
 20
518.0196382187566542
 30
0.0
 40
0.6865000000000006
 50
80.3434128214438203
 51
89.6609142403853667
  0
ARC
  5
1C0DE
  8
0
 10
4657.7658551003778484
 20
518.0196382187566542
 30
0.0
 40
0.6865000000000007
 50
90.343412821441035
 51
99.6609142403966644
  0
ARC
  5
1C0DF
  8
0
 10
4657.7658551003778484
 20
518.0196382187566542
 30
0.0
 40
0.6865000000000007
 50
100.3434128214585002
 51
109.6609142403687969
  0
ARC
  5
1C0E0
  8
0
 10
4657.7658551003778484
 20
518.0196382187566542
 30
0.0
 40
0.6865000000000007
 50
110.3434128214263978
 51
119.6609142403546002
  0
ARC
  5
1C0E1
  8
0
 10
4657.7658551003778484
 20
518.0196382187566542
 30
0.0
 40
0.6865000000000009
 50
120.3434128214505989
 51
129.6609142403947033
  0
ARC
  5
1C0E2
  8
0
 10
4657.7658551003778484
 20
518.0196382187566542
 30
0.0
 40
0.6865000000000009
 50
130.3434128214447014
 51
139.6609142403794976
  0
ARC
  5
1C0E3
  8
0
 10
4657.7658551003778484
 20
518.0196382187566542
 30
0.0
 40
0.6865000000000009
 50
140.3434128214439909
 51
149.6609142403684984
  0
ARC
  5
1C0E4
  8
0
 10
4657.7658551003778484
 20
518.0196382187566542
 30
0.0
 40
0.6865000000000007
 50
150.3434128214499879
 51
159.6609142403671058
  0
ARC
  5
1C0E5
  8
0
 10
4657.7658551003778484
 20
518.0196382187566542
 30
0.0
 40
0.6865000000000007
 50
160.3434128214441046
 51
169.6609142403736996
  0
ARC
  5
1C0E6
  8
0
 10
4657.7658551003778484
 20
518.0196382187566542
 30
0.0
 40
0.6865000000000009
 50
170.343412821448112
 51
179.6609142403756891
  0
ARC
  5
1C0E7
  8
0
 10
4657.7658551003778484
 20
518.0196382187566542
 30
0.0
 40
0.2500000000000009
 50
65.8152774125300226
 51
69.8283076733273873
  0
ARC
  5
1C0E8
  8
0
 10
4657.7658551003778484
 20
518.0196382187566542
 30
0.0
 40
0.2500000000000009
 50
290.1716908286513217
 51
294.1847210904816166
  0
ARC
  5
1C0E9
  8
0
 10
4657.7658551003778484
 20
518.0196382187566542
 30
0.0
 40
0.1775000000000009
 50
53.1747001859074118
 51
59.4681626335054005
  0
ARC
  5
1C0EA
  8
0
 10
4657.7658551003778484
 20
518.0196382187566542
 30
0.0
 40
0.1775000000000009
 50
300.5318358684962163
 51
306.825298317122872
  0
ARC
  5
1C0EB
  8
0
 10
4657.7658551003778484
 20
518.0196382187566542
 30
0.0
 40
0.2478181169000013
 50
65.5532014280649236
 51
69.6086121267807982
  0
ARC
  5
1C0EC
  8
0
 10
4657.7658551003778484
 20
518.0196382187566542
 30
0.0
 40
0.2478181169000013
 50
290.3913863752368911
 51
294.4467970749902861
  0
ARC
  5
1C0ED
  8
0
 10
4657.7658551003778484
 20
518.0196382187566542
 30
0.0
 40
0.2221818830999983
 50
62.0601040921445488
 51
66.6983995872675592
  0
ARC
  5
1C0EE
  8
0
 10
4657.7658551003778484
 20
518.0196382187566542
 30
0.0
 40
0.2221818830999983
 50
293.301598914784222
 51
297.9398944109121885
  0
ARC
  5
1C0EF
  8
0
 10
4657.7658551003778484
 20
518.0196382187566542
 30
0.0
 40
0.2199999999999978
 50
61.7217718669686803
 51
66.4183687708855359
  0
ARC
  5
1C0F0
  8
0
 10
4657.7658551003778484
 20
518.0196382187566542
 30
0.0
 40
0.2199999999999978
 50
293.5816297311241101
 51
298.2782266360457015
  0
ARC
  5
1C0F1
  8
0
 10
4652.8277109173768622
 20
511.4008244406099948
 30
0.0
 40
0.0398191691609895
 50
12.8627574355484509
 51
89.815693645131617
  0
ARC
  5
1C0F2
  8
0
 10
4652.1004736680297356
 20
511.2982094245351163
 30
0.0
 40
0.7741261493031582
 50
2.2233279109308741
 51
8.2797686164647093
  0
ARC
  5
1C0F3
  8
0
 10
4645.5261041194708014
 20
510.9778393653402873
 30
0.0
 40
7.3562630546454022
 50
1.1463752453830971
 51
2.7302118289854431
  0
ARC
  5
1C0F4
  8
0
 10
4652.9717511282260602
 20
511.3613481420351263
 30
0.0
 40
0.079296511140371
 50
90.1335215977540543
 51
170.9182494740668119
  0
ARC
  5
1C0F5
  8
0
 10
4654.3571987668037764
 20
511.257329499119578
 30
0.0
 40
1.468381687098216
 50
175.4480516067573035
 51
179.8096894226592894
  0
ARC
  5
1C0F6
  8
0
 10
4653.3207398350177755
 20
511.4002722543215782
 30
0.0
 40
0.0403722631111352
 50
1.8120043425387971
 51
89.8862406720645453
  0
ARC
  5
1C0F7
  8
0
 10
4636.2659936008985824
 20
510.8607284789998744
 30
0.0
 40
17.1036508635359006
 50
1.2030646614791869
 51
1.8120043425387971
  0
ARC
  5
1C0F8
  8
0
 10
4648.0717272651818348
 20
511.1086550942603139
 30
0.0
 40
5.2953141915681634
 50
0.5966226670744373
 51
1.2030646614791869
  0
ARC
  5
1C0F9
  8
0
 10
4653.4480499295750633
 20
511.1661480657836023
 30
0.0
 40
0.0813296244018747
 50
181.6583879616734123
 51
210.7186862228548136
  0
ARC
  5
1C0FA
  8
0
 10
4654.6831779350768556
 20
511.509542075656725
 30
0.0
 40
0.03937007870001
 50
359.9999928689754256
 51
90.0
  0
LINE
  5
1C0FB
  8
0
 10
4654.722548013776759
 20
511.5095420707568223
 30
0.0
 11
4654.722548013776759
 21
511.1240643718567753
 31
0.0
  0
ARC
  5
1C0FC
  8
0
 10
4653.4115243957448911
 20
511.5095420660784953
 30
0.0
 40
0.039370088278283
 50
90.0000057739152339
 51
180.0303153555547055
  0
ARC
  5
1C0FD
  8
0
 10
4655.0425207576836328
 20
2826.5108670471659025
 30
0.0
 40
2315.3868622633640371
 50
269.946509127757281
 51
269.9941465913412912
  0
LINE
  5
1C0FE
  8
0
 10
4652.876868793842732
 20
511.2622067881562771
 30
0.0
 11
4652.8936421620774126
 21
511.2622067875568064
 31
0.0
  0
ARC
  5
1C0FF
  8
0
 10
4652.9119205962870183
 20
511.2617021192551192
 30
0.0
 40
0.0199431878699467
 50
163.35465593509889
 51
178.5499582989612009
  0
ARC
  5
1C100
  8
0
 10
4649.3220048462198974
 20
511.1214201301644948
 30
0.0
 40
3.5744110002807399
 50
0.0546174570466696
 51
2.2573141178632872
  0
ARC
  5
1C101
  8
0
 10
4652.8728428475988039
 20
511.261565738732827
 30
0.0
 40
0.0208091909119246
 50
1.765335526705617
 51
16.3246542384881188
  0
LINE
  5
1C102
  8
0
 10
4653.362865815071018
 20
511.3422192410567959
 30
0.0
 11
4653.3721543129777274
 21
511.3422192410567959
 31
0.0
  0
LINE
  5
1C103
  8
0
 10
4650.4543248649188172
 20
495.1136841176568169
 30
0.0
 11
4650.4543248649188172
 21
520.5403658021756428
 31
0.0
  0
LINE
  5
1C104
  8
0
 10
4650.8832338077227178
 20
514.996297728856689
 30
0.0
 11
4664.6484764647320844
 21
514.996297728856689
 31
0.0
  0
LINE
  5
1C105
  8
0
 10
4664.7000550771308554
 20
520.4309909966568739
 30
0.0
 11
4650.8316551953239468
 21
520.4309909966568739
 31
0.0
  0
LINE
  5
1C106
  8
0
 10
4650.6741700920765652
 20
520.2735182081546554
 30
0.0
 11
4650.6741700920765652
 21
515.2308321375868445
 31
0.0
  0
ARC
  5
1C107
  8
0
 10
4650.910415319315689
 20
515.2309740867843857
 30
0.0
 40
0.2362452698841718
 50
180.0344264690513114
 51
263.3931264359857209
  0
ARC
  5
1C108
  8
0
 10
4650.8316551952002555
 20
520.273505893053084
 30
0.0
 40
0.1574851036037543
 50
89.9999999547683416
 51
179.9955195549597988
  0
ARC
  5
1C109
  8
0
 10
4665.032895421183639
 20
520.5361457376707222
 30
0.0
 40
0.0446896837085606
 50
5.4185364946418391
 51
87.7812702032470611
  0
ARC
  5
1C10A
  8
0
 10
4661.6438079279778322
 20
511.4800145166568086
 30
0.0
 40
0.8503937007999979
 50
357.3464691285971071
 51
191.0436655282676952
  0
LINE
  5
1C10B
  8
0
 10
4662.5601439359779761
 20
511.440644437856804
 30
0.0
 11
4662.2108902793779635
 21
511.440644437856804
 31
0.0
  0
LINE
  5
1C10C
  8
0
 10
4662.1595559594779843
 20
511.1369185740567787
 30
0.0
 11
4662.1595559594779843
 21
511.5095212352567842
 31
0.0
  0
LINE
  5
1C10D
  8
0
 10
4662.120185880677127
 20
511.548912154356799
 30
0.0
 11
4660.8485323373779465
 21
511.548912154356799
 31
0.0
  0
LINE
  5
1C10E
  8
0
 10
4662.7038712668781955
 20
511.4406434037567806
 30
0.0
 11
4663.1575080551765495
 21
511.440643403656793
 31
0.0
  0
LINE
  5
1C10F
  8
0
 10
4663.1843585417227587
 20
511.4359330211706833
 30
0.0
 11
4664.3162634020800397
 21
511.4361149214280999
 31
0.0
  0
ARC
  5
1C110
  8
0
 10
4663.1573890938489058
 20
511.361082489841408
 30
0.0
 40
0.0795610027522576
 50
70.1853654609010249
 51
89.9143300816544837
  0
ARC
  5
1C111
  8
0
 10
4664.9068716022984518
 20
511.4267647054132908
 30
0.0
 40
0.0380335565978888
 50
77.9733851202729227
 51
127.9670286788070968
  0
ARC
  5
1C112
  8
0
 10
4664.8214371869362367
 20
510.2223085888134051
 30
0.0
 40
1.2359982379934531
 50
87.1230641927847103
 51
88.6825576646248521
  0
ARC
  5
1C113
  8
0
 10
4664.8467583229676166
 20
511.1109992435409026
 30
0.0
 40
0.3469946718751491
 50
89.4886922971748646
 51
96.321147247332533
  0
ARC
  5
1C114
  8
0
 10
4664.5420209916992462
 20
514.0102535601952241
 30
0.0
 40
2.568237128316087
 50
272.8923782797634772
 51
275.9569078283092267
  0
ARC
  5
1C115
  8
0
 10
4664.3829691955097587
 20
516.8668870439878447
 30
0.0
 40
5.429277161542994
 50
271.5979071456487191
 51
273.0475430725558112
  0
ARC
  5
1C116
  8
0
 10
4664.2665362219449889
 20
521.0407142602130079
 30
0.0
 40
9.6047280675212825
 50
270.2966424721024055
 51
271.5979071456487191
  0
ARC
  5
1C117
  8
0
 10
4664.8964751565663391
 20
511.3730173090100948
 30
0.0
 40
0.09277324073053
 50
64.4133735264282734
 51
78.6100580192318859
  0
ARC
  5
1C118
  8
0
 10
4664.8481685854176249
 20
511.2563579712673913
 30
0.0
 40
0.2189606193006784
 50
8.6112794536995274
 51
66.1964225836543534
  0
ARC
  5
1C119
  8
0
 10
4663.6832897332342327
 20
495.1190374835949797
 30
0.0
 40
1.3941059528009641
 50
353.0653712160557234
 51
359.7799837037928228
  0
ARC
  5
1C11A
  8
0
 10
4663.9665468810835591
 20
494.7478257134163755
 30
0.0
 40
1.100650297390271
 50
270.0049813396356058
 51
359.9960142734237252
  0
ARC
  5
1C11B
  8
0
 10
4664.6409383876480206
 20
511.2398933102189176
 30
0.0
 40
0.4265750193691597
 50
2.2063284733958248
 51
6.629790156480297
  0
ARC
  5
1C11C
  8
0
 10
4662.70399935507794
 20
511.4008244406099948
 30
0.0
 40
0.0398191691609895
 50
90.184306354868383
 51
167.1372425644514976
  0
ARC
  5
1C11D
  8
0
 10
4663.4312366044259761
 20
511.2982094245351163
 30
0.0
 40
0.7741261493031582
 50
171.7202313835352925
 51
177.776672089069109
  0
ARC
  5
1C11E
  8
0
 10
4670.0056061529840008
 20
510.9778393653402873
 30
0.0
 40
7.3562630546454022
 50
177.2697881710145111
 51
178.8536247546169022
  0
ARC
  5
1C11F
  8
0
 10
4662.5599591442287419
 20
511.3613481420351263
 30
0.0
 40
0.079296511140371
 50
9.0817505259332272
 51
89.8664784022459457
  0
ARC
  5
1C120
  8
0
 10
4661.1745115056510258
 20
511.257329499119578
 30
0.0
 40
1.468381687098216
 50
0.1903105773407001
 51
4.5519483932426432
  0
ARC
  5
1C121
  8
0
 10
4662.2109704374370267
 20
511.4002722543215782
 30
0.0
 40
0.0403722631111352
 50
90.1137593279354547
 51
178.1879956574611867
  0
ARC
  5
1C122
  8
0
 10
4679.2657166715571293
 20
510.8607284789998744
 30
0.0
 40
17.1036508635359006
 50
178.1879956574611867
 51
178.7969353385207967
  0
ARC
  5
1C123
  8
0
 10
4667.4599830072729674
 20
511.1086550942603139
 30
0.0
 40
5.2953141915681634
 50
178.7969353385207967
 51
179.4033773329254871
  0
ARC
  5
1C124
  8
0
 10
4662.0836603428788294
 20
511.1661480657836023
 30
0.0
 40
0.0813296244018747
 50
329.2813137771452148
 51
358.3416120383265024
  0
ARC
  5
1C125
  8
0
 10
4660.8485323373779465
 20
511.509542075656725
 30
0.0
 40
0.03937007870001
 50
90.0
 51
180.0000071310246028
  0
LINE
  5
1C126
  8
0
 10
4660.8091622586780431
 20
511.5095420707568223
 30
0.0
 11
4660.8091622586780431
 21
511.1240268929698232
 31
0.0
  0
ARC
  5
1C127
  8
0
 10
4662.1201858767099111
 20
511.5095420660784953
 30
0.0
 40
0.039370088278283
 50
359.9696846444452945
 51
89.9999942260847234
  0
LINE
  5
1C128
  8
0
 10
4662.6548414786120702
 20
511.2622067881562771
 30
0.0
 11
4662.638068110378299
 21
511.2622067875568064
 31
0.0
  0
ARC
  5
1C129
  8
0
 10
4662.6197896761686934
 20
511.2617021192551192
 30
0.0
 40
0.0199431878699467
 50
1.4500417010388389
 51
16.6453440649010496
  0
ARC
  5
1C12A
  8
0
 10
4666.2097054262349047
 20
511.1214201301644948
 30
0.0
 40
3.5744110002807399
 50
177.7426858821366977
 51
179.9426265604892023
  0
ARC
  5
1C12B
  8
0
 10
4662.6588674248569077
 20
511.261565738732827
 30
0.0
 40
0.0208091909119246
 50
163.6753457615118066
 51
178.2346644732944014
  0
LINE
  5
1C12C
  8
0
 10
4662.1688444573837842
 20
511.3422192410567959
 30
0.0
 11
4662.1595559594779843
 21
511.3422192410567959
 31
0.0
  0
LINE
  5
1C12D
  8
0
 10
4665.077385407535985
 20
495.1136841176568169
 30
0.0
 11
4665.077385407535985
 21
520.5403658021756428
 31
0.0
  0
LINE
  5
1C12E
  8
0
 10
4664.857540180378237
 20
520.2735182081546554
 30
0.0
 11
4664.857540180378237
 21
515.2308321375868445
 31
0.0
  0
ARC
  5
1C12F
  8
0
 10
4664.6212949531382037
 20
515.2309740867843857
 30
0.0
 40
0.2362452698841718
 50
276.6068735640142791
 51
359.9655735309486886
  0
ARC
  5
1C130
  8
0
 10
4664.7000550772545466
 20
520.273505893053084
 30
0.0
 40
0.1574851036037557
 50
0.0044804450369429
 51
90.0000000452316442
  0
ARC
  5
1C131
  8
0
 10
4657.7658551362283106
 20
1082.9604510968299564
 30
0.0
 40
571.844094475273323
 50
269.7034345016986094
 51
270.2965654983013906
  0
ARC
  5
1C132
  8
0
 10
4660.4891895147702598
 20
2826.5108670471659025
 30
0.0
 40
2315.3868622633640371
 50
270.0058534086585951
 51
270.053490872242719
  0
LINE
  5
1C133
  8
0
 10
4664.7074564593340256
 20
514.632844605315654
 30
0.0
 11
4650.8242538131216861
 21
514.632844605315654
 31
0.0
  0
ARC
  5
1C134
  8
0
 10
4664.7909851298745707
 20
520.4233191575176534
 30
0.0
 40
0.1574823139462493
 50
0.0013367020278142
 51
90.0012763605956962
  0
LINE
  5
1C135
  8
0
 10
4664.9484674437771901
 20
520.4233228315566748
 30
0.0
 11
4664.9484670240699415
 21
514.8689550807730484
 31
0.0
  0
ARC
  5
1C136
  8
0
 10
4664.7039570974347953
 20
514.8774780022165487
 30
0.0
 40
0.2446584239565205
 50
270.8195323972166761
 51
358.0036401692001959
  0
ARC
  5
1C137
  8
0
 10
4650.740725142581141
 20
520.4233191575176534
 30
0.0
 40
0.1574823139462493
 50
89.9987236394043322
 51
179.9986632979722003
  0
LINE
  5
1C138
  8
0
 10
4650.5832428286776121
 20
520.4233228315566748
 30
0.0
 11
4650.5832432483857701
 21
514.8689550807730484
 31
0.0
  0
ARC
  5
1C139
  8
0
 10
4650.8277531750209164
 20
514.8774780022165487
 30
0.0
 40
0.2446584239565205
 50
181.9963598307998041
 51
269.1804676027833239
  0
LINE
  5
1C13A
  8
0
 10
4651.5650677000294309
 20
493.6471754201858744
 30
0.0
 11
4663.9666425724481087
 21
493.6471754201858744
 31
0.0
  0
LINE
  5
1C13C
  8
0
 10
4650.4645130966428042
 20
511.2563156721566884
 30
0.0
 11
4650.4645130966428042
 21
494.7477491477221179
 31
0.0
  0
LINE
  5
1C13D
  8
0
 10
4665.067197175811998
 20
511.2563156721566884
 30
0.0
 11
4665.067197175811998
 21
494.7477491477221179
 31
0.0
  0
ENDSEC
  0
EOF
