  0
SECTION
  2
HEADER
  9
$ACADVER
  1
AC1009
  9
$INSBASE
 10
3588.5806229498098219
 20
214.0818331225198108
 30
0.0
  9
$EXTMIN
 10
3579.1317307049098417
 20
207.5859331225198048
 30
0.0
  9
$EXTMAX
 10
3598.029515194709802
 20
220.5777331225199021
 30
0.0
  9
$LIMMIN
 10
0.0
 20
0.0
  9
$LIMMAX
 10
11.6929133858000007
 20
8.2677165353999982
  9
$ORTHOMODE
 70
     0
  9
$REGENMODE
 70
     1
  9
$FILLMODE
 70
     1
  9
$QTEXTMODE
 70
     0
  9
$MIRRTEXT
 70
     0
  9
$DRAGMODE
 70
     2
  9
$LTSCALE
 40
0.6431102362
  9
$OSMODE
 70
  3839
  9
$ATTMODE
 70
     1
  9
$TEXTSIZE
 40
0.2
  9
$TRACEWID
 40
0.05
  9
$TEXTSTYLE
  7
STANDARD
  9
$CLAYER
  8
0
  9
$CELTYPE
  6
BYLAYER
  9
$CECOLOR
 62
   256
  9
$DIMSCALE
 40
1.0
  9
$DIMASZ
 40
0.1875
  9
$DIMEXO
 40
0.0625
  9
$DIMDLI
 40
0.4443307087
  9
$DIMRND
 40
0.0
  9
$DIMDLE
 40
0.0
  9
$DIMEXE
 40
0.125
  9
$DIMTP
 40
0.01
  9
$DIMTM
 40
0.01
  9
$DIMTXT
 40
2.0
  9
$DIMCEN
 40
0.1052362205
  9
$DIMTSZ
 40
0.0
  9
$DIMTOL
 70
     1
  9
$DIMLIM
 70
     0
  9
$DIMTIH
 70
     1
  9
$DIMTOH
 70
     1
  9
$DIMSE1
 70
     0
  9
$DIMSE2
 70
     0
  9
$DIMTAD
 70
     0
  9
$DIMZIN
 70
     0
  9
$DIMBLK
  1

  9
$DIMASO
 70
     1
  9
$DIMSHO
 70
     1
  9
$DIMPOST
  1
\X
  9
$DIMAPOST
  1

  9
$DIMALT
 70
     1
  9
$DIMALTD
 70
     2
  9
$DIMALTF
 40
25.3999999999999986
  9
$DIMLFAC
 40
1.0
  9
$DIMTOFL
 70
     0
  9
$DIMTVP
 40
0.0
  9
$DIMTIX
 70
     0
  9
$DIMSOXD
 70
     0
  9
$DIMSAH
 70
     0
  9
$DIMBLK1
  1

  9
$DIMBLK2
  1

  9
$DIMSTYLE
  2
STANDARD
  9
$DIMCLRD
 70
     0
  9
$DIMCLRE
 70
     0
  9
$DIMCLRT
 70
     0
  9
$DIMTFAC
 40
1.0
  9
$DIMGAP
 40
0.09
  9
$LUNITS
 70
     2
  9
$LUPREC
 70
     4
  9
$SKETCHINC
 40
0.1
  9
$FILLETRAD
 40
0.0
  9
$AUNITS
 70
     0
  9
$AUPREC
 70
     0
  9
$MENU
  1
.
  9
$ELEVATION
 40
0.0
  9
$PELEVATION
 40
0.0
  9
$THICKNESS
 40
0.0
  9
$LIMCHECK
 70
     0
  9
$BLIPMODE
 70
     0
  9
$CHAMFERA
 40
0.0
  9
$CHAMFERB
 40
0.0
  9
$SKPOLY
 70
     0
  9
$TDCREATE
 40
2458060.468368056230247
  9
$TDUPDATE
 40
2459153.7728009261190891
  9
$TDINDWG
 40
0.5288496528
  9
$TDUSRTIMER
 40
0.5288496528
  9
$USRTIMER
 70
     1
  9
$ANGBASE
 50
0.0
  9
$ANGDIR
 70
     0
  9
$PDMODE
 70
     0
  9
$PDSIZE
 40
0.3125
  9
$PLINEWID
 40
0.0
  9
$COORDS
 70
     1
  9
$SPLFRAME
 70
     0
  9
$SPLINETYPE
 70
     6
  9
$SPLINESEGS
 70
     8
  9
$ATTDIA
 70
     1
  9
$ATTREQ
 70
     1
  9
$HANDLING
 70
     1
  9
$HANDSEED
  5
92E4
  9
$SURFTAB1
 70
     6
  9
$SURFTAB2
 70
     6
  9
$SURFTYPE
 70
     6
  9
$SURFU
 70
     6
  9
$SURFV
 70
     6
  9
$UCSNAME
  2

  9
$UCSORG
 10
0.0
 20
0.0
 30
0.0
  9
$UCSXDIR
 10
1.0
 20
0.0
 30
0.0
  9
$UCSYDIR
 10
0.0
 20
1.0
 30
0.0
  9
$PUCSNAME
  2

  9
$PUCSORG
 10
0.0
 20
0.0
 30
0.0
  9
$PUCSXDIR
 10
1.0
 20
0.0
 30
0.0
  9
$PUCSYDIR
 10
0.0
 20
1.0
 30
0.0
  9
$USERI1
 70
     0
  9
$USERI2
 70
     0
  9
$USERI3
 70
     0
  9
$USERI4
 70
     0
  9
$USERI5
 70
     0
  9
$USERR1
 40
0.0
  9
$USERR2
 40
0.0
  9
$USERR3
 40
0.0
  9
$USERR4
 40
0.0
  9
$USERR5
 40
0.0
  9
$WORLDVIEW
 70
     1
  9
$SHADEDGE
 70
     3
  9
$SHADEDIF
 70
    70
  9
$TILEMODE
 70
     1
  9
$MAXACTVP
 70
    64
  9
$PLIMCHECK
 70
     0
  9
$PEXTMIN
 10
1.0000000000000000E+20
 20
1.0000000000000000E+20
 30
1.0000000000000000E+20
  9
$PEXTMAX
 10
-1.0000000000000000E+20
 20
-1.0000000000000000E+20
 30
-1.0000000000000000E+20
  9
$PLIMMIN
 10
0.0
 20
0.0
  9
$PLIMMAX
 10
12.0
 20
9.0
  9
$UNITMODE
 70
     0
  9
$VISRETAIN
 70
     1
  9
$PLINEGEN
 70
     0
  9
$PSLTSCALE
 70
     1
  0
ENDSEC
  0
SECTION
  2
TABLES
  0
TABLE
  2
VPORT
 70
     1
  0
VPORT
  2
*ACTIVE
 70
     0
 10
0.0
 20
0.0
 11
1.0
 21
1.0
 12
0.0
 22
0.0
 13
0.0
 23
0.0
 14
1.0
 24
1.0
 15
0.0
 25
0.0
 16
0.0
 26
0.0
 36
90.1349959050294984
 17
3588.5806884765629547
 27
214.0818328857421875
 37
0.0
 40
22.9327251906487994
 41
3.1182994454713491
 42
50.0
 43
0.0
 44
0.0
 50
0.0
 51
0.0
 71
     0
 72
   100
 73
     1
 74
     1
 75
     0
 76
     0
 77
     0
 78
     0
  0
ENDTAB
  0
TABLE
  2
LTYPE
 70
     2
  0
LTYPE
  2
CONTINUOUS
 70
     0
  3
Solid line
 72
    65
 73
     0
 40
0.0
  0
LTYPE
  2
PHANTOM2
 70
     0
  3
___ _ _ ___ _ _ ___ _ _ ___ _ _
 72
    65
 73
     6
 40
1.25
 49
0.625
 49
-0.125
 49
0.125
 49
-0.125
 49
0.125
 49
-0.125
  0
ENDTAB
  0
TABLE
  2
LAYER
 70
     2
  0
LAYER
  2
0
 70
     0
 62
   255
  6
CONTINUOUS
  0
LAYER
  2
DEFPOINTS
 70
     0
 62
     7
  6
CONTINUOUS
  0
ENDTAB
  0
TABLE
  2
STYLE
 70
     1
  0
STYLE
  2
STANDARD
 70
     0
 40
0.0
 41
0.8
 50
0.0
 71
     0
 42
0.2
  3
txt
  4

  0
ENDTAB
  0
TABLE
  2
VIEW
 70
     0
  0
ENDTAB
  0
TABLE
  2
UCS
 70
     0
  0
ENDTAB
  0
TABLE
  2
APPID
 70
     9
  0
APPID
  2
ACAD
 70
     0
  0
APPID
  2
ACAD_MLEADERVER
 70
     0
  0
APPID
  2
ACAD_EXEMPT_FROM_CAD_STANDARDS
 70
     0
  0
APPID
  2
ACAD_NAV_VCDISPLAY
 70
     0
  0
APPID
  2
ACAECLAYERSTANDARD
 70
     0
  0
APPID
  2
ACCMTRANSPARENCY
 70
     0
  0
APPID
  2
ACAD_DSTYLE_DIMJAG
 70
     0
  0
APPID
  2
ACAD_DSTYLE_DIMTALN
 70
     0
  0
APPID
  2
ACDBATTR
 70
     0
  0
ENDTAB
  0
TABLE
  2
DIMSTYLE
 70
     1
  0
DIMSTYLE
  2
STANDARD
 70
     0
  3

  4

  5

  6

  7

 40
1.0
 41
0.1875
 42
0.0625
 43
0.38
 44
0.125
 45
0.0
 46
0.0
 47
0.01
 48
0.01
140
0.15625
141
0.09
142
0.0
143
25.3999999999999986
144
1.0
145
0.0
146
1.0
147
0.09
 71
     1
 72
     0
 73
     1
 74
     1
 75
     0
 76
     0
 77
     0
 78
     4
170
     0
171
     2
172
     0
173
     0
174
     0
175
     0
176
     0
177
     0
178
     0
  0
ENDTAB
  0
ENDSEC
  0
SECTION
  2
BLOCKS
  0
BLOCK
  8
0
  2
$MODEL_SPACE
 70
     0
 10
0.0
 20
0.0
 30
0.0
  3
$MODEL_SPACE
  1

  0
ENDBLK
  5
21
  8
0
  0
BLOCK
 67
     1
  8
0
  2
$PAPER_SPACE
 70
     0
 10
0.0
 20
0.0
 30
0.0
  3
$PAPER_SPACE
  1

  0
ENDBLK
  5
1D
 67
     1
  8
0
  0
BLOCK
  8
0
  2
_FILLED
 70
     0
 10
0.0
 20
0.0
 30
0.0
  3
_FILLED
  1

  0
SOLID
  5
6F59
  8
0
  6
BYBLOCK
 62
     0
 10
0.0
 20
0.0
 30
0.0
 11
-1.0
 21
0.1666666667
 31
0.0
 12
-1.0
 22
-0.1666666667
 32
0.0
 13
-1.0
 23
-0.1666666667
 33
0.0
  0
ENDBLK
  5
6F5A
  8
0
  6
BYBLOCK
 62
     0
  0
ENDSEC
  0
SECTION
  2
ENTITIES
  0
ATTDEF
  5
3930
  8
DEFPOINTS
 10
3588.5811664634720728
 20
214.0857410691995995
 30
0.0
 40
0.001
  1
K-17245K
  3

  2
MODELNUMBER
 70
     0
1001
ACDBATTR
1070
     0
1070
     1
  0
ATTDEF
  5
3931
  8
DEFPOINTS
 10
3588.5811664634720728
 20
214.0840744025329911
 30
0.0
 40
0.001
  1
AQUARELLE
  3

  2
TRADENAME
 70
     0
1001
ACDBATTR
1070
     0
1070
     1
  0
ATTDEF
  5
3932
  8
DEFPOINTS
 10
3588.5811664634720728
 20
214.0824077358662976
 30
0.0
 40
0.001
  1
BATHROOM SINK
  3

  2
PRODUCT
 70
     0
1001
ACDBATTR
1070
     0
1070
     1
  0
CIRCLE
  5
9137
  8
0
 10
3588.5806229498098219
 20
214.0818331225198108
 30
0.0
 40
0.8858267717000005
  0
CIRCLE
  5
9138
  8
0
 10
3588.5806229498098219
 20
214.0818331225198108
 30
0.0
 40
1.1453371845827161
  0
ARC
  5
9139
  8
0
 10
3589.6333502472771215
 20
210.4549458444207914
 30
0.0
 40
9.5690930514053711
 50
51.7284683036405113
 51
76.1793012065639914
  0
ARC
  5
913A
  8
0
 10
3592.161553817713866
 20
213.5451353475810947
 30
0.0
 40
5.5775421573240287
 50
17.5377800724061501
 51
52.456025862210069
  0
ARC
  5
913B
  8
0
 10
3589.2260624639220623
 20
209.6439726134807984
 30
0.0
 40
10.8505925760359503
 50
56.843260125049639
 51
76.9472898021794265
  0
ARC
  5
913C
  8
0
 10
3591.62357126952611
 20
213.1227224300839111
 30
0.0
 40
6.627812847286358
 50
23.7269919722180482
 51
57.7467026374727297
  0
ARC
  5
913D
  8
0
 10
3589.6333502472771215
 20
217.708720400618887
 30
0.0
 40
9.5690930514053711
 50
283.8206987934360086
 51
308.2715316963594887
  0
ARC
  5
913E
  8
0
 10
3592.161553817713866
 20
214.6185308974586121
 30
0.0
 40
5.5775421573240287
 50
307.5439741377899168
 51
342.4622199275922867
  0
ARC
  5
913F
  8
0
 10
3589.2260624639220623
 20
218.5196936315587948
 30
0.0
 40
10.8505925760359503
 50
283.0527101978204882
 51
303.15673987495029
  0
ARC
  5
9140
  8
0
 10
3591.62357126952611
 20
215.0409438149557957
 30
0.0
 40
6.627812847286358
 50
302.2532973625272916
 51
336.2730080277818843
  0
ARC
  5
9141
  8
0
 10
3593.4993481135070397
 20
214.0818331225198961
 30
0.0
 40
4.1416297850025501
 50
343.9651578640111893
 51
16.0348421359872297
  0
ARC
  5
9142
  8
0
 10
3593.550536057222871
 20
214.0818331225198108
 30
0.0
 40
4.4789791374866406
 50
337.5864896276330001
 51
22.4135103723669502
  0
ARC
  5
9143
  8
0
 10
3587.527895652342977
 20
210.4549458444207914
 30
0.0
 40
9.5690930514053711
 50
103.8206987934359944
 51
128.2715316963594887
  0
ARC
  5
9144
  8
0
 10
3584.9996920819057777
 20
213.5451353475810947
 30
0.0
 40
5.5775421573240287
 50
127.5439741377899026
 51
162.462219927593793
  0
ARC
  5
9145
  8
0
 10
3587.9351834356980362
 20
209.6439726134807984
 30
0.0
 40
10.8505925760359503
 50
103.0527101978206019
 51
123.1567398749503042
  0
ARC
  5
9146
  8
0
 10
3585.5376746300939885
 20
213.1227224300839111
 30
0.0
 40
6.627812847286358
 50
122.2532973625272064
 51
156.2730080277819127
  0
ARC
  5
9147
  8
0
 10
3587.527895652342977
 20
217.708720400618887
 30
0.0
 40
9.5690930514053711
 50
231.7284683036405113
 51
256.1793012065638777
  0
ARC
  5
9148
  8
0
 10
3584.9996920819057777
 20
214.6185308974586121
 30
0.0
 40
5.5775421573240287
 50
197.5377800724077133
 51
232.456025862209998
  0
ARC
  5
9149
  8
0
 10
3587.9351834356980362
 20
218.5196936315587948
 30
0.0
 40
10.8505925760359503
 50
236.8432601250495964
 51
256.9472898021793981
  0
ARC
  5
914A
  8
0
 10
3585.5376746300939885
 20
215.0409438149557957
 30
0.0
 40
6.627812847286358
 50
203.726991972218002
 51
237.7467026374727084
  0
ARC
  5
914B
  8
0
 10
3583.6618977861121493
 20
214.0818331225198961
 30
0.0
 40
4.1416297850025501
 50
163.9651578640128093
 51
196.0348421359871907
  0
ARC
  5
914C
  8
0
 10
3583.6107098423967727
 20
214.0818331225198108
 30
0.0
 40
4.4789791374866406
 50
157.5864896276330001
 51
202.4135103723668863
  0
ARC
  5
914D
  8
0
 10
3588.5806229498098219
 20
220.9518045936196984
 30
0.0
 40
13.3658714710998296
 50
256.6065907002721929
 51
283.3934092997278071
  0
ARC
  5
914E
  8
0
 10
3588.5806229498098219
 20
221.2064852285683116
 30
0.0
 40
13.2183891351485006
 50
255.3700667014437897
 51
284.629933298556125
  0
ARC
  5
914F
  8
0
 10
3588.5806229498098219
 20
207.2118616514200085
 30
0.0
 40
13.3658714710998296
 50
76.6065907002721787
 51
103.3934092997277929
  0
ARC
  5
9150
  8
0
 10
3588.5806229498098219
 20
206.9571810164713952
 30
0.0
 40
13.2183891351485006
 50
75.3700667014438608
 51
104.6299332985560966
  0
ENDSEC
  0
EOF
