  0
SECTION
  2
HEADER
  9
$ACADVER
  1
AC1009
  9
$INSBASE
 10
4261.9168558185310758
 20
185.0444549978292059
 30
0.0
  9
$EXTMIN
 10
4245.2761210551689146
 20
175.7846053547978045
 30
-0.0000000349181948
  9
$EXTMAX
 10
4278.5493430886717761
 20
194.3013006030564895
 30
0.0000000814935746
  9
$LIMMIN
 10
0.0
 20
0.0
  9
$LIMMAX
 10
11.6929133858000007
 20
8.2677165353999982
  9
$ORTHOMODE
 70
     0
  9
$REGENMODE
 70
     1
  9
$FILLMODE
 70
     1
  9
$QTEXTMODE
 70
     0
  9
$MIRRTEXT
 70
     0
  9
$DRAGMODE
 70
     2
  9
$LTSCALE
 40
0.6431102362
  9
$OSMODE
 70
  4095
  9
$ATTMODE
 70
     1
  9
$TEXTSIZE
 40
0.2
  9
$TRACEWID
 40
0.05
  9
$TEXTSTYLE
  7
STANDARD
  9
$CLAYER
  8
0
  9
$CELTYPE
  6
BYLAYER
  9
$CECOLOR
 62
   256
  9
$DIMSCALE
 40
1.0
  9
$DIMASZ
 40
0.1875
  9
$DIMEXO
 40
0.0625
  9
$DIMDLI
 40
0.4443307087
  9
$DIMRND
 40
0.0
  9
$DIMDLE
 40
0.0
  9
$DIMEXE
 40
0.125
  9
$DIMTP
 40
0.01
  9
$DIMTM
 40
0.01
  9
$DIMTXT
 40
2.0
  9
$DIMCEN
 40
0.1052362205
  9
$DIMTSZ
 40
0.0
  9
$DIMTOL
 70
     1
  9
$DIMLIM
 70
     0
  9
$DIMTIH
 70
     1
  9
$DIMTOH
 70
     1
  9
$DIMSE1
 70
     0
  9
$DIMSE2
 70
     0
  9
$DIMTAD
 70
     0
  9
$DIMZIN
 70
     0
  9
$DIMBLK
  1

  9
$DIMASO
 70
     1
  9
$DIMSHO
 70
     1
  9
$DIMPOST
  1
\X
  9
$DIMAPOST
  1

  9
$DIMALT
 70
     1
  9
$DIMALTD
 70
     2
  9
$DIMALTF
 40
25.3999999999999986
  9
$DIMLFAC
 40
1.0
  9
$DIMTOFL
 70
     0
  9
$DIMTVP
 40
0.0
  9
$DIMTIX
 70
     0
  9
$DIMSOXD
 70
     0
  9
$DIMSAH
 70
     0
  9
$DIMBLK1
  1

  9
$DIMBLK2
  1

  9
$DIMSTYLE
  2
STANDARD
  9
$DIMCLRD
 70
     0
  9
$DIMCLRE
 70
     0
  9
$DIMCLRT
 70
     0
  9
$DIMTFAC
 40
1.0
  9
$DIMGAP
 40
0.09
  9
$LUNITS
 70
     2
  9
$LUPREC
 70
     4
  9
$SKETCHINC
 40
0.1
  9
$FILLETRAD
 40
0.0
  9
$AUNITS
 70
     0
  9
$AUPREC
 70
     0
  9
$MENU
  1
.
  9
$ELEVATION
 40
0.0
  9
$PELEVATION
 40
0.0
  9
$THICKNESS
 40
0.0
  9
$LIMCHECK
 70
     0
  9
$BLIPMODE
 70
     0
  9
$CHAMFERA
 40
0.0
  9
$CHAMFERB
 40
0.0
  9
$SKPOLY
 70
     0
  9
$TDCREATE
 40
2458060.468368056230247
  9
$TDUPDATE
 40
2459135.7163425930775702
  9
$TDINDWG
 40
0.4287802083
  9
$TDUSRTIMER
 40
0.4287802083
  9
$USRTIMER
 70
     1
  9
$ANGBASE
 50
0.0
  9
$ANGDIR
 70
     0
  9
$PDMODE
 70
     0
  9
$PDSIZE
 40
0.3125
  9
$PLINEWID
 40
0.0
  9
$COORDS
 70
     1
  9
$SPLFRAME
 70
     0
  9
$SPLINETYPE
 70
     6
  9
$SPLINESEGS
 70
     8
  9
$ATTDIA
 70
     1
  9
$ATTREQ
 70
     1
  9
$HANDLING
 70
     1
  9
$HANDSEED
  5
175B2
  9
$SURFTAB1
 70
     6
  9
$SURFTAB2
 70
     6
  9
$SURFTYPE
 70
     6
  9
$SURFU
 70
     6
  9
$SURFV
 70
     6
  9
$UCSNAME
  2

  9
$UCSORG
 10
0.0
 20
0.0
 30
0.0
  9
$UCSXDIR
 10
1.0
 20
0.0
 30
0.0
  9
$UCSYDIR
 10
0.0
 20
1.0
 30
0.0
  9
$PUCSNAME
  2

  9
$PUCSORG
 10
0.0
 20
0.0
 30
0.0
  9
$PUCSXDIR
 10
1.0
 20
0.0
 30
0.0
  9
$PUCSYDIR
 10
0.0
 20
1.0
 30
0.0
  9
$USERI1
 70
     0
  9
$USERI2
 70
     0
  9
$USERI3
 70
     0
  9
$USERI4
 70
     0
  9
$USERI5
 70
     0
  9
$USERR1
 40
0.0
  9
$USERR2
 40
0.0
  9
$USERR3
 40
0.0
  9
$USERR4
 40
0.0
  9
$USERR5
 40
0.0
  9
$WORLDVIEW
 70
     1
  9
$SHADEDGE
 70
     3
  9
$SHADEDIF
 70
    70
  9
$TILEMODE
 70
     1
  9
$MAXACTVP
 70
    64
  9
$PLIMCHECK
 70
     0
  9
$PEXTMIN
 10
1.0000000000000000E+20
 20
1.0000000000000000E+20
 30
1.0000000000000000E+20
  9
$PEXTMAX
 10
-1.0000000000000000E+20
 20
-1.0000000000000000E+20
 30
-1.0000000000000000E+20
  9
$PLIMMIN
 10
0.0
 20
0.0
  9
$PLIMMAX
 10
12.0
 20
9.0
  9
$UNITMODE
 70
     0
  9
$VISRETAIN
 70
     1
  9
$PLINEGEN
 70
     0
  9
$PSLTSCALE
 70
     1
  0
ENDSEC
  0
SECTION
  2
TABLES
  0
TABLE
  2
VPORT
 70
     1
  0
VPORT
  2
*ACTIVE
 70
     0
 10
0.0
 20
0.0
 11
1.0
 21
1.0
 12
350.5473755609124851
 22
52.4633478208160895
 13
0.0
 23
0.0
 14
1.0
 24
1.0
 15
0.0
 25
0.0
 16
0.0
 26
0.0
 36
60.4960186965801583
 17
3911.3653564453120453
 27
132.5796051025390057
 37
0.0
 40
25.5364298682588817
 41
1.8525498891352541
 42
50.0
 43
0.0
 44
0.0
 50
0.0
 51
0.0
 71
     0
 72
   100
 73
     1
 74
     1
 75
     0
 76
     0
 77
     0
 78
     0
  0
ENDTAB
  0
TABLE
  2
LTYPE
 70
     2
  0
LTYPE
  2
CONTINUOUS
 70
     0
  3
Solid line
 72
    65
 73
     0
 40
0.0
  0
LTYPE
  2
PHANTOM2
 70
     0
  3
___ _ _ ___ _ _ ___ _ _ ___ _ _
 72
    65
 73
     6
 40
1.25
 49
0.625
 49
-0.125
 49
0.125
 49
-0.125
 49
0.125
 49
-0.125
  0
ENDTAB
  0
TABLE
  2
LAYER
 70
     2
  0
LAYER
  2
0
 70
     0
 62
   255
  6
CONTINUOUS
  0
LAYER
  2
DEFPOINTS
 70
     0
 62
     7
  6
CONTINUOUS
  0
ENDTAB
  0
TABLE
  2
STYLE
 70
     1
  0
STYLE
  2
STANDARD
 70
     0
 40
0.0
 41
0.8
 50
0.0
 71
     0
 42
0.2
  3
txt
  4

  0
ENDTAB
  0
TABLE
  2
VIEW
 70
     0
  0
ENDTAB
  0
TABLE
  2
UCS
 70
     0
  0
ENDTAB
  0
TABLE
  2
APPID
 70
    11
  0
APPID
  2
ACAD
 70
     0
  0
APPID
  2
ACAD_MLEADERVER
 70
     0
  0
APPID
  2
ACAD_EXEMPT_FROM_CAD_STANDARDS
 70
     0
  0
APPID
  2
ACAD_NAV_VCDISPLAY
 70
     0
  0
APPID
  2
ACAECLAYERSTANDARD
 70
     0
  0
APPID
  2
ACCMTRANSPARENCY
 70
     0
  0
APPID
  2
ACAD_DSTYLE_DIMJAG
 70
     0
  0
APPID
  2
ACAD_DSTYLE_DIMTALN
 70
     0
  0
APPID
  2
ACDBATTR
 70
     0
  0
APPID
  2
ACADANNOTATIVE
 70
     0
  0
APPID
  2
DCO15
 70
     0
  0
ENDTAB
  0
TABLE
  2
DIMSTYLE
 70
     1
  0
DIMSTYLE
  2
STANDARD
 70
     0
  3

  4

  5

  6

  7

 40
1.0
 41
0.1875
 42
0.0625
 43
0.38
 44
0.125
 45
0.0
 46
0.0
 47
0.01
 48
0.01
140
0.15625
141
0.09
142
0.0
143
25.3999999999999986
144
1.0
145
0.0
146
1.0
147
0.09
 71
     1
 72
     0
 73
     1
 74
     1
 75
     0
 76
     0
 77
     0
 78
     4
170
     0
171
     2
172
     0
173
     0
174
     0
175
     0
176
     0
177
     0
178
     0
  0
ENDTAB
  0
ENDSEC
  0
SECTION
  2
BLOCKS
  0
BLOCK
  8
0
  2
$MODEL_SPACE
 70
     0
 10
0.0
 20
0.0
 30
0.0
  3
$MODEL_SPACE
  1

  0
ENDBLK
  5
21
  8
0
  0
BLOCK
 67
     1
  8
0
  2
$PAPER_SPACE
 70
     0
 10
0.0
 20
0.0
 30
0.0
  3
$PAPER_SPACE
  1

  0
ENDBLK
  5
1D
 67
     1
  8
0
  0
ENDSEC
  0
SECTION
  2
ENTITIES
  0
ARC
  5
17479
  8
0
  6
CONTINUOUS
 62
     7
 10
4246.7268341163317018
 20
192.9844549978292036
 30
0.0
 40
1.3100000000000001
 50
90.0
 51
179.6701971056787954
  0
LINE
  5
1747A
  8
0
  6
CONTINUOUS
 62
     7
 10
4246.7268341163317018
 20
175.7944332955291884
 30
0.0
 11
4277.1068730112310732
 21
175.7944332955291884
 31
0.0
  0
ARC
  5
1747B
  8
0
  6
CONTINUOUS
 62
     7
 10
4277.1068730112310732
 20
177.1044332955291907
 30
0.0
 40
1.3100000000000001
 50
270.0
 51
0.0
  0
ARC
  5
1747C
  8
0
  6
CONTINUOUS
 62
     7
 10
4246.7268341163317018
 20
177.1044332955291907
 30
0.0
 40
1.3100000000000001
 50
180.3298028943212046
 51
270.0
  0
LINE
  5
1747D
  8
0
  6
CONTINUOUS
 62
     7
 10
4246.7268341163317018
 20
194.2944549978292059
 30
0.0
 11
4277.1068730112310732
 21
194.2944549978292059
 31
0.0
  0
ARC
  5
1747E
  8
0
 10
3318.8388431081962153
 20
181.0988783790589878
 30
0.0
 40
941.5365413523694542
 50
359.9290458769494876
 51
0.4065006753123749
  0
ARC
  5
1747F
  8
0
 10
3656.4341839165008423
 20
182.3037462506175075
 30
0.0
 40
604.3525294635447835
 50
359.7505912416766023
 51
0.543876756277654
  0
ARC
  5
17480
  8
0
 10
4249.380931493830758
 20
180.061263328029213
 30
0.0
 40
2.2501778951999998
 50
180.307428726499495
 51
268.7218103212222786
  0
ARC
  5
17481
  8
0
 10
4261.9168558185310758
 20
90.4194549978292059
 30
0.0
 40
99.9657311720000052
 50
91.9347662834752271
 51
97.5402440913127862
  0
CIRCLE
  5
17482
  8
0
  6
CONTINUOUS
 62
     7
 10
4261.9168558185310758
 20
192.4344549978291923
 30
0.0
 40
0.6875
  0
ARC
  5
17483
  8
0
 10
4948.5427579737970518
 20
181.9431218331052094
 30
0.0
 40
701.4145289491667654
 50
179.5831584659972009
 51
180.1547080126939875
  0
ARC
  5
17484
  8
0
 10
4846.7918558185310758
 20
182.2944549978292059
 30
0.0
 40
599.9657311721999804
 50
179.5208249445990987
 51
180.2426023748992918
  0
ARC
  5
17485
  8
0
 10
4261.9168540581313209
 20
801.1926428839291248
 30
0.0
 40
623.8029567273999874
 50
268.8168155983992165
 51
269.696243142991591
  0
CIRCLE
  5
17486
  8
0
 10
4255.6668558185310758
 20
184.3644549978291991
 30
0.0
 40
1.8069999999999999
  0
CIRCLE
  5
17487
  8
0
 10
4255.6668558185310758
 20
184.3644549978291991
 30
0.0
 40
1.523301930099999
  0
CIRCLE
  5
17488
  8
0
 10
4268.1668558185310758
 20
184.3644549978291991
 30
0.0
 40
1.8069999999999999
  0
CIRCLE
  5
17489
  8
0
 10
4268.1668558185310758
 20
184.3644549978291991
 30
0.0
 40
1.523301930099999
  0
ARC
  5
1748A
  8
0
 10
4249.0904696698999032
 20
187.2963940393250084
 30
0.0
 40
2.243401438606428
 50
97.4626636797149501
 51
179.6009404630273991
  0
ARC
  5
1748B
  8
0
 10
4249.0763686904438146
 20
179.7672296083960077
 30
0.0
 40
2.244904301840192
 50
180.3355741842260045
 51
268.9683398590580055
  0
ARC
  5
1748C
  8
0
 10
4258.5363055919933686
 20
179.6421452065794995
 30
0.0
 40
2.2448940940359119
 50
271.874641869330901
 51
0.7876649199750139
  0
LINE
  5
1748D
  8
0
 10
4249.3307372975614271
 20
177.8116453376345021
 30
0.0
 11
4258.1175044091305608
 21
177.6958685926292105
 31
0.0
  0
ARC
  5
1748E
  8
0
 10
4258.1243794836491361
 20
179.946180312979493
 30
0.0
 40
2.2503222225707278
 50
269.8249524612260757
 51
359.6617583425251041
  0
ARC
  5
1748F
  8
0
 10
4258.1014469115962129
 20
187.7532403109809138
 30
0.0
 40
2.2503864326702678
 50
0.6510910648452675
 51
92.0564042040763155
  0
ARC
  5
17490
  8
0
 10
4262.1264782472117076
 20
87.3210734221326561
 30
0.0
 40
102.7631576908527933
 50
92.2897958364126652
 51
97.2795321694729296
  0
ARC
  5
17491
  8
0
 10
4249.3968504389840746
 20
187.0247406060842081
 30
0.0
 40
2.2501596669898229
 50
97.4438705788152504
 51
179.4574436357493141
  0
ARC
  5
17492
  8
0
 10
4258.5381886460681926
 20
188.1059377663490864
 30
0.0
 40
2.2222623411294382
 50
358.3110580269049024
 51
89.9055925176461699
  0
ARC
  5
17493
  8
0
 10
5204.9948468266666168
 20
181.0988783790589878
 30
0.0
 40
941.5365413523694542
 50
179.593499324687599
 51
180.0709541230505124
  0
ARC
  5
17494
  8
0
 10
4868.1417211268417304
 20
182.2992659412684873
 30
0.0
 40
605.0947536669686997
 50
179.4563661416017908
 51
180.2474767696677986
  0
ARC
  5
17495
  8
0
 10
4274.4527584410307099
 20
180.061263328029213
 30
0.0
 40
2.2501778951999998
 50
271.2781896787777782
 51
359.692571273500505
  0
ARC
  5
17496
  8
0
 10
4261.9168341163313016
 20
90.4194549978292059
 30
0.0
 40
99.9657311720000052
 50
82.4597559086872138
 51
88.0652337165247729
  0
ARC
  5
17497
  8
0
 10
3575.2909319610648708
 20
181.9431218331052094
 30
0.0
 40
701.4145289491667654
 50
359.8452919873059841
 51
0.4168415340028087
  0
ARC
  5
17498
  8
0
 10
3677.0418341163322111
 20
182.2944549978292059
 30
0.0
 40
599.9657311721999804
 50
359.7573976251006229
 51
0.4791750554008552
  0
ARC
  5
17499
  8
0
 10
4261.9168358767310565
 20
801.1926428839291248
 30
0.0
 40
623.8029567273999874
 50
270.3037568570082954
 51
271.1831844016007835
  0
ARC
  5
1749A
  8
0
 10
4274.7432383241930438
 20
187.2963758039211086
 30
0.0
 40
2.2433999820936839
 50
0.3995349975934798
 51
82.5378457916139467
  0
ARC
  5
1749B
  8
0
 10
4274.7573212444176534
 20
179.7672296083960077
 30
0.0
 40
2.244904301840192
 50
271.0316601409418809
 51
359.6644258157739955
  0
ARC
  5
1749C
  8
0
 10
4265.2976139983293251
 20
179.6426585381410064
 30
0.0
 40
2.2454146736175349
 50
178.9017112466366939
 51
268.1199296878808127
  0
LINE
  5
1749D
  8
0
 10
4274.5029526373009503
 20
177.8116453376345021
 30
0.0
 11
4265.7161855257309071
 21
177.6958685926292105
 31
0.0
  0
ARC
  5
1749E
  8
0
 10
4265.7093104512132413
 20
179.946180312979493
 30
0.0
 40
2.2503222225707278
 50
180.3382416574748106
 51
270.1750475387739243
  0
ARC
  5
1749F
  8
0
 10
4265.7322430232661645
 20
187.7532403109809138
 30
0.0
 40
2.2503864326702612
 50
87.9435957959237129
 51
179.3489089351546966
  0
ARC
  5
174A0
  8
0
 10
4261.7072116876488508
 20
87.3210734221326561
 30
0.0
 40
102.7631576908527933
 50
82.7204678305270562
 51
87.7102041635873348
  0
ARC
  5
174A1
  8
0
 10
4274.4368394958783028
 20
187.0247406060844071
 30
0.0
 40
2.2501596669895818
 50
0.5425563642441681
 51
82.556129421184977
  0
ARC
  5
174A2
  8
0
 10
4265.2955012887941848
 20
188.1059377663490864
 30
0.0
 40
2.2222623411294409
 50
90.0944074823538159
 51
181.6889419730950124
  0
POINT
  5
174A4
  8
DEFPOINTS
 10
4261.9168558185310758
 20
192.4344549978291923
 30
0.0
  0
LINE
  5
174A5
  8
0
  6
CONTINUOUS
 62
     7
 10
4278.4168730112305639
 20
192.9844549978292036
 30
0.0
 11
4278.4168730112305639
 21
177.1044332955291907
 31
0.0
  0
ARC
  5
174A6
  8
0
  6
CONTINUOUS
 62
     7
 10
4277.1068730112310732
 20
192.9844549978292036
 30
0.0
 40
1.3100000000000001
 50
0.0
 51
90.0
  0
LINE
  5
174A7
  8
0
  6
CONTINUOUS
 62
     7
 10
4245.4168558185310758
 20
177.0968927854005983
 30
0.0
 11
4245.4168558185310758
 21
192.991995507957796
 31
0.0
  0
ATTDEF
  5
174A8
  8
DEFPOINTS
 10
4261.9175470132850023
 20
185.0431594692558974
 30
0.0
 40
0.001
  1
17250T-1S
  3

  2
MODELNUMBER
 70
     0
1001
ACDBATTR
1070
     0
1070
     1
  0
ATTDEF
  5
174A9
  8
DEFPOINTS
 10
4261.9174212036268727
 20
185.0414926288767106
 30
0.0
 40
0.001
  1
BROOKFIELD 
  3

  2
TRADENAME
 70
     0
1001
ACDBATTR
1070
     0
1070
     1
  0
ATTDEF
  5
174AA
  8
DEFPOINTS
 10
4261.9175470132850023
 20
185.0398261359225955
 30
0.0
 40
0.001
  1
KITCHEN SINK
  3

  2
PRODUCT
 70
     0
1001
ACDBATTR
1070
     0
1070
     1
  0
ENDSEC
  0
EOF
