  0
SECTION
  2
HEADER
  9
$ACADVER
  1
AC1009
  9
$INSBASE
 10
4207.8733566251657976
 20
132.4681165773369003
 30
0.0
  9
$EXTMIN
 10
4191.2864411062655563
 20
123.1956345866258005
 30
-0.0000000349181948
  9
$EXTMAX
 10
4224.4908139472863695
 20
141.7367833916740949
 30
0.0000000814935746
  9
$LIMMIN
 10
0.0
 20
0.0
  9
$LIMMAX
 10
11.6929133858000007
 20
8.2677165353999982
  9
$ORTHOMODE
 70
     0
  9
$REGENMODE
 70
     1
  9
$FILLMODE
 70
     1
  9
$QTEXTMODE
 70
     0
  9
$MIRRTEXT
 70
     0
  9
$DRAGMODE
 70
     2
  9
$LTSCALE
 40
0.6431102362
  9
$OSMODE
 70
  4095
  9
$ATTMODE
 70
     1
  9
$TEXTSIZE
 40
0.2
  9
$TRACEWID
 40
0.05
  9
$TEXTSTYLE
  7
STANDARD
  9
$CLAYER
  8
0
  9
$CELTYPE
  6
BYLAYER
  9
$CECOLOR
 62
   256
  9
$DIMSCALE
 40
1.0
  9
$DIMASZ
 40
0.1875
  9
$DIMEXO
 40
0.0625
  9
$DIMDLI
 40
0.4443307087
  9
$DIMRND
 40
0.0
  9
$DIMDLE
 40
0.0
  9
$DIMEXE
 40
0.125
  9
$DIMTP
 40
0.01
  9
$DIMTM
 40
0.01
  9
$DIMTXT
 40
2.0
  9
$DIMCEN
 40
0.1052362205
  9
$DIMTSZ
 40
0.0
  9
$DIMTOL
 70
     1
  9
$DIMLIM
 70
     0
  9
$DIMTIH
 70
     1
  9
$DIMTOH
 70
     1
  9
$DIMSE1
 70
     0
  9
$DIMSE2
 70
     0
  9
$DIMTAD
 70
     0
  9
$DIMZIN
 70
     0
  9
$DIMBLK
  1

  9
$DIMASO
 70
     1
  9
$DIMSHO
 70
     1
  9
$DIMPOST
  1
\X
  9
$DIMAPOST
  1

  9
$DIMALT
 70
     1
  9
$DIMALTD
 70
     2
  9
$DIMALTF
 40
25.3999999999999986
  9
$DIMLFAC
 40
1.0
  9
$DIMTOFL
 70
     0
  9
$DIMTVP
 40
0.0
  9
$DIMTIX
 70
     0
  9
$DIMSOXD
 70
     0
  9
$DIMSAH
 70
     0
  9
$DIMBLK1
  1

  9
$DIMBLK2
  1

  9
$DIMSTYLE
  2
STANDARD
  9
$DIMCLRD
 70
     0
  9
$DIMCLRE
 70
     0
  9
$DIMCLRT
 70
     0
  9
$DIMTFAC
 40
1.0
  9
$DIMGAP
 40
0.09
  9
$LUNITS
 70
     2
  9
$LUPREC
 70
     4
  9
$SKETCHINC
 40
0.1
  9
$FILLETRAD
 40
0.0
  9
$AUNITS
 70
     0
  9
$AUPREC
 70
     0
  9
$MENU
  1
.
  9
$ELEVATION
 40
0.0
  9
$PELEVATION
 40
0.0
  9
$THICKNESS
 40
0.0
  9
$LIMCHECK
 70
     0
  9
$BLIPMODE
 70
     0
  9
$CHAMFERA
 40
0.0
  9
$CHAMFERB
 40
0.0
  9
$SKPOLY
 70
     0
  9
$TDCREATE
 40
2458060.468368056230247
  9
$TDUPDATE
 40
2459132.5201504630967975
  9
$TDINDWG
 40
0.4250649306
  9
$TDUSRTIMER
 40
0.4250649306
  9
$USRTIMER
 70
     1
  9
$ANGBASE
 50
0.0
  9
$ANGDIR
 70
     0
  9
$PDMODE
 70
     0
  9
$PDSIZE
 40
0.3125
  9
$PLINEWID
 40
0.0
  9
$COORDS
 70
     1
  9
$SPLFRAME
 70
     0
  9
$SPLINETYPE
 70
     6
  9
$SPLINESEGS
 70
     8
  9
$ATTDIA
 70
     1
  9
$ATTREQ
 70
     1
  9
$HANDLING
 70
     1
  9
$HANDSEED
  5
17475
  9
$SURFTAB1
 70
     6
  9
$SURFTAB2
 70
     6
  9
$SURFTYPE
 70
     6
  9
$SURFU
 70
     6
  9
$SURFV
 70
     6
  9
$UCSNAME
  2

  9
$UCSORG
 10
0.0
 20
0.0
 30
0.0
  9
$UCSXDIR
 10
1.0
 20
0.0
 30
0.0
  9
$UCSYDIR
 10
0.0
 20
1.0
 30
0.0
  9
$PUCSNAME
  2

  9
$PUCSORG
 10
0.0
 20
0.0
 30
0.0
  9
$PUCSXDIR
 10
1.0
 20
0.0
 30
0.0
  9
$PUCSYDIR
 10
0.0
 20
1.0
 30
0.0
  9
$USERI1
 70
     0
  9
$USERI2
 70
     0
  9
$USERI3
 70
     0
  9
$USERI4
 70
     0
  9
$USERI5
 70
     0
  9
$USERR1
 40
0.0
  9
$USERR2
 40
0.0
  9
$USERR3
 40
0.0
  9
$USERR4
 40
0.0
  9
$USERR5
 40
0.0
  9
$WORLDVIEW
 70
     1
  9
$SHADEDGE
 70
     3
  9
$SHADEDIF
 70
    70
  9
$TILEMODE
 70
     1
  9
$MAXACTVP
 70
    64
  9
$PLIMCHECK
 70
     0
  9
$PEXTMIN
 10
1.0000000000000000E+20
 20
1.0000000000000000E+20
 30
1.0000000000000000E+20
  9
$PEXTMAX
 10
-1.0000000000000000E+20
 20
-1.0000000000000000E+20
 30
-1.0000000000000000E+20
  9
$PLIMMIN
 10
0.0
 20
0.0
  9
$PLIMMAX
 10
12.0
 20
9.0
  9
$UNITMODE
 70
     0
  9
$VISRETAIN
 70
     1
  9
$PLINEGEN
 70
     0
  9
$PSLTSCALE
 70
     1
  0
ENDSEC
  0
SECTION
  2
TABLES
  0
TABLE
  2
VPORT
 70
     1
  0
VPORT
  2
*ACTIVE
 70
     0
 10
0.0
 20
0.0
 11
1.0
 21
1.0
 12
296.5232692241198151
 22
-0.1133970946944025
 13
0.0
 23
0.0
 14
1.0
 24
1.0
 15
0.0
 25
0.0
 16
0.0
 26
0.0
 36
60.4960186965801583
 17
3911.3653564453120453
 27
132.5796051025390057
 37
0.0
 40
25.0102214260836995
 41
1.8525498891352541
 42
50.0
 43
0.0
 44
0.0
 50
0.0
 51
0.0
 71
     0
 72
   100
 73
     1
 74
     1
 75
     0
 76
     0
 77
     0
 78
     0
  0
ENDTAB
  0
TABLE
  2
LTYPE
 70
     2
  0
LTYPE
  2
CONTINUOUS
 70
     0
  3
Solid line
 72
    65
 73
     0
 40
0.0
  0
LTYPE
  2
PHANTOM2
 70
     0
  3
___ _ _ ___ _ _ ___ _ _ ___ _ _
 72
    65
 73
     6
 40
1.25
 49
0.625
 49
-0.125
 49
0.125
 49
-0.125
 49
0.125
 49
-0.125
  0
ENDTAB
  0
TABLE
  2
LAYER
 70
     2
  0
LAYER
  2
0
 70
     0
 62
   255
  6
CONTINUOUS
  0
LAYER
  2
DEFPOINTS
 70
     0
 62
     7
  6
CONTINUOUS
  0
ENDTAB
  0
TABLE
  2
STYLE
 70
     1
  0
STYLE
  2
STANDARD
 70
     0
 40
0.0
 41
0.8
 50
0.0
 71
     0
 42
0.2
  3
txt
  4

  0
ENDTAB
  0
TABLE
  2
VIEW
 70
     0
  0
ENDTAB
  0
TABLE
  2
UCS
 70
     0
  0
ENDTAB
  0
TABLE
  2
APPID
 70
    11
  0
APPID
  2
ACAD
 70
     0
  0
APPID
  2
ACAD_MLEADERVER
 70
     0
  0
APPID
  2
ACAD_EXEMPT_FROM_CAD_STANDARDS
 70
     0
  0
APPID
  2
ACAD_NAV_VCDISPLAY
 70
     0
  0
APPID
  2
ACAECLAYERSTANDARD
 70
     0
  0
APPID
  2
ACCMTRANSPARENCY
 70
     0
  0
APPID
  2
ACAD_DSTYLE_DIMJAG
 70
     0
  0
APPID
  2
ACAD_DSTYLE_DIMTALN
 70
     0
  0
APPID
  2
ACDBATTR
 70
     0
  0
APPID
  2
ACADANNOTATIVE
 70
     0
  0
APPID
  2
DCO15
 70
     0
  0
ENDTAB
  0
TABLE
  2
DIMSTYLE
 70
     1
  0
DIMSTYLE
  2
STANDARD
 70
     0
  3

  4

  5

  6

  7

 40
1.0
 41
0.1875
 42
0.0625
 43
0.38
 44
0.125
 45
0.0
 46
0.0
 47
0.01
 48
0.01
140
0.15625
141
0.09
142
0.0
143
25.3999999999999986
144
1.0
145
0.0
146
1.0
147
0.09
 71
     1
 72
     0
 73
     1
 74
     1
 75
     0
 76
     0
 77
     0
 78
     4
170
     0
171
     2
172
     0
173
     0
174
     0
175
     0
176
     0
177
     0
178
     0
  0
ENDTAB
  0
ENDSEC
  0
SECTION
  2
BLOCKS
  0
BLOCK
  8
0
  2
$MODEL_SPACE
 70
     0
 10
0.0
 20
0.0
 30
0.0
  3
$MODEL_SPACE
  1

  0
ENDBLK
  5
21
  8
0
  0
BLOCK
 67
     1
  8
0
  2
$PAPER_SPACE
 70
     0
 10
0.0
 20
0.0
 30
0.0
  3
$PAPER_SPACE
  1

  0
ENDBLK
  5
1D
 67
     1
  8
0
  0
ENDSEC
  0
SECTION
  2
ENTITIES
  0
LINE
  5
17237
  8
0
 10
4191.3559890586948313
 20
125.1872490137283052
 30
0.0
 11
4191.3559890586948313
 21
139.7489841411282896
 31
0.0
  0
ARC
  5
17238
  8
0
 10
4193.3424890586948095
 20
125.1872490137283052
 30
0.0
 40
1.986499999999999
 50
180.0
 51
270.0
  0
LINE
  5
17239
  8
0
 10
4192.8940129945940498
 20
125.4272729579345054
 30
0.0
 11
4192.8940129987940963
 21
139.5079651824414952
 31
0.0
  0
ARC
  5
1723A
  8
0
 10
4193.5825129945942535
 20
125.4272729577291017
 30
0.0
 40
0.6885
 50
179.9999999829061892
 51
269.9999999669100248
  0
LINE
  5
1723B
  8
0
 10
4222.4042241915949489
 20
123.2007490137282986
 30
0.0
 11
4193.3424890586948095
 21
123.2007490137282986
 31
0.0
  0
ARC
  5
1723C
  8
0
 10
4222.4042241915949489
 20
125.1872490137283052
 30
0.0
 40
1.986499999999999
 50
270.0
 51
0.0
  0
LINE
  5
1723D
  8
0
 10
4222.1632052233280774
 20
124.7387729538280041
 30
0.0
 11
4211.3328711657259191
 21
124.7387729564284058
 31
0.0
  0
ARC
  5
1723E
  8
0
 10
4222.1632052234936054
 20
125.4272729538279947
 30
0.0
 40
0.6885
 50
269.9999999862429263
 51
359.9999999537408257
  0
LINE
  5
1723F
  8
0
 10
4207.7929482092658873
 20
124.7387729495281974
 30
0.0
 11
4193.5825129941958949
 21
124.7387729577290969
 31
0.0
  0
LINE
  5
17240
  8
0
 10
4215.3855839349698726
 20
137.6372612100510082
 30
0.0
 11
4222.1632052343220494
 21
137.6372611950253884
 31
0.0
  0
LINE
  5
17241
  8
0
 10
4193.5825130028033527
 20
140.1964651822360963
 30
0.0
 11
4204.044334772664115
 21
140.1964651213365869
 31
0.0
  0
ARC
  5
17242
  8
0
 10
4193.5825129987952096
 20
139.5079651822360916
 30
0.0
 40
0.6885
 50
89.9999996664946593
 51
179.9999999829061892
  0
LINE
  5
17243
  8
0
 10
4193.3424890586948095
 20
141.7354841411284099
 30
0.0
 11
4222.4042241915949489
 21
141.7354841411284099
 31
0.0
  0
ARC
  5
17244
  8
0
 10
4193.3424890586948095
 20
139.7489841411282896
 30
0.0
 40
1.986499999999999
 50
90.0
 51
180.0
  0
LINE
  5
17245
  8
0
 10
4222.851705232796121
 20
136.9487611944695118
 30
0.0
 11
4222.8517052234938092
 21
125.4272729532721939
 31
0.0
  0
ARC
  5
17246
  8
0
 10
4222.1632052327959173
 20
136.948761195025412
 30
0.0
 40
0.6885
 50
359.9999999537408257
 51
89.9999998729553141
  0
LINE
  5
17247
  8
0
 10
4224.3907241915949271
 20
139.7489841411282896
 30
0.0
 11
4224.3907241915949271
 21
125.1872490137283052
 31
0.0
  0
ARC
  5
17248
  8
0
 10
4222.4042241915949489
 20
139.7489841411282896
 30
0.0
 40
1.986499999999999
 50
0.0
 51
90.0
  0
ARC
  5
17249
  8
0
 10
2023.2277194189950933
 20
131.1880950810283082
 30
0.0
 40
2187.4242352522001056
 50
359.8491525732355854
 51
0.0448209379311852
  0
ARC
  5
1724A
  8
0
 10
4215.3855839244752133
 20
132.9029612100509894
 30
0.0
 40
4.7343000000000002
 50
89.9999998729553141
 51
180.0448209379310924
  0
ARC
  5
1724B
  8
0
 10
4211.3328711658923567
 20
125.4272729564283964
 30
0.0
 40
0.6885
 50
179.8491525732185892
 51
269.9999999862429263
  0
CIRCLE
  5
1724C
  8
0
 10
4204.0629088624946235
 20
135.777818071228296
 30
0.0
 40
1.8069999999999999
  0
CIRCLE
  5
1724D
  8
0
 10
4204.0629088624946235
 20
135.777818071228296
 30
0.0
 40
1.523301930099999
  0
ARC
  5
1724E
  8
0
 10
6395.9067413155953545
 20
131.1886592106282876
 30
0.0
 40
2187.4328780666000966
 50
179.8804476936230117
 51
180.150861602853297
  0
ARC
  5
1724F
  8
0
 10
4204.0443347468508364
 20
135.7621651213366079
 30
0.0
 40
4.4343000000000004
 50
359.8804476936238075
 51
89.9999996664946593
  0
ARC
  5
17250
  8
0
 10
4207.7929482096633365
 20
125.4272729495282022
 30
0.0
 40
0.6885
 50
269.9999999669100248
 51
0.1508616028761459
  0
CIRCLE
  5
17251
  8
0
 10
4215.0629088666937605
 20
133.2176190652282912
 30
0.0
 40
1.8069999999999999
  0
CIRCLE
  5
17252
  8
0
 10
4215.0629088666937605
 20
133.2176190652282912
 30
0.0
 40
1.523301930099999
  0
CIRCLE
  5
17253
  8
0
 10
4209.8728591134940871
 20
139.71811658012831
 30
0.0
 40
0.6900497515000001
  0
LINE
  5
17254
  8
0
 10
4193.8034976247172381
 20
124.9571422353341035
 30
0.0
 11
4207.5689908318427115
 21
124.9616463917633951
 31
0.0
  0
ARC
  5
17255
  8
0
 10
4207.5687647650056533
 20
125.6525463547780959
 30
0.0
 40
0.6909
 50
270.0187475407437887
 51
0.0510007064259332
  0
LINE
  5
17256
  8
0
 10
4193.1123715932862979
 20
125.6482633828947968
 30
0.0
 11
4193.1167366304562165
 21
139.2830497289847926
 31
0.0
  0
ARC
  5
17257
  8
0
 10
4193.8032715578801799
 20
125.6480421983489038
 30
0.0
 40
0.6909
 50
179.9816573437653915
 51
270.0187475407437887
  0
LINE
  5
17258
  8
0
 10
4193.8082539609940795
 20
139.9737282686097046
 30
0.0
 11
4203.5210677288250736
 21
139.9650492082199946
 31
0.0
  0
ARC
  5
17259
  8
0
 10
4193.8076365950500985
 20
139.2828285444388996
 30
0.0
 40
0.6909
 50
89.9488023337227389
 51
179.9816573437653915
  0
LINE
  5
1725A
  8
0
 10
4208.2596644912937336
 20
125.6531613456852057
 30
0.0
 11
4208.2508746046478336
 21
135.5279907254551972
 31
0.0
  0
ARC
  5
1725B
  8
0
 10
4203.507239716949698
 20
135.2108444938535001
 30
0.0
 40
4.7542248243027414
 50
3.8249441727060138
 51
89.8333507846252957
  0
LINE
  5
1725C
  8
0
 10
4215.6053386046269225
 20
137.4058121603555946
 30
0.0
 11
4221.9337235394896197
 21
137.4107136013209072
 31
0.0
  0
ARC
  5
1725D
  8
0
 10
4215.6090053988000363
 20
132.6715135803524106
 30
0.0
 40
4.7343000000000002
 50
90.0443765396140776
 51
179.9538760604762899
  0
LINE
  5
1725E
  8
0
 10
4210.8747069328283033
 20
132.6753247606025923
 30
0.0
 11
4210.8690562774900172
 21
125.656006035041699
 31
0.0
  0
ARC
  5
1725F
  8
0
 10
4211.5599560536220451
 20
125.655449850508603
 30
0.0
 40
0.6909
 50
179.9538760604762899
 51
269.9872943487246744
  0
LINE
  5
17260
  8
0
 10
4211.5598028427839381
 20
124.9645498674963022
 30
0.0
 11
4221.9371653129746846
 21
124.962248630786803
 31
0.0
  0
ARC
  5
17261
  8
0
 10
4221.9373185238127917
 20
125.6531486137991038
 30
0.0
 40
0.6909
 50
269.9872943487246744
 51
0.0158419608255559
  0
LINE
  5
17262
  8
0
 10
4222.6282184974033953
 20
125.6533396437612993
 30
0.0
 11
4222.625158626632583
 21
136.7200048385103059
 31
0.0
  0
ARC
  5
17263
  8
0
 10
4221.9342586530428889
 20
136.7198138085481105
 30
0.0
 40
0.6909
 50
0.0158419608255559
 51
90.0443765396140776
  0
POINT
  5
17265
  8
DEFPOINTS
 10
4209.8728591134940871
 20
139.71811658012831
 30
0.0
  0
ATTDEF
  5
17266
  8
DEFPOINTS
 10
4207.8735621742298463
 20
132.4668137017241918
 30
0.0
 40
0.001
  1
17251T-1S
  3

  2
MODELNUMBER
 70
     0
1001
ACDBATTR
1070
     0
1070
     1
  0
ATTDEF
  5
17267
  8
DEFPOINTS
 10
4207.8734363645726262
 20
132.4651468613450049
 30
0.0
 40
0.001
  1
EXECUTIVE CHEF
  3

  2
TRADENAME
 70
     0
1001
ACDBATTR
1070
     0
1070
     1
  0
ATTDEF
  5
17268
  8
DEFPOINTS
 10
4207.8735621742298463
 20
132.4634803683908899
 30
0.0
 40
0.001
  1
KITCHEN SINK
  3

  2
PRODUCT
 70
     0
1001
ACDBATTR
1070
     0
1070
     1
  0
ENDSEC
  0
EOF
