  0
SECTION
  2
HEADER
  9
$ACADVER
  1
AC1009
  9
$INSBASE
 10
4147.6142671749221336
 20
143.5071889236766935
 30
0.0
  9
$EXTMIN
 10
4144.9179817826388899
 20
143.5016255659994897
 30
0.0
  9
$EXTMAX
 10
4150.3105525672026488
 20
153.3521853560172019
 30
0.0
  9
$LIMMIN
 10
0.0
 20
0.0
  9
$LIMMAX
 10
11.6929133858000007
 20
8.2677165353999982
  9
$ORTHOMODE
 70
     0
  9
$REGENMODE
 70
     1
  9
$FILLMODE
 70
     1
  9
$QTEXTMODE
 70
     0
  9
$MIRRTEXT
 70
     0
  9
$DRAGMODE
 70
     2
  9
$LTSCALE
 40
0.6431102362
  9
$OSMODE
 70
  4095
  9
$ATTMODE
 70
     1
  9
$TEXTSIZE
 40
0.2
  9
$TRACEWID
 40
0.05
  9
$TEXTSTYLE
  7
STANDARD
  9
$CLAYER
  8
0
  9
$CELTYPE
  6
BYLAYER
  9
$CECOLOR
 62
   256
  9
$DIMSCALE
 40
1.0
  9
$DIMASZ
 40
0.1875
  9
$DIMEXO
 40
0.0625
  9
$DIMDLI
 40
0.4443307087
  9
$DIMRND
 40
0.0
  9
$DIMDLE
 40
0.0
  9
$DIMEXE
 40
0.125
  9
$DIMTP
 40
0.01
  9
$DIMTM
 40
0.01
  9
$DIMTXT
 40
2.0
  9
$DIMCEN
 40
0.1052362205
  9
$DIMTSZ
 40
0.0
  9
$DIMTOL
 70
     1
  9
$DIMLIM
 70
     0
  9
$DIMTIH
 70
     1
  9
$DIMTOH
 70
     1
  9
$DIMSE1
 70
     0
  9
$DIMSE2
 70
     0
  9
$DIMTAD
 70
     0
  9
$DIMZIN
 70
     0
  9
$DIMBLK
  1

  9
$DIMASO
 70
     1
  9
$DIMSHO
 70
     1
  9
$DIMPOST
  1
\X
  9
$DIMAPOST
  1

  9
$DIMALT
 70
     1
  9
$DIMALTD
 70
     2
  9
$DIMALTF
 40
25.3999999999999986
  9
$DIMLFAC
 40
1.0
  9
$DIMTOFL
 70
     0
  9
$DIMTVP
 40
0.0
  9
$DIMTIX
 70
     0
  9
$DIMSOXD
 70
     0
  9
$DIMSAH
 70
     0
  9
$DIMBLK1
  1

  9
$DIMBLK2
  1

  9
$DIMSTYLE
  2
STANDARD
  9
$DIMCLRD
 70
     0
  9
$DIMCLRE
 70
     0
  9
$DIMCLRT
 70
     0
  9
$DIMTFAC
 40
1.0
  9
$DIMGAP
 40
0.09
  9
$LUNITS
 70
     2
  9
$LUPREC
 70
     4
  9
$SKETCHINC
 40
0.1
  9
$FILLETRAD
 40
0.0
  9
$AUNITS
 70
     0
  9
$AUPREC
 70
     0
  9
$MENU
  1
.
  9
$ELEVATION
 40
0.0
  9
$PELEVATION
 40
0.0
  9
$THICKNESS
 40
0.0
  9
$LIMCHECK
 70
     0
  9
$BLIPMODE
 70
     0
  9
$CHAMFERA
 40
0.0
  9
$CHAMFERB
 40
0.0
  9
$SKPOLY
 70
     0
  9
$TDCREATE
 40
2458060.468368056230247
  9
$TDUPDATE
 40
2459081.7592361117713153
  9
$TDINDWG
 40
0.3311528935
  9
$TDUSRTIMER
 40
0.3311528935
  9
$USRTIMER
 70
     1
  9
$ANGBASE
 50
0.0
  9
$ANGDIR
 70
     0
  9
$PDMODE
 70
     0
  9
$PDSIZE
 40
0.3125
  9
$PLINEWID
 40
0.0
  9
$COORDS
 70
     1
  9
$SPLFRAME
 70
     0
  9
$SPLINETYPE
 70
     6
  9
$SPLINESEGS
 70
     8
  9
$ATTDIA
 70
     1
  9
$ATTREQ
 70
     1
  9
$HANDLING
 70
     1
  9
$HANDSEED
  5
8166
  9
$SURFTAB1
 70
     6
  9
$SURFTAB2
 70
     6
  9
$SURFTYPE
 70
     6
  9
$SURFU
 70
     6
  9
$SURFV
 70
     6
  9
$UCSNAME
  2

  9
$UCSORG
 10
0.0
 20
0.0
 30
0.0
  9
$UCSXDIR
 10
1.0
 20
0.0
 30
0.0
  9
$UCSYDIR
 10
0.0
 20
1.0
 30
0.0
  9
$PUCSNAME
  2

  9
$PUCSORG
 10
0.0
 20
0.0
 30
0.0
  9
$PUCSXDIR
 10
1.0
 20
0.0
 30
0.0
  9
$PUCSYDIR
 10
0.0
 20
1.0
 30
0.0
  9
$USERI1
 70
     0
  9
$USERI2
 70
     0
  9
$USERI3
 70
     0
  9
$USERI4
 70
     0
  9
$USERI5
 70
     0
  9
$USERR1
 40
0.0
  9
$USERR2
 40
0.0
  9
$USERR3
 40
0.0
  9
$USERR4
 40
0.0
  9
$USERR5
 40
0.0
  9
$WORLDVIEW
 70
     1
  9
$SHADEDGE
 70
     3
  9
$SHADEDIF
 70
    70
  9
$TILEMODE
 70
     1
  9
$MAXACTVP
 70
    64
  9
$PLIMCHECK
 70
     0
  9
$PEXTMIN
 10
1.0000000000000000E+20
 20
1.0000000000000000E+20
 30
1.0000000000000000E+20
  9
$PEXTMAX
 10
-1.0000000000000000E+20
 20
-1.0000000000000000E+20
 30
-1.0000000000000000E+20
  9
$PLIMMIN
 10
0.0
 20
0.0
  9
$PLIMMAX
 10
12.0
 20
9.0
  9
$UNITMODE
 70
     0
  9
$VISRETAIN
 70
     1
  9
$PLINEGEN
 70
     0
  9
$PSLTSCALE
 70
     1
  0
ENDSEC
  0
SECTION
  2
TABLES
  0
TABLE
  2
VPORT
 70
     1
  0
VPORT
  2
*ACTIVE
 70
     0
 10
0.0
 20
0.0
 11
1.0
 21
1.0
 12
72.0037935421091788
 22
22.461222477609919
 13
0.0
 23
0.0
 14
1.0
 24
1.0
 15
0.0
 25
0.0
 16
0.0
 26
0.0
 36
53.3788880271138382
 17
4075.6104736328129547
 27
125.9656829833983949
 37
0.0
 40
9.9122543189740071
 41
2.005224660397074
 42
50.0
 43
0.0
 44
0.0
 50
0.0
 51
0.0
 71
     0
 72
   100
 73
     1
 74
     1
 75
     0
 76
     0
 77
     0
 78
     0
  0
ENDTAB
  0
TABLE
  2
LTYPE
 70
     2
  0
LTYPE
  2
CONTINUOUS
 70
     0
  3
Solid line
 72
    65
 73
     0
 40
0.0
  0
LTYPE
  2
PHANTOM2
 70
     0
  3
___ _ _ ___ _ _ ___ _ _ ___ _ _
 72
    65
 73
     6
 40
1.25
 49
0.625
 49
-0.125
 49
0.125
 49
-0.125
 49
0.125
 49
-0.125
  0
ENDTAB
  0
TABLE
  2
LAYER
 70
     2
  0
LAYER
  2
0
 70
     0
 62
   255
  6
CONTINUOUS
  0
LAYER
  2
DEFPOINTS
 70
     0
 62
     7
  6
CONTINUOUS
  0
ENDTAB
  0
TABLE
  2
STYLE
 70
     1
  0
STYLE
  2
STANDARD
 70
     0
 40
0.0
 41
0.8
 50
0.0
 71
     0
 42
0.2
  3
txt
  4

  0
ENDTAB
  0
TABLE
  2
VIEW
 70
     0
  0
ENDTAB
  0
TABLE
  2
UCS
 70
     0
  0
ENDTAB
  0
TABLE
  2
APPID
 70
     9
  0
APPID
  2
ACAD
 70
     0
  0
APPID
  2
ACAD_MLEADERVER
 70
     0
  0
APPID
  2
ACAD_EXEMPT_FROM_CAD_STANDARDS
 70
     0
  0
APPID
  2
ACAD_NAV_VCDISPLAY
 70
     0
  0
APPID
  2
ACAECLAYERSTANDARD
 70
     0
  0
APPID
  2
ACCMTRANSPARENCY
 70
     0
  0
APPID
  2
ACAD_DSTYLE_DIMJAG
 70
     0
  0
APPID
  2
ACAD_DSTYLE_DIMTALN
 70
     0
  0
APPID
  2
ACDBATTR
 70
     0
  0
ENDTAB
  0
TABLE
  2
DIMSTYLE
 70
     1
  0
DIMSTYLE
  2
STANDARD
 70
     0
  3

  4

  5

  6

  7

 40
1.0
 41
0.1875
 42
0.0625
 43
0.38
 44
0.125
 45
0.0
 46
0.0
 47
0.01
 48
0.01
140
0.15625
141
0.09
142
0.0
143
25.3999999999999986
144
1.0
145
0.0
146
1.0
147
0.09
 71
     1
 72
     0
 73
     1
 74
     1
 75
     0
 76
     0
 77
     0
 78
     4
170
     0
171
     2
172
     0
173
     0
174
     0
175
     0
176
     0
177
     0
178
     0
  0
ENDTAB
  0
ENDSEC
  0
SECTION
  2
BLOCKS
  0
BLOCK
  8
0
  2
$MODEL_SPACE
 70
     0
 10
0.0
 20
0.0
 30
0.0
  3
$MODEL_SPACE
  1

  0
ENDBLK
  5
21
  8
0
  0
BLOCK
 67
     1
  8
0
  2
$PAPER_SPACE
 70
     0
 10
0.0
 20
0.0
 30
0.0
  3
$PAPER_SPACE
  1

  0
ENDBLK
  5
1D
 67
     1
  8
0
  0
ENDSEC
  0
SECTION
  2
ENTITIES
  0
ATTDEF
  5
3930
  8
DEFPOINTS
 10
4147.6083523237275585
 20
143.5049588993327916
 30
0.0
 40
0.001
  1
K-17493T
  3

  2
MODELNUMBER
 70
     0
1001
ACDBATTR
1070
     0
1070
     1
  0
ATTDEF
  5
3931
  8
DEFPOINTS
 10
4147.6083523237275585
 20
143.503292232666098
 30
0.0
 40
0.001
  1
FLIPSIDE
  3

  2
TRADENAME
 70
     0
1001
ACDBATTR
1070
     0
1070
     1
  0
ATTDEF
  5
3932
  8
DEFPOINTS
 10
4147.6083523237275585
 20
143.5016255659994897
 30
0.0
 40
0.001
  1
HANDSHOWER
  3

  2
PRODUCT
 70
     0
1001
ACDBATTR
1070
     0
1070
     1
  0
LINE
  5
7956
  8
0
 10
4147.2017671684388915
 20
143.6100657029124079
 30
0.0
 11
4147.2017671684388915
 21
143.6356838545781045
 31
0.0
  0
LINE
  5
7957
  8
0
 10
4147.2017671684388915
 20
143.6746324379444957
 30
0.0
 11
4147.2017671684388915
 21
143.7001333820346076
 31
0.0
  0
LINE
  5
7958
  8
0
 10
4147.2017671684388915
 20
143.7392650002348944
 30
0.0
 11
4147.2017671684388915
 21
143.7646873829970957
 31
0.0
  0
LINE
  5
7959
  8
0
 10
4147.2017671684388915
 20
143.8039022379824985
 30
0.0
 11
4147.2017671684388915
 21
143.8293437900657068
 31
0.0
  0
LINE
  5
795A
  8
0
 10
4147.2017671684388915
 20
143.571126084383593
 30
0.0
 11
4147.2017671684388915
 21
143.5673267189766875
 31
0.0
  0
LINE
  5
795B
  8
0
 10
4147.227181623055003
 20
143.8537323155146908
 30
0.0
 11
4147.2137132106099671
 21
143.8615188289711
 31
0.0
  0
LINE
  5
795C
  8
0
 10
4147.2271815409758347
 20
143.844036065253988
 30
0.0
 11
4147.2017671684388915
 21
143.8293437900657068
 31
0.0
  0
LINE
  5
795D
  8
0
 10
4147.2272900068901436
 20
143.7891425638484009
 30
0.0
 11
4147.2017671684388915
 21
143.8039022379824985
 31
0.0
  0
LINE
  5
795E
  8
0
 10
4147.2272900042853507
 20
143.779447037324104
 30
0.0
 11
4147.2017671684388915
 21
143.7646873829970957
 31
0.0
  0
LINE
  5
795F
  8
0
 10
4147.2272225371780223
 20
143.7245472520781959
 30
0.0
 11
4147.2017671684388915
 21
143.7392650002348944
 31
0.0
  0
LINE
  5
7960
  8
0
 10
4147.2272225538436032
 20
143.7148512565883891
 30
0.0
 11
4147.2017671684388915
 21
143.7001333820346076
 31
0.0
  0
LINE
  5
7961
  8
0
 10
4147.2270736128102726
 20
143.660006820720497
 30
0.0
 11
4147.2017671684388915
 21
143.6746324379444957
 31
0.0
  0
LINE
  5
7962
  8
0
 10
4147.2270736621248943
 20
143.6503098436710957
 30
0.0
 11
4147.2017671684388915
 21
143.6356838545781045
 31
0.0
  0
LINE
  5
7963
  8
0
 10
4147.2270801177874091
 20
143.5954356949511066
 30
0.0
 11
4147.2017671684388915
 21
143.6100657029124079
 31
0.0
  0
LINE
  5
7964
  8
0
 10
4147.2270776329105502
 20
143.5857373588439998
 30
0.0
 11
4147.2017671684388915
 21
143.571126084383593
 31
0.0
  0
LINE
  5
7965
  8
0
 10
4147.2017671684388915
 20
143.5673267189766875
 30
0.0
 11
4147.2619049637387434
 21
143.5071889236766935
 31
0.0
  0
ARC
  5
7966
  8
0
 10
4147.2243787829293069
 20
143.8488842141098871
 30
0.0
 40
0.0056
 50
300.0325894487793903
 51
59.9664405415112824
  0
ARC
  5
7967
  8
0
 10
4147.2244865806542293
 20
143.784294801339513
 30
0.0
 40
0.0056
 50
300.0404556723307223
 51
59.9595135406001418
  0
ARC
  5
7968
  8
0
 10
4147.2244195260918787
 20
143.719699249515287
 30
0.0
 40
0.0056
 50
300.0357768953517166
 51
59.9644200703150432
  0
ARC
  5
7969
  8
0
 10
4147.2242714670546775
 20
143.6551583179453075
 30
0.0
 40
0.0056
 50
300.0259363697778099
 51
59.9746463875029008
  0
ARC
  5
796A
  8
0
 10
4147.2242778813943005
 20
143.5905872445588898
 30
0.0
 40
0.0056
 50
299.9970644086018865
 51
59.9735753251579595
  0
LINE
  5
796B
  8
0
 10
4146.9938615089622544
 20
143.8615188289711
 30
0.0
 11
4148.234672840906569
 21
143.8615188289711
 31
0.0
  0
LINE
  5
796C
  8
0
 10
4147.2619049637387434
 20
143.5071889236766935
 30
0.0
 11
4147.9666293731388578
 21
143.5071889236766935
 31
0.0
  0
ARC
  5
796E
  8
0
 10
4421.1162013037901488
 20
158.6767213422027964
 30
0.0
 40
274.5969803585953173
 50
182.9458046944714908
 51
183.077172181242787
  0
ARC
  5
796F
  8
0
 10
4196.4605242209763674
 20
147.1160881247724035
 30
0.0
 40
49.644048646368141
 50
181.4344418235428975
 51
182.945804694470695
  0
ARC
  5
7970
  8
0
 10
4155.7016942610498518
 20
146.0954477001228042
 30
0.0
 40
8.8724417786170289
 50
172.69030794667691
 51
181.4344418235428975
  0
ARC
  5
7971
  8
0
 10
4131.52258090291798
 20
149.1970208637652036
 30
0.0
 40
15.5047869169269994
 50
352.6903079466770237
 51
355.9539337990365198
  0
ARC
  5
7972
  8
0
 10
4144.3013911165071477
 20
148.2931143324285017
 30
0.0
 40
2.6940477699331389
 50
355.9539337990365198
 51
5.8944369099960614
  0
ARC
  5
7973
  8
0
 10
4146.0485160311745858
 20
148.4974088161650911
 30
0.0
 40
0.9354826388886479
 50
4.4371042374662313
 51
51.07295537130139
  0
ARC
  5
7974
  8
0
 10
4141.8239787574866568
 20
142.9399906720680917
 30
0.0
 40
7.9159284356423489
 50
52.5600304416299409
 51
58.5698496087061784
  0
ARC
  5
7975
  8
0
 10
4147.4903309406681728
 20
152.0960738241626871
 30
0.0
 40
2.8521515907187331
 50
221.3396371069975999
 51
237.3554854073265119
  0
ARC
  5
7976
  8
0
 10
4146.7223191991297426
 20
151.3982478405563938
 30
0.0
 40
1.8146701767851281
 50
197.0749743412019086
 51
220.8140916538067131
  0
ARC
  5
7977
  8
0
 10
4146.4963851416760008
 20
151.3291428553982882
 30
0.0
 40
1.578404210433398
 50
180.0595106147142133
 51
197.085155182054109
  0
ARC
  5
7978
  8
0
 10
4146.4578115521517248
 20
151.3218738978343936
 30
0.0
 40
1.5398400601304709
 50
153.5287911928367919
 51
179.7905305045605928
  0
ARC
  5
7979
  8
0
 10
4147.0032875677652555
 20
151.0311328837134113
 30
0.0
 40
2.1577926446580369
 50
121.1351080633924937
 51
153.0743482418907888
  0
ARC
  5
797A
  8
0
 10
4147.4396882580585952
 20
150.3947152670666014
 30
0.0
 40
2.9285166992637812
 50
109.4983425326357036
 51
122.0052378639610993
  0
ARC
  5
797B
  8
0
 10
4147.5950188573187916
 20
149.9632657609458875
 30
0.0
 40
3.3870701148041711
 50
97.9226289376901349
 51
109.5391698526326962
  0
ARC
  5
797C
  8
0
 10
4147.61687236887974
 20
149.8412050083015004
 30
0.0
 40
3.510981314259769
 50
90.0425142200913626
 51
98.0012962463007256
  0
ARC
  5
797D
  8
0
 10
4147.6277507715385582
 20
148.9492346754489063
 30
0.0
 40
3.781876551073462
 50
90.2042781685691466
 51
93.5036799137007364
  0
ARC
  5
797E
  8
0
 10
4147.5959103507930195
 20
149.4692728180498023
 30
0.0
 40
3.2608645721776299
 50
93.5036799137007364
 51
104.3393472550427958
  0
ARC
  5
797F
  8
0
 10
4147.4960631476478738
 20
149.8598680964146013
 30
0.0
 40
2.8577093471624759
 50
104.3393472550427958
 51
120.9173703331928067
  0
ARC
  5
7980
  8
0
 10
4146.9765340691601523
 20
150.7273409991624078
 30
0.0
 40
1.8465616327333061
 50
120.9173703331928067
 51
148.3767443591974882
  0
ARC
  5
7981
  8
0
 10
4146.4495147038751384
 20
151.0771429302835998
 30
0.0
 40
1.2145757836353761
 50
149.3923680756138026
 51
179.5877939720587904
  0
ARC
  5
7982
  8
0
 10
4146.4907867919591808
 20
151.0988555802427982
 30
0.0
 40
1.255883462259503
 50
180.5919381144989018
 51
216.4494763089552123
  0
ARC
  5
7983
  8
0
 10
4147.0510775555439977
 20
151.5125922458917103
 30
0.0
 40
1.9523773708413581
 50
216.4472904313774961
 51
245.4798251864312135
  0
ARC
  5
7984
  8
0
 10
4147.5395276618255593
 20
152.4309829394395877
 30
0.0
 40
2.9913254968968501
 50
244.2681563285582911
 51
261.7240498344219759
  0
ARC
  5
7985
  8
0
 10
4147.6131985894016907
 20
152.8232068903363086
 30
0.0
 40
3.3901090930721942
 50
261.4460853239174867
 51
270.0180600209804993
  0
ARC
  5
7986
  8
0
 10
4147.6116262278537761
 20
149.5579752861287943
 30
0.0
 40
2.7711442446816581
 50
89.9453961503026846
 51
103.6806408257162957
  0
ARC
  5
7987
  8
0
 10
4147.5052863401351715
 20
149.9948404816884988
 30
0.0
 40
2.3215228808523829
 50
103.6806408257162957
 51
123.7768303324820067
  0
ARC
  5
7988
  8
0
 10
4146.9870032972812623
 20
150.7697201133163105
 30
0.0
 40
1.3892912808618989
 50
123.7768303324820067
 51
154.0387611445630114
  0
ARC
  5
7989
  8
0
 10
4146.5703954085720397
 20
150.9725645883004006
 30
0.0
 40
0.9259253196964333
 50
154.0387611445630114
 51
180.4394127533963967
  0
ARC
  5
798A
  8
0
 10
4146.7628528426394041
 20
150.9740406116617066
 30
0.0
 40
1.118388413749229
 50
180.4394127533963967
 51
214.9130627228736898
  0
ARC
  5
798B
  8
0
 10
4147.2195896167331739
 20
151.3255869903659061
 30
0.0
 40
1.6943369635045451
 50
215.8217414507371927
 51
245.4396910293949077
  0
ARC
  5
798C
  8
0
 10
4147.5969455271279003
 20
152.0936662861790865
 30
0.0
 40
2.5498846046261932
 50
244.9012680286294881
 51
261.8869221624535726
  0
ARC
  5
798D
  8
0
 10
4147.632572587715913
 20
152.8433518377111113
 30
0.0
 40
3.2978491525683049
 50
263.1123906796339043
 51
269.6819659624304109
  0
ARC
  5
798E
  8
0
 10
4147.8648275672730961
 20
150.4918727150042059
 30
0.0
 40
2.4854396463700681
 50
126.180354372008793
 51
131.0150678547028917
  0
ARC
  5
798F
  8
0
 10
4147.787076152836562
 20
150.5812679938493091
 30
0.0
 40
2.366962651444565
 50
131.0150678547028917
 51
140.9933158210002944
  0
ARC
  5
7990
  8
0
 10
4147.0974204609356093
 20
151.1398733889693915
 30
0.0
 40
1.4794577439487959
 50
140.9933158210002944
 51
165.6755692881079938
  0
ARC
  5
7991
  8
0
 10
4146.7455559511108731
 20
151.6728516653606107
 30
0.0
 40
1.10267038153676
 50
158.2248202981610063
 51
182.7471294780584969
  0
LINE
  5
7992
  8
0
 10
4145.6571812011970906
 20
151.6200027843767089
 30
0.0
 11
4145.3630109626528792
 21
151.6200027843767089
 31
0.0
  0
ARC
  5
7993
  8
0
 10
4145.4993855086477197
 20
151.5716069615228037
 30
0.0
 40
0.1650504051998794
 50
357.8262925576569842
 51
20.8810434583011002
  0
ARC
  5
7994
  8
0
 10
4145.6619669440387952
 20
151.6195959886948117
 30
0.0
 40
0.0136958078822866
 50
127.6776873797275016
 51
178.2979387308616879
  0
ARC
  5
7995
  8
0
 10
4145.6445630133357554
 20
151.5751421421971088
 30
0.0
 40
0.0220494007108962
 50
333.6247150599671158
 51
342.8694858485137047
  0
ARC
  5
7996
  8
0
 10
4146.6999146710322748
 20
151.3276948802212019
 30
0.0
 40
1.0619765619428969
 50
161.3143012939083007
 51
166.8859157826886985
  0
ARC
  5
7997
  8
0
 10
4146.9943121420355965
 20
151.2094470762571063
 30
0.0
 40
1.3788538176337151
 50
141.8100144769155975
 51
160.5789164036586101
  0
ARC
  5
7998
  8
0
 10
4147.6742969940387411
 20
150.6858994104206033
 30
0.0
 40
2.2370102491389119
 50
127.4671617967393047
 51
142.0386031670662987
  0
LINE
  5
7999
  8
0
 10
4145.664317148040027
 20
151.5653467231767024
 30
0.0
 11
4145.6729375350396367
 21
151.5652941194767038
 31
0.0
  0
ARC
  5
799A
  8
0
 10
4145.6727300255997761
 20
151.5374489100979076
 30
0.0
 40
0.0278454225357021
 50
74.5542220525315855
 51
89.5730406410460347
  0
ARC
  5
799B
  8
0
 10
4135.2651166485102294
 20
151.9693458623752065
 30
0.0
 40
10.4091636068628599
 50
355.8090601025942874
 51
357.4482347286494246
  0
ARC
  5
799C
  8
0
 10
4149.9707133284719021
 20
151.0558891447574013
 30
0.0
 40
4.3269637192435422
 50
177.9769314053060896
 51
181.0515792850173113
  0
LINE
  5
799D
  8
0
 10
4145.4642264134608922
 20
151.0294516032766978
 30
0.0
 11
4145.6431608201346535
 21
151.0294516032766978
 31
0.0
  0
ARC
  5
799E
  8
0
 10
4145.4328553202867624
 20
151.120009655365692
 30
0.0
 40
0.0827166686428634
 50
185.4975913553932116
 51
246.5734555976310958
  0
ARC
  5
799F
  8
0
 10
4145.4627900727500673
 20
151.1713128537670059
 30
0.0
 40
0.1418685217563244
 50
243.7167508577842909
 51
270.580098147913418
  0
ARC
  5
79A0
  8
0
 10
4146.693393726530303
 20
151.4458515387578075
 30
0.0
 40
1.1886461667802151
 50
200.506549859207297
 51
208.4695793118862923
  0
ARC
  5
79A1
  8
0
 10
4147.1867634563650427
 20
150.0799961691539863
 30
0.0
 40
2.3912578878658861
 50
100.0484175971141951
 51
107.0258944688108045
  0
ARC
  5
79A2
  8
0
 10
4147.41914207791433
 20
148.768592786257102
 30
0.0
 40
3.723090706363092
 50
93.2736044604399979
 51
100.0484175971141951
  0
ARC
  5
79A3
  8
0
 10
4147.6246891452437922
 20
145.1749510477999934
 30
0.0
 40
7.3226060266900852
 50
90.0815468035508076
 51
93.2736044604399979
  0
LINE
  5
79A4
  8
0
 10
4146.4748961659870474
 20
152.3700899177896986
 30
0.0
 11
4146.4729872001180411
 21
152.528166865002305
 31
0.0
  0
ARC
  5
79A5
  8
0
 10
4146.4797339890574221
 20
152.370145655240492
 30
0.0
 40
0.0048381441408539
 50
180.6600860252692087
 51
270.6080863003775789
  0
ARC
  5
79A6
  8
0
 10
4146.4794536245781273
 20
152.388124636213405
 30
0.0
 40
0.0228192637174971
 50
270.8329070099276237
 51
288.2343985149001924
  0
LINE
  5
79A7
  8
0
 10
4146.4797956709326172
 20
152.5117919636566057
 30
0.0
 11
4146.4789416190387783
 21
152.4409812993766877
 31
0.0
  0
LINE
  5
79A8
  8
0
 10
4146.4789416190387783
 20
152.4409812993766877
 30
0.0
 11
4146.4797920283563144
 21
152.371296007959188
 31
0.0
  0
ARC
  5
79A9
  8
0
 10
4146.487949226314413
 20
152.3712756724738995
 30
0.0
 40
0.0081572233043671
 50
179.8571647920329895
 51
225.3434434907912021
  0
LINE
  5
79AA
  8
0
 10
4146.5267033690397511
 20
152.5481471616305953
 30
0.0
 11
4146.4852308694125895
 21
152.521586465078002
 31
0.0
  0
ARC
  5
79AB
  8
0
 10
4146.4915948127591037
 20
152.5116496534618875
 30
0.0
 40
0.0118
 50
122.6371720047947065
 51
179.3089854904773972
  0
LINE
  5
79AC
  8
0
 10
4146.4731755759521548
 20
152.5125679079191912
 30
0.0
 11
4146.4819813637359402
 21
152.5184922843799882
 31
0.0
  0
LINE
  5
79AD
  8
0
 10
4146.5955564774112645
 20
152.5234934844430938
 30
0.0
 11
4146.5955564790328935
 21
152.4460319258909067
 31
0.0
  0
LINE
  5
79AE
  8
0
 10
4146.6099971618768905
 20
152.5484584616615109
 30
0.0
 11
4146.7147002886677001
 21
152.6086814395623037
 31
0.0
  0
ARC
  5
79AF
  8
0
 10
4150.2668581971483945
 20
135.4432453354785935
 30
0.0
 40
17.3885769791871709
 50
101.9735307049596997
 51
102.1683477313492006
  0
ARC
  5
79B0
  8
0
 10
4147.5965237719556171
 20
147.5705770000236896
 30
0.0
 40
4.9720387725037902
 50
89.7955317107656441
 51
100.8636953318714973
  0
ARC
  5
79B1
  8
0
 10
4146.6243564774113111
 20
152.5234934850464015
 30
0.0
 40
0.0288
 50
119.9065834193063012
 51
180.0000012001152072
  0
ARC
  5
79B2
  8
0
 10
4146.6005564790339122
 20
152.4460319259956975
 30
0.0
 40
0.005
 50
180.0000012001225116
 51
282.1683477313495132
  0
LINE
  5
79B3
  8
0
 10
4146.6488730738628874
 20
152.4512667668155075
 30
0.0
 11
4146.6004990095361791
 21
152.5396260988013921
 31
0.0
  0
ARC
  5
79B4
  8
0
 10
4147.2702846565662185
 20
149.7427838771911865
 30
0.0
 40
0.0262823379935567
 50
134.035150024603297
 51
222.5390785767062027
  0
ARC
  5
79B5
  8
0
 10
4147.3168444694683785
 20
149.7999242594148086
 30
0.0
 40
0.0997876530691234
 50
228.6502625869449048
 51
300.8615178771420915
  0
ARC
  5
79B6
  8
0
 10
4147.3546691946457941
 20
149.73937132692879
 30
0.0
 40
0.0284405328727562
 50
298.0246663283811017
 51
35.9929047524434012
  0
ARC
  5
79B7
  8
0
 10
4147.3115858270848548
 20
149.6855901898534
 30
0.0
 40
0.0966334993067387
 50
46.8454261306998774
 51
128.0575747109303109
  0
ARC
  5
79B8
  8
0
 10
4147.3485564520187836
 20
149.7538504163483992
 30
0.0
 40
0.0476957477653339
 50
298.7569925817804801
 51
344.8284175108502723
  0
ARC
  5
79B9
  8
0
 10
4147.316895089839818
 20
149.8115447604494079
 30
0.0
 40
0.1135066829985698
 50
231.2787014660657121
 51
298.7569925817804801
  0
ARC
  5
79BA
  8
0
 10
4147.2758665400051541
 20
149.7544124503951082
 30
0.0
 40
0.0434277584956983
 50
188.6608072629298931
 51
226.3545028203396896
  0
ARC
  5
79BB
  8
0
 10
4147.2565931343242482
 20
149.7720575329686028
 30
0.0
 40
0.0338327062025688
 50
149.7241614233300027
 51
225.6292722100616004
  0
ARC
  5
79BC
  8
0
 10
4147.3124879622537264
 20
149.703793983724097
 30
0.0
 40
0.1205149823503475
 50
41.0855523711684683
 51
134.9301651770776971
  0
ARC
  5
79BD
  8
0
 10
4147.3707234282710488
 20
149.7681049765284911
 30
0.0
 40
0.0358395659310882
 50
311.7532012492059152
 51
24.5478748357270113
  0
LINE
  5
79BE
  8
0
 10
4147.4026274682846633
 20
149.7837860484758892
 30
0.0
 11
4147.3945898320398555
 21
149.7413679374766957
 31
0.0
  0
LINE
  5
79BF
  8
0
 10
4147.2252072741166558
 20
149.7846900223534874
 30
0.0
 11
4147.2329339828411321
 21
149.7478728981766949
 31
0.0
  0
ARC
  5
79C0
  8
0
 10
4147.3131492341990452
 20
149.7265785795677004
 30
0.0
 40
0.0237188866283004
 50
49.8931967845592581
 51
126.361694693997606
  0
ARC
  5
79C1
  8
0
 10
4147.3252082114686345
 20
149.7408956247869867
 30
0.0
 40
0.005
 50
314.2049268196734033
 51
49.8931967845592581
  0
ARC
  5
79C2
  8
0
 10
4147.3020511687291219
 20
149.7416527183293056
 30
0.0
 40
0.005
 50
126.3616946939957018
 51
222.0499646588883138
  0
ARC
  5
79C3
  8
0
 10
4147.3139942604639145
 20
149.7524251998841009
 30
0.0
 40
0.0210836500539991
 50
222.0499646588883138
 51
314.2049268196734033
  0
ARC
  5
79C4
  8
0
 10
4147.3157997560811054
 20
149.8816624584354997
 30
0.0
 40
0.0262823379935567
 50
134.035150024603297
 51
222.5390785767062027
  0
ARC
  5
79C5
  8
0
 10
4147.3623595689850845
 20
149.9388028406590081
 30
0.0
 40
0.0997876530691234
 50
228.6502625869449048
 51
300.8615178771420915
  0
ARC
  5
79C6
  8
0
 10
4147.4001842941615905
 20
149.8782499081731032
 30
0.0
 40
0.0284405328727562
 50
298.0246663283811017
 51
35.9929047524434012
  0
ARC
  5
79C7
  8
0
 10
4147.3571009266015608
 20
149.8244687710975995
 30
0.0
 40
0.0966334993067387
 50
46.8454261306998774
 51
128.0575747109303109
  0
ARC
  5
79C8
  8
0
 10
4147.3940715515345801
 20
149.8927289975927124
 30
0.0
 40
0.0476957477653339
 50
298.7569925817804801
 51
344.8284175108502723
  0
ARC
  5
79C9
  8
0
 10
4147.3624101893556144
 20
149.9504233416936074
 30
0.0
 40
0.1135066829985698
 50
231.2787014660657121
 51
298.7569925817804801
  0
ARC
  5
79CA
  8
0
 10
4147.3213816395200411
 20
149.8932910316393929
 30
0.0
 40
0.0434277584956983
 50
188.6608072629298931
 51
226.3545028203396896
  0
ARC
  5
79CB
  8
0
 10
4147.3021082338409542
 20
149.9109361142128876
 30
0.0
 40
0.0338327062025688
 50
149.7241614233300027
 51
225.6292722100616004
  0
ARC
  5
79CC
  8
0
 10
4147.3580030617704324
 20
149.8426725649684101
 30
0.0
 40
0.1205149823503475
 50
41.0855523711684683
 51
134.9301651770776971
  0
ARC
  5
79CD
  8
0
 10
4147.4162385277868452
 20
149.9069835577728043
 30
0.0
 40
0.0358395659310882
 50
311.7532012492059152
 51
24.5478748357270113
  0
LINE
  5
79CE
  8
0
 10
4147.4481425678022788
 20
149.9226646297202024
 30
0.0
 11
4147.4401049315565615
 21
149.8802465187208952
 31
0.0
  0
LINE
  5
79CF
  8
0
 10
4147.2707223736333617
 20
149.9235686035976869
 30
0.0
 11
4147.2784490823560191
 21
149.8867514794210081
 31
0.0
  0
ARC
  5
79D0
  8
0
 10
4147.3586643337148416
 20
149.8654571608120136
 30
0.0
 40
0.0237188866283004
 50
49.8931967845592581
 51
126.361694693997606
  0
ARC
  5
79D1
  8
0
 10
4147.3707233109853405
 20
149.8797742060312999
 30
0.0
 40
0.005
 50
314.2049268196734033
 51
49.8931967845592581
  0
ARC
  5
79D2
  8
0
 10
4147.3475662682449183
 20
149.8805312995735903
 30
0.0
 40
0.005
 50
126.3616946939957018
 51
222.0499646588883138
  0
ARC
  5
79D3
  8
0
 10
4147.359509359979711
 20
149.8913037811284141
 30
0.0
 40
0.0210836500539991
 50
222.0499646588883138
 51
314.2049268196734033
  0
ARC
  5
79D4
  8
0
 10
4146.9801880953818909
 20
149.8032686480109135
 30
0.0
 40
0.0262823379935567
 50
134.035150024603297
 51
222.5390785767062027
  0
ARC
  5
79D5
  8
0
 10
4147.0267479082849604
 20
149.8604090302345071
 30
0.0
 40
0.0997876530691234
 50
228.6502625869449048
 51
300.8615178771420915
  0
ARC
  5
79D6
  8
0
 10
4147.064572633462376
 20
149.7998560977484885
 30
0.0
 40
0.0284405328727562
 50
298.0246663283811017
 51
35.9929047524434012
  0
ARC
  5
79D7
  8
0
 10
4147.0214892659023462
 20
149.7460749606730985
 30
0.0
 40
0.0966334993067387
 50
46.8454261306998774
 51
128.0575747109303109
  0
ARC
  5
79D8
  8
0
 10
4147.058459890836275
 20
149.8143351871682114
 30
0.0
 40
0.0476957477653339
 50
298.7569925817804801
 51
344.8284175108502723
  0
ARC
  5
79D9
  8
0
 10
4147.0267985286573094
 20
149.8720295312691064
 30
0.0
 40
0.1135066829985698
 50
231.2787014660657121
 51
298.7569925817804801
  0
ARC
  5
79DA
  8
0
 10
4146.9857699788208265
 20
149.8148972212148919
 30
0.0
 40
0.0434277584956983
 50
188.6608072629298931
 51
226.3545028203396896
  0
ARC
  5
79DB
  8
0
 10
4146.9664965731408302
 20
149.8325423037883866
 30
0.0
 40
0.0338327062025688
 50
149.7241614233300027
 51
225.6292722100616004
  0
ARC
  5
79DC
  8
0
 10
4147.0223914010703083
 20
149.7642787545437955
 30
0.0
 40
0.1205149823503475
 50
41.0855523711684683
 51
134.9301651770776971
  0
ARC
  5
79DD
  8
0
 10
4147.0806268670867212
 20
149.8285897473481896
 30
0.0
 40
0.0358395659310882
 50
311.7532012492059152
 51
24.5478748357270113
  0
LINE
  5
79DE
  8
0
 10
4147.1125309071021547
 20
149.8442708192955877
 30
0.0
 11
4147.1044932708564374
 21
149.8018527082963942
 31
0.0
  0
LINE
  5
79DF
  8
0
 10
4146.9351107129332377
 20
149.8451747931731859
 30
0.0
 11
4146.9428374216568045
 21
149.8083576689963934
 31
0.0
  0
ARC
  5
79E0
  8
0
 10
4147.0230526730156271
 20
149.7870633503875126
 30
0.0
 40
0.0237188866283004
 50
49.8931967845592581
 51
126.361694693997606
  0
ARC
  5
79E1
  8
0
 10
4147.035111650286126
 20
149.8013803956067989
 30
0.0
 40
0.005
 50
314.2049268196734033
 51
49.8931967845592581
  0
ARC
  5
79E2
  8
0
 10
4147.0119546075447943
 20
149.8021374891490893
 30
0.0
 40
0.005
 50
126.3616946939957018
 51
222.0499646588883138
  0
ARC
  5
79E3
  8
0
 10
4147.0238976992814059
 20
149.8129099707039131
 30
0.0
 40
0.0210836500539991
 50
222.0499646588883138
 51
314.2049268196734033
  0
ARC
  5
79E4
  8
0
 10
4146.7138015228892982
 20
149.9022430340434084
 30
0.0
 40
0.0262823379935567
 50
134.035150024603297
 51
222.5390785767062027
  0
ARC
  5
79E5
  8
0
 10
4146.7603613357905488
 20
149.9593834162670021
 30
0.0
 40
0.0997876530691234
 50
228.6502625869449048
 51
300.8615178771420915
  0
ARC
  5
79E6
  8
0
 10
4146.7981860609679643
 20
149.8988304837810119
 30
0.0
 40
0.0284405328727562
 50
298.0246663283811017
 51
35.9929047524434012
  0
ARC
  5
79E7
  8
0
 10
4146.7551026934088441
 20
149.8450493467055935
 30
0.0
 40
0.0966334993067387
 50
46.8454261306998774
 51
128.0575747109303109
  0
ARC
  5
79E8
  8
0
 10
4146.7920733183418633
 20
149.9133095732005927
 30
0.0
 40
0.0476957477653339
 50
298.7569925817804801
 51
344.8284175108502723
  0
ARC
  5
79E9
  8
0
 10
4146.7604119561619882
 20
149.9710039173016014
 30
0.0
 40
0.1135066829985698
 50
231.2787014660657121
 51
298.7569925817804801
  0
ARC
  5
79EA
  8
0
 10
4146.7193834063273243
 20
149.9138716072473869
 30
0.0
 40
0.0434277584956983
 50
188.6608072629298931
 51
226.3545028203396896
  0
ARC
  5
79EB
  8
0
 10
4146.700110000647328
 20
149.9315166898207963
 30
0.0
 40
0.0338327062025688
 50
149.7241614233300027
 51
225.6292722100616004
  0
ARC
  5
79EC
  8
0
 10
4146.7560048285768062
 20
149.8632531405762904
 30
0.0
 40
0.1205149823503475
 50
41.0855523711684683
 51
134.9301651770776971
  0
ARC
  5
79ED
  8
0
 10
4146.8142402945941285
 20
149.9275641333807982
 30
0.0
 40
0.0358395659310882
 50
311.7532012492059152
 51
24.5478748357270113
  0
LINE
  5
79EE
  8
0
 10
4146.8461443346086526
 20
149.9432452053281963
 30
0.0
 11
4146.8381066983629353
 21
149.9008270943288892
 31
0.0
  0
LINE
  5
79EF
  8
0
 10
4146.6687241404397355
 20
149.9441491792057093
 30
0.0
 11
4146.6764508491623928
 21
149.9073320550288884
 31
0.0
  0
ARC
  5
79F0
  8
0
 10
4146.7566661005221249
 20
149.8860377364198939
 30
0.0
 40
0.0237188866283004
 50
49.8931967845592581
 51
126.361694693997606
  0
ARC
  5
79F1
  8
0
 10
4146.7687250777917143
 20
149.9003547816392938
 30
0.0
 40
0.005
 50
314.2049268196734033
 51
49.8931967845592581
  0
ARC
  5
79F2
  8
0
 10
4146.7455680350512921
 20
149.901111875181499
 30
0.0
 40
0.005
 50
126.3616946939957018
 51
222.0499646588883138
  0
ARC
  5
79F3
  8
0
 10
4146.7575111267869943
 20
149.9118843567364081
 30
0.0
 40
0.0210836500539991
 50
222.0499646588883138
 51
314.2049268196734033
  0
ARC
  5
79F4
  8
0
 10
4146.8464642287472088
 20
150.0167937664801912
 30
0.0
 40
0.0262823379935567
 50
134.035150024603297
 51
222.5390785767062027
  0
ARC
  5
79F5
  8
0
 10
4146.8930240416511879
 20
150.0739341487038132
 30
0.0
 40
0.0997876530691234
 50
228.6502625869449048
 51
300.8615178771420915
  0
ARC
  5
79F6
  8
0
 10
4146.9308487668267844
 20
150.0133812162177946
 30
0.0
 40
0.0284405328727562
 50
298.0246663283811017
 51
35.9929047524434012
  0
ARC
  5
79F7
  8
0
 10
4146.8877653992667547
 20
149.9596000791424046
 30
0.0
 40
0.0966334993067387
 50
46.8454261306998774
 51
128.0575747109303109
  0
ARC
  5
79F8
  8
0
 10
4146.9247360242006835
 20
150.0278603056374038
 30
0.0
 40
0.0476957477653339
 50
298.7569925817804801
 51
344.8284175108502723
  0
ARC
  5
79F9
  8
0
 10
4146.8930746620217178
 20
150.0855546497384125
 30
0.0
 40
0.1135066829985698
 50
231.2787014660657121
 51
298.7569925817804801
  0
ARC
  5
79FA
  8
0
 10
4146.8520461121861445
 20
150.0284223396841128
 30
0.0
 40
0.0434277584956983
 50
188.6608072629298931
 51
226.3545028203396896
  0
ARC
  5
79FB
  8
0
 10
4146.8327727065052386
 20
150.0460674222576074
 30
0.0
 40
0.0338327062025688
 50
149.7241614233300027
 51
225.6292722100616004
  0
ARC
  5
79FC
  8
0
 10
4146.8886675344356263
 20
149.9778038730131016
 30
0.0
 40
0.1205149823503475
 50
41.0855523711684683
 51
134.9301651770776971
  0
ARC
  5
79FD
  8
0
 10
4146.9469030004529486
 20
150.0421148658174957
 30
0.0
 40
0.0358395659310882
 50
311.7532012492059152
 51
24.5478748357270113
  0
LINE
  5
79FE
  8
0
 10
4146.9788070404683822
 20
150.0577959377648938
 30
0.0
 11
4146.9707694042217554
 21
150.0153778267657003
 31
0.0
  0
LINE
  5
79FF
  8
0
 10
4146.8013868462985556
 20
150.058699911642492
 30
0.0
 11
4146.8091135550221225
 21
150.0218827874656995
 31
0.0
  0
ARC
  5
7A00
  8
0
 10
4146.889328806380945
 20
150.000588468856705
 30
0.0
 40
0.0237188866283004
 50
49.8931967845592581
 51
126.361694693997606
  0
ARC
  5
7A01
  8
0
 10
4146.9013877836523534
 20
150.0149055140759913
 30
0.0
 40
0.005
 50
314.2049268196734033
 51
49.8931967845592581
  0
ARC
  5
7A02
  8
0
 10
4146.8782307409110217
 20
150.0156626076183102
 30
0.0
 40
0.005
 50
126.3616946939957018
 51
222.0499646588883138
  0
ARC
  5
7A03
  8
0
 10
4146.8901738326458144
 20
150.0264350891731056
 30
0.0
 40
0.0210836500539991
 50
222.0499646588883138
 51
314.2049268196734033
  0
ARC
  5
7A04
  8
0
 10
4146.4811162320202129
 20
150.0355415750750865
 30
0.0
 40
0.0262823379935567
 50
134.035150024603297
 51
222.5390785767062027
  0
ARC
  5
7A05
  8
0
 10
4146.527676044922373
 20
150.0926819572987085
 30
0.0
 40
0.0997876530691234
 50
228.6502625869449048
 51
300.8615178771420915
  0
ARC
  5
7A06
  8
0
 10
4146.5655007700979695
 20
150.0321290248128037
 30
0.0
 40
0.0284405328727562
 50
298.0246663283811017
 51
35.9929047524434012
  0
ARC
  5
7A07
  8
0
 10
4146.5224174025397588
 20
149.9783478877373
 30
0.0
 40
0.0966334993067387
 50
46.8454261306998774
 51
128.0575747109303109
  0
ARC
  5
7A08
  8
0
 10
4146.559388027472778
 20
150.0466081142324128
 30
0.0
 40
0.0476957477653339
 50
298.7569925817804801
 51
344.8284175108502723
  0
ARC
  5
7A09
  8
0
 10
4146.5277266652938124
 20
150.1043024583333079
 30
0.0
 40
0.1135066829985698
 50
231.2787014660657121
 51
298.7569925817804801
  0
ARC
  5
7A0A
  8
0
 10
4146.4866981154591485
 20
150.0471701482790934
 30
0.0
 40
0.0434277584956983
 50
188.6608072629298931
 51
226.3545028203396896
  0
ARC
  5
7A0B
  8
0
 10
4146.4674247097782427
 20
150.0648152308525027
 30
0.0
 40
0.0338327062025688
 50
149.7241614233300027
 51
225.6292722100616004
  0
ARC
  5
7A0C
  8
0
 10
4146.5233195377077209
 20
149.9965516816081106
 30
0.0
 40
0.1205149823503475
 50
41.0855523711684683
 51
134.9301651770776971
  0
ARC
  5
7A0D
  8
0
 10
4146.5815550037241337
 20
150.060862674412391
 30
0.0
 40
0.0358395659310882
 50
311.7532012492059152
 51
24.5478748357270113
  0
LINE
  5
7A0E
  8
0
 10
4146.6134590437377483
 20
150.0765437463599028
 30
0.0
 11
4146.605421407492031
 21
150.0341256353605957
 31
0.0
  0
LINE
  5
7A0F
  8
0
 10
4146.4360388495706502
 20
150.0774477202373873
 30
0.0
 11
4146.4437655582933075
 21
150.0406305960605948
 31
0.0
  0
ARC
  5
7A10
  8
0
 10
4146.5239808096530396
 20
150.0193362774517141
 30
0.0
 40
0.0237188866283004
 50
49.8931967845592581
 51
126.361694693997606
  0
ARC
  5
7A11
  8
0
 10
4146.5360397869217195
 20
150.0336533226708866
 30
0.0
 40
0.005
 50
314.2049268196734033
 51
49.8931967845592581
  0
ARC
  5
7A12
  8
0
 10
4146.5128827441822068
 20
150.0344104162132908
 30
0.0
 40
0.005
 50
126.3616946939957018
 51
222.0499646588883138
  0
ARC
  5
7A13
  8
0
 10
4146.524825835917909
 20
150.0451828977680861
 30
0.0
 40
0.0210836500539991
 50
222.0499646588883138
 51
314.2049268196734033
  0
ARC
  5
7A14
  8
0
 10
4146.2902076989639681
 20
150.1981747664848967
 30
0.0
 40
0.0262823379935567
 50
134.035150024603297
 51
222.5390785767062027
  0
ARC
  5
7A15
  8
0
 10
4146.3367675118670377
 20
150.2553151487084904
 30
0.0
 40
0.0997876530691234
 50
228.6502625869449048
 51
300.8615178771420915
  0
ARC
  5
7A16
  8
0
 10
4146.3745922370444532
 20
150.1947622162225002
 30
0.0
 40
0.0284405328727562
 50
298.0246663283811017
 51
35.9929047524434012
  0
ARC
  5
7A17
  8
0
 10
4146.331508869485333
 20
150.1409810791471102
 30
0.0
 40
0.0966334993067387
 50
46.8454261306998774
 51
128.0575747109303109
  0
ARC
  5
7A18
  8
0
 10
4146.3684794944183523
 20
150.2092413056421094
 30
0.0
 40
0.0476957477653339
 50
298.7569925817804801
 51
344.8284175108502723
  0
ARC
  5
7A19
  8
0
 10
4146.3368181322393866
 20
150.2669356497430897
 30
0.0
 40
0.1135066829985698
 50
231.2787014660657121
 51
298.7569925817804801
  0
ARC
  5
7A1A
  8
0
 10
4146.2957895824029038
 20
150.2098033396887899
 30
0.0
 40
0.0434277584956983
 50
188.6608072629298931
 51
226.3545028203396896
  0
ARC
  5
7A1B
  8
0
 10
4146.2765161767219979
 20
150.227448422262313
 30
0.0
 40
0.0338327062025688
 50
149.7241614233300027
 51
225.6292722100616004
  0
ARC
  5
7A1C
  8
0
 10
4146.3324110046523856
 20
150.1591848730178071
 30
0.0
 40
0.1205149823503475
 50
41.0855523711684683
 51
134.9301651770776971
  0
ARC
  5
7A1D
  8
0
 10
4146.3906464706687984
 20
150.2234958658222013
 30
0.0
 40
0.0358395659310882
 50
311.7532012492059152
 51
24.5478748357270113
  0
LINE
  5
7A1E
  8
0
 10
4146.4225505106833225
 20
150.2391769377695994
 30
0.0
 11
4146.4145128744376052
 21
150.1967588267704059
 31
0.0
  0
LINE
  5
7A1F
  8
0
 10
4146.2451303165153149
 20
150.2400809116471976
 30
0.0
 11
4146.2528570252370628
 21
150.2032637874704051
 31
0.0
  0
ARC
  5
7A20
  8
0
 10
4146.3330722765977043
 20
150.1819694688614106
 30
0.0
 40
0.0237188866283004
 50
49.8931967845592581
 51
126.361694693997606
  0
ARC
  5
7A21
  8
0
 10
4146.3451312538672937
 20
150.1962865140806969
 30
0.0
 40
0.005
 50
314.2049268196734033
 51
49.8931967845592581
  0
ARC
  5
7A22
  8
0
 10
4146.3219742111268715
 20
150.1970436076229873
 30
0.0
 40
0.005
 50
126.3616946939957018
 51
222.0499646588883138
  0
ARC
  5
7A23
  8
0
 10
4146.3339173028625737
 20
150.2078160891778111
 30
0.0
 40
0.0210836500539991
 50
222.0499646588883138
 51
314.2049268196734033
  0
ARC
  5
7A24
  8
0
 10
4146.4855281600193848
 20
150.2663586312175994
 30
0.0
 40
0.0262823379935567
 50
134.035150024603297
 51
222.5390785767062027
  0
ARC
  5
7A25
  8
0
 10
4146.5320879729233638
 20
150.323499013441193
 30
0.0
 40
0.0997876530691234
 50
228.6502625869449048
 51
300.8615178771420915
  0
ARC
  5
7A26
  8
0
 10
4146.5699126980998699
 20
150.2629460809552029
 30
0.0
 40
0.0284405328727562
 50
298.0246663283811017
 51
35.9929047524434012
  0
ARC
  5
7A27
  8
0
 10
4146.5268293305389307
 20
150.2091649438798129
 30
0.0
 40
0.0966334993067387
 50
46.8454261306998774
 51
128.0575747109303109
  0
ARC
  5
7A28
  8
0
 10
4146.5637999554728594
 20
150.2774251703748973
 30
0.0
 40
0.0476957477653339
 50
298.7569925817804801
 51
344.8284175108502723
  0
ARC
  5
7A29
  8
0
 10
4146.5321385932938938
 20
150.3351195144757924
 30
0.0
 40
0.1135066829985698
 50
231.2787014660657121
 51
298.7569925817804801
  0
ARC
  5
7A2A
  8
0
 10
4146.4911100434583204
 20
150.2779872044216063
 30
0.0
 40
0.0434277584956983
 50
188.6608072629298931
 51
226.3545028203396896
  0
ARC
  5
7A2B
  8
0
 10
4146.4718366377783241
 20
150.2956322869949872
 30
0.0
 40
0.0338327062025688
 50
149.7241614233300027
 51
225.6292722100616004
  0
ARC
  5
7A2C
  8
0
 10
4146.5277314657078023
 20
150.2273687377505098
 30
0.0
 40
0.1205149823503475
 50
41.0855523711684683
 51
134.9301651770776971
  0
ARC
  5
7A2D
  8
0
 10
4146.5859669317251246
 20
150.2916797305549039
 30
0.0
 40
0.0358395659310882
 50
311.7532012492059152
 51
24.5478748357270113
  0
LINE
  5
7A2E
  8
0
 10
4146.6178709717396487
 20
150.307360802502302
 30
0.0
 11
4146.6098333354939314
 21
150.2649426915031086
 31
0.0
  0
LINE
  5
7A2F
  8
0
 10
4146.4404507775707316
 20
150.3082647763799002
 30
0.0
 11
4146.4481774862942984
 21
150.2714476522031077
 31
0.0
  0
ARC
  5
7A30
  8
0
 10
4146.528392737653121
 20
150.2501533335941133
 30
0.0
 40
0.0237188866283004
 50
49.8931967845592581
 51
126.361694693997606
  0
ARC
  5
7A31
  8
0
 10
4146.5404517149236199
 20
150.2644703788133995
 30
0.0
 40
0.005
 50
314.2049268196734033
 51
49.8931967845592581
  0
ARC
  5
7A32
  8
0
 10
4146.5172946721831977
 20
150.2652274723558037
 30
0.0
 40
0.005
 50
126.3616946939957018
 51
222.0499646588883138
  0
ARC
  5
7A33
  8
0
 10
4146.5292377639179904
 20
150.2759999539105138
 30
0.0
 40
0.0210836500539991
 50
222.0499646588883138
 51
314.2049268196734033
  0
ARC
  5
7A34
  8
0
 10
4146.1466883721150225
 20
150.3827758375431074
 30
0.0
 40
0.0262823379935567
 50
134.035150024603297
 51
222.5390785767062027
  0
ARC
  5
7A35
  8
0
 10
4146.1932481850162731
 20
150.4399162197665873
 30
0.0
 40
0.0997876530691234
 50
228.6502625869449048
 51
300.8615178771420915
  0
ARC
  5
7A36
  8
0
 10
4146.2310729101927791
 20
150.3793632872805972
 30
0.0
 40
0.0284405328727562
 50
298.0246663283811017
 51
35.9929047524434012
  0
ARC
  5
7A37
  8
0
 10
4146.1879895426336589
 20
150.3255821502052072
 30
0.0
 40
0.0966334993067387
 50
46.8454261306998774
 51
128.0575747109303109
  0
ARC
  5
7A38
  8
0
 10
4146.2249601675666781
 20
150.3938423767002917
 30
0.0
 40
0.0476957477653339
 50
298.7569925817804801
 51
344.8284175108502723
  0
ARC
  5
7A39
  8
0
 10
4146.1932988053877125
 20
150.4515367208011867
 30
0.0
 40
0.1135066829985698
 50
231.2787014660657121
 51
298.7569925817804801
  0
ARC
  5
7A3A
  8
0
 10
4146.1522702555539581
 20
150.3944044107470006
 30
0.0
 40
0.0434277584956983
 50
188.6608072629298931
 51
226.3545028203396896
  0
ARC
  5
7A3B
  8
0
 10
4146.1329968498730523
 20
150.4120494933204952
 30
0.0
 40
0.0338327062025688
 50
149.7241614233300027
 51
225.6292722100616004
  0
ARC
  5
7A3C
  8
0
 10
4146.18889167780344
 20
150.3437859440759894
 30
0.0
 40
0.1205149823503475
 50
41.0855523711684683
 51
134.9301651770776971
  0
ARC
  5
7A3D
  8
0
 10
4146.2471271438180338
 20
150.4080969368804119
 30
0.0
 40
0.0358395659310882
 50
311.7532012492059152
 51
24.5478748357270113
  0
LINE
  5
7A3E
  8
0
 10
4146.2790311838343769
 20
150.42377800882781
 30
0.0
 11
4146.2709935475877501
 21
150.3813598978285029
 31
0.0
  0
LINE
  5
7A3F
  8
0
 10
4146.1016109896663693
 20
150.4246819827052946
 30
0.0
 11
4146.1093376983881171
 21
150.3878648585285873
 31
0.0
  0
ARC
  5
7A40
  8
0
 10
4146.1895529497478492
 20
150.3665705399195929
 30
0.0
 40
0.0237188866283004
 50
49.8931967845592581
 51
126.361694693997606
  0
ARC
  5
7A41
  8
0
 10
4146.2016119270174386
 20
150.3808875851389075
 30
0.0
 40
0.005
 50
314.2049268196734033
 51
49.8931967845592581
  0
ARC
  5
7A42
  8
0
 10
4146.1784548842770164
 20
150.381644678681198
 30
0.0
 40
0.005
 50
126.3616946939957018
 51
222.0499646588883138
  0
ARC
  5
7A43
  8
0
 10
4146.1903979760127186
 20
150.3924171602359934
 30
0.0
 40
0.0210836500539991
 50
222.0499646588883138
 51
314.2049268196734033
  0
ARC
  5
7A44
  8
0
 10
4146.2932959329509686
 20
150.593717590099601
 30
0.0
 40
0.0262823379935567
 50
134.035150024603297
 51
222.5390785767062027
  0
ARC
  5
7A45
  8
0
 10
4146.3398557458531286
 20
150.6508579723231946
 30
0.0
 40
0.0997876530691234
 50
228.6502625869449048
 51
300.8615178771420915
  0
ARC
  5
7A46
  8
0
 10
4146.3776804710287252
 20
150.5903050398372045
 30
0.0
 40
0.0284405328727562
 50
298.0246663283811017
 51
35.9929047524434012
  0
ARC
  5
7A47
  8
0
 10
4146.3345971034714239
 20
150.5365239027617861
 30
0.0
 40
0.0966334993067387
 50
46.8454261306998774
 51
128.0575747109303109
  0
ARC
  5
7A48
  8
0
 10
4146.3715677284044432
 20
150.604784129256899
 30
0.0
 40
0.0476957477653339
 50
298.7569925817804801
 51
344.8284175108502723
  0
ARC
  5
7A49
  8
0
 10
4146.3399063662236586
 20
150.662478473357794
 30
0.0
 40
0.1135066829985698
 50
231.2787014660657121
 51
298.7569925817804801
  0
ARC
  5
7A4A
  8
0
 10
4146.2988778163899042
 20
150.6053461633036079
 30
0.0
 40
0.0434277584956983
 50
188.6608072629298931
 51
226.3545028203396896
  0
ARC
  5
7A4B
  8
0
 10
4146.2796044107089983
 20
150.6229912458771025
 30
0.0
 40
0.0338327062025688
 50
149.7241614233300027
 51
225.6292722100616004
  0
ARC
  5
7A4C
  8
0
 10
4146.335499238637567
 20
150.5547276966325114
 30
0.0
 40
0.1205149823503475
 50
41.0855523711684683
 51
134.9301651770776971
  0
ARC
  5
7A4D
  8
0
 10
4146.3937347046548894
 20
150.6190386894369908
 30
0.0
 40
0.0358395659310882
 50
311.7532012492059152
 51
24.5478748357270113
  0
LINE
  5
7A4E
  8
0
 10
4146.4256387446703229
 20
150.6347197613843889
 30
0.0
 11
4146.4176011084236961
 21
150.5923016503851102
 31
0.0
  0
LINE
  5
7A4F
  8
0
 10
4146.2482185505023153
 20
150.6356237352619019
 30
0.0
 11
4146.2559452592231537
 21
150.5988066110851946
 31
0.0
  0
ARC
  5
7A50
  8
0
 10
4146.3361605105837953
 20
150.5775122924760865
 30
0.0
 40
0.0237188866283004
 50
49.8931967845592581
 51
126.361694693997606
  0
ARC
  5
7A51
  8
0
 10
4146.3482194878542941
 20
150.5918293376954864
 30
0.0
 40
0.005
 50
314.2049268196734033
 51
49.8931967845592581
  0
ARC
  5
7A52
  8
0
 10
4146.3250624451129625
 20
150.5925864312378053
 30
0.0
 40
0.005
 50
126.3616946939957018
 51
222.0499646588883138
  0
ARC
  5
7A53
  8
0
 10
4146.3370055368486646
 20
150.6033589127926007
 30
0.0
 40
0.0210836500539991
 50
222.0499646588883138
 51
314.2049268196734033
  0
ARC
  5
7A54
  8
0
 10
4146.0590824887458439
 20
150.583307753764899
 30
0.0
 40
0.0262823379935567
 50
134.035150024603297
 51
222.5390785767062027
  0
ARC
  5
7A55
  8
0
 10
4146.1056423016470944
 20
150.6404481359884926
 30
0.0
 40
0.0997876530691234
 50
228.6502625869449048
 51
300.8615178771420915
  0
ARC
  5
7A56
  8
0
 10
4146.1434670268236005
 20
150.5798952035025025
 30
0.0
 40
0.0284405328727562
 50
298.0246663283811017
 51
35.9929047524434012
  0
ARC
  5
7A57
  8
0
 10
4146.1003836592653897
 20
150.5261140664271977
 30
0.0
 40
0.0966334993067387
 50
46.8454261306998774
 51
128.0575747109303109
  0
ARC
  5
7A58
  8
0
 10
4146.137354284198409
 20
150.5943742929221969
 30
0.0
 40
0.0476957477653339
 50
298.7569925817804801
 51
344.8284175108502723
  0
ARC
  5
7A59
  8
0
 10
4146.1056929220194434
 20
150.6520686370230919
 30
0.0
 40
0.1135066829985698
 50
231.2787014660657121
 51
298.7569925817804801
  0
ARC
  5
7A5A
  8
0
 10
4146.0646643721847795
 20
150.5949363269689059
 30
0.0
 40
0.0434277584956983
 50
188.6608072629298931
 51
226.3545028203396896
  0
ARC
  5
7A5B
  8
0
 10
4146.0453909665038736
 20
150.6125814095422868
 30
0.0
 40
0.0338327062025688
 50
149.7241614233300027
 51
225.6292722100616004
  0
ARC
  5
7A5C
  8
0
 10
4146.1012857944333518
 20
150.5443178602978094
 30
0.0
 40
0.1205149823503475
 50
41.0855523711684683
 51
134.9301651770776971
  0
ARC
  5
7A5D
  8
0
 10
4146.1595212604488552
 20
150.6086288531022888
 30
0.0
 40
0.0358395659310882
 50
311.7532012492059152
 51
24.5478748357270113
  0
LINE
  5
7A5E
  8
0
 10
4146.1914253004651982
 20
150.6243099250496016
 30
0.0
 11
4146.1833876642185714
 21
150.5818918140504081
 31
0.0
  0
LINE
  5
7A5F
  8
0
 10
4146.0140051062971907
 20
150.6252138989271998
 30
0.0
 11
4146.0217318150189385
 21
150.5883967747504073
 31
0.0
  0
ARC
  5
7A60
  8
0
 10
4146.1019470663777611
 20
150.5671024561414129
 30
0.0
 40
0.0237188866283004
 50
49.8931967845592581
 51
126.361694693997606
  0
ARC
  5
7A61
  8
0
 10
4146.1140060436482599
 20
150.5814195013608128
 30
0.0
 40
0.005
 50
314.2049268196734033
 51
49.8931967845592581
  0
ARC
  5
7A62
  8
0
 10
4146.0908490009078378
 20
150.5821765949031033
 30
0.0
 40
0.005
 50
126.3616946939957018
 51
222.0499646588883138
  0
ARC
  5
7A63
  8
0
 10
4146.1027920926426305
 20
150.5929490764578986
 30
0.0
 40
0.0210836500539991
 50
222.0499646588883138
 51
314.2049268196734033
  0
ARC
  5
7A64
  8
0
 10
4146.0298905178779023
 20
150.792627407281401
 30
0.0
 40
0.0262823379935567
 50
134.035150024603297
 51
222.5390785767062027
  0
ARC
  5
7A65
  8
0
 10
4146.0764503307800624
 20
150.8497677895049947
 30
0.0
 40
0.0997876530691234
 50
228.6502625869449048
 51
300.8615178771420915
  0
ARC
  5
7A66
  8
0
 10
4146.1142750559565684
 20
150.7892148570190045
 30
0.0
 40
0.0284405328727562
 50
298.0246663283811017
 51
35.9929047524434012
  0
ARC
  5
7A67
  8
0
 10
4146.0711916883974482
 20
150.7354337199435861
 30
0.0
 40
0.0966334993067387
 50
46.8454261306998774
 51
128.0575747109303109
  0
ARC
  5
7A68
  8
0
 10
4146.1081623133313769
 20
150.8036939464386137
 30
0.0
 40
0.0476957477653339
 50
298.7569925817804801
 51
344.8284175108502723
  0
ARC
  5
7A69
  8
0
 10
4146.0765009511524113
 20
150.861388290539594
 30
0.0
 40
0.1135066829985698
 50
231.2787014660657121
 51
298.7569925817804801
  0
ARC
  5
7A6A
  8
0
 10
4146.0354724013168379
 20
150.8042559804854079
 30
0.0
 40
0.0434277584956983
 50
188.6608072629298931
 51
226.3545028203396896
  0
ARC
  5
7A6B
  8
0
 10
4146.0161989956359321
 20
150.8219010630587888
 30
0.0
 40
0.0338327062025688
 50
149.7241614233300027
 51
225.6292722100616004
  0
ARC
  5
7A6C
  8
0
 10
4146.0720938235654103
 20
150.7536375138143114
 30
0.0
 40
0.1205149823503475
 50
41.0855523711684683
 51
134.9301651770776971
  0
ARC
  5
7A6D
  8
0
 10
4146.1303292895818231
 20
150.8179485066187056
 30
0.0
 40
0.0358395659310882
 50
311.7532012492059152
 51
24.5478748357270113
  0
LINE
  5
7A6E
  8
0
 10
4146.1622333295963472
 20
150.8336295785661036
 30
0.0
 11
4146.1541956933506299
 21
150.7912114675669102
 31
0.0
  0
LINE
  5
7A6F
  8
0
 10
4145.9848131354292491
 20
150.8345335524437019
 30
0.0
 11
4145.9925398441519064
 21
150.7977164282669094
 31
0.0
  0
ARC
  5
7A70
  8
0
 10
4146.0727550955116385
 20
150.7764221096578865
 30
0.0
 40
0.0237188866283004
 50
49.8931967845592581
 51
126.361694693997606
  0
ARC
  5
7A71
  8
0
 10
4146.0848140727812279
 20
150.7907391548772011
 30
0.0
 40
0.005
 50
314.2049268196734033
 51
49.8931967845592581
  0
ARC
  5
7A72
  8
0
 10
4146.0616570300408057
 20
150.7914962484194916
 30
0.0
 40
0.005
 50
126.3616946939957018
 51
222.0499646588883138
  0
ARC
  5
7A73
  8
0
 10
4146.0736001217755984
 20
150.802268729974287
 30
0.0
 40
0.0210836500539991
 50
222.0499646588883138
 51
314.2049268196734033
  0
ARC
  5
7A74
  8
0
 10
4146.2909326001936279
 20
150.9479265591118065
 30
0.0
 40
0.0262823379935567
 50
134.035150024603297
 51
222.5390785767062027
  0
ARC
  5
7A75
  8
0
 10
4146.3374924130957879
 20
151.0050669413354001
 30
0.0
 40
0.0997876530691234
 50
228.6502625869449048
 51
300.8615178771420915
  0
ARC
  5
7A76
  8
0
 10
4146.3753171382741129
 20
150.9445140088494099
 30
0.0
 40
0.0284405328727562
 50
298.0246663283811017
 51
35.9929047524434012
  0
ARC
  5
7A77
  8
0
 10
4146.3322337707140832
 20
150.8907328717739915
 30
0.0
 40
0.0966334993067387
 50
46.8454261306998774
 51
128.0575747109303109
  0
ARC
  5
7A78
  8
0
 10
4146.3692043956471025
 20
150.9589930982691044
 30
0.0
 40
0.0476957477653339
 50
298.7569925817804801
 51
344.8284175108502723
  0
ARC
  5
7A79
  8
0
 10
4146.3375430334690463
 20
151.0166874423699994
 30
0.0
 40
0.1135066829985698
 50
231.2787014660657121
 51
298.7569925817804801
  0
ARC
  5
7A7A
  8
0
 10
4146.2965144836325635
 20
150.9595551323158134
 30
0.0
 40
0.0434277584956983
 50
188.6608072629298931
 51
226.3545028203396896
  0
ARC
  5
7A7B
  8
0
 10
4146.2772410779516576
 20
150.9772002148891943
 30
0.0
 40
0.0338327062025688
 50
149.7241614233300027
 51
225.6292722100616004
  0
ARC
  5
7A7C
  8
0
 10
4146.3331359058820453
 20
150.9089366656446884
 30
0.0
 40
0.1205149823503475
 50
41.0855523711684683
 51
134.9301651770776971
  0
ARC
  5
7A7D
  8
0
 10
4146.3913713718993677
 20
150.9732476584491963
 30
0.0
 40
0.0358395659310882
 50
311.7532012492059152
 51
24.5478748357270113
  0
LINE
  5
7A7E
  8
0
 10
4146.4232754119138917
 20
150.9889287303965943
 30
0.0
 11
4146.4152377756681744
 21
150.9465106193972872
 31
0.0
  0
LINE
  5
7A7F
  8
0
 10
4146.2458552177449747
 20
150.9898327042741073
 30
0.0
 11
4146.253581926467632
 21
150.9530155800972864
 31
0.0
  0
ARC
  5
7A80
  8
0
 10
4146.3337971778282736
 20
150.9317212614882919
 30
0.0
 40
0.0237188866283004
 50
49.8931967845592581
 51
126.361694693997606
  0
ARC
  5
7A81
  8
0
 10
4146.3458561550978629
 20
150.9460383067076918
 30
0.0
 40
0.005
 50
314.2049268196734033
 51
49.8931967845592581
  0
ARC
  5
7A82
  8
0
 10
4146.3226991123574408
 20
150.9467954002500107
 30
0.0
 40
0.005
 50
126.3616946939957018
 51
222.0499646588883138
  0
ARC
  5
7A83
  8
0
 10
4146.3346422040931429
 20
150.9575678818048061
 30
0.0
 40
0.0210836500539991
 50
222.0499646588883138
 51
314.2049268196734033
  0
ARC
  5
7A84
  8
0
 10
4146.0590315295494293
 20
151.0016256036468008
 30
0.0
 40
0.0262823379935567
 50
134.035150024603297
 51
222.5390785767062027
  0
ARC
  5
7A85
  8
0
 10
4146.1055913424515893
 20
151.0587659858703944
 30
0.0
 40
0.0997876530691234
 50
228.6502625869449048
 51
300.8615178771420915
  0
ARC
  5
7A86
  8
0
 10
4146.1434160676290048
 20
150.9982130533844042
 30
0.0
 40
0.0284405328727562
 50
298.0246663283811017
 51
35.9929047524434012
  0
ARC
  5
7A87
  8
0
 10
4146.1003327000689751
 20
150.9444319163089858
 30
0.0
 40
0.0966334993067387
 50
46.8454261306998774
 51
128.0575747109303109
  0
ARC
  5
7A88
  8
0
 10
4146.1373033250019944
 20
151.0126921428040987
 30
0.0
 40
0.0476957477653339
 50
298.7569925817804801
 51
344.8284175108502723
  0
ARC
  5
7A89
  8
0
 10
4146.1056419628239382
 20
151.0703864869049937
 30
0.0
 40
0.1135066829985698
 50
231.2787014660657121
 51
298.7569925817804801
  0
ARC
  5
7A8A
  8
0
 10
4146.0646134129865459
 20
151.0132541768508077
 30
0.0
 40
0.0434277584956983
 50
188.6608072629298931
 51
226.3545028203396896
  0
ARC
  5
7A8B
  8
0
 10
4146.0453400073083685
 20
151.0308992594241886
 30
0.0
 40
0.0338327062025688
 50
149.7241614233300027
 51
225.6292722100616004
  0
ARC
  5
7A8C
  8
0
 10
4146.1012348352378467
 20
150.9626357101797112
 30
0.0
 40
0.1205149823503475
 50
41.0855523711684683
 51
134.9301651770776971
  0
ARC
  5
7A8D
  8
0
 10
4146.1594703012542595
 20
151.0269467029841053
 30
0.0
 40
0.0358395659310882
 50
311.7532012492059152
 51
24.5478748357270113
  0
LINE
  5
7A8E
  8
0
 10
4146.1913743412687836
 20
151.0426277749315034
 30
0.0
 11
4146.1833367050230663
 21
151.0002096639323099
 31
0.0
  0
LINE
  5
7A8F
  8
0
 10
4146.0139541470998665
 20
151.0435317488091016
 30
0.0
 11
4146.0216808558234334
 21
151.0067146246323091
 31
0.0
  0
ARC
  5
7A90
  8
0
 10
4146.1018961071822559
 20
150.9854203060232862
 30
0.0
 40
0.0237188866283004
 50
49.8931967845592581
 51
126.361694693997606
  0
ARC
  5
7A91
  8
0
 10
4146.1139550844527548
 20
150.9997373512426009
 30
0.0
 40
0.005
 50
314.2049268196734033
 51
49.8931967845592581
  0
ARC
  5
7A92
  8
0
 10
4146.0907980417123326
 20
151.0004944447848914
 30
0.0
 40
0.005
 50
126.3616946939957018
 51
222.0499646588883138
  0
ARC
  5
7A93
  8
0
 10
4146.1027411334480348
 20
151.0112669263396867
 30
0.0
 40
0.0210836500539991
 50
222.0499646588883138
 51
314.2049268196734033
  0
ARC
  5
7A94
  8
0
 10
4146.1456982696236082
 20
151.2027926727191129
 30
0.0
 40
0.0262823379935567
 50
134.035150024603297
 51
222.5390785767062027
  0
ARC
  5
7A95
  8
0
 10
4146.1922580825266778
 20
151.2599330549427918
 30
0.0
 40
0.0997876530691234
 50
228.6502625869449048
 51
300.8615178771420915
  0
ARC
  5
7A96
  8
0
 10
4146.2300828077031838
 20
151.1993801224568017
 30
0.0
 40
0.0284405328727562
 50
298.0246663283811017
 51
35.9929047524434012
  0
ARC
  5
7A97
  8
0
 10
4146.1869994401440636
 20
151.145598985381298
 30
0.0
 40
0.0966334993067387
 50
46.8454261306998774
 51
128.0575747109303109
  0
ARC
  5
7A98
  8
0
 10
4146.2239700650779923
 20
151.2138592118764109
 30
0.0
 40
0.0476957477653339
 50
298.7569925817804801
 51
344.8284175108502723
  0
ARC
  5
7A99
  8
0
 10
4146.1923087028990267
 20
151.2715535559773912
 30
0.0
 40
0.1135066829985698
 50
231.2787014660657121
 51
298.7569925817804801
  0
ARC
  5
7A9A
  8
0
 10
4146.1512801530643628
 20
151.2144212459230914
 30
0.0
 40
0.0434277584956983
 50
188.6608072629298931
 51
226.3545028203396896
  0
ARC
  5
7A9B
  8
0
 10
4146.132006747381638
 20
151.232066328496586
 30
0.0
 40
0.0338327062025688
 50
149.7241614233300027
 51
225.6292722100616004
  0
ARC
  5
7A9C
  8
0
 10
4146.1879015753120257
 20
151.1638027792519949
 30
0.0
 40
0.1205149823503475
 50
41.0855523711684683
 51
134.9301651770776971
  0
ARC
  5
7A9D
  8
0
 10
4146.246137041329348
 20
151.2281137720565027
 30
0.0
 40
0.0358395659310882
 50
311.7532012492059152
 51
24.5478748357270113
  0
LINE
  5
7A9E
  8
0
 10
4146.2780410813438721
 20
151.2437948440039008
 30
0.0
 11
4146.2700034450981548
 21
151.2013767330047074
 31
0.0
  0
LINE
  5
7A9F
  8
0
 10
4146.1006208871758645
 20
151.2446988178814138
 30
0.0
 11
4146.1083475958976123
 21
151.2078816937045929
 31
0.0
  0
ARC
  5
7AA0
  8
0
 10
4146.1885628472591634
 20
151.1865873750957121
 30
0.0
 40
0.0237188866283004
 50
49.8931967845592581
 51
126.361694693997606
  0
ARC
  5
7AA1
  8
0
 10
4146.2006218245278433
 20
151.2009044203149983
 30
0.0
 40
0.005
 50
314.2049268196734033
 51
49.8931967845592581
  0
ARC
  5
7AA2
  8
0
 10
4146.1774647817874211
 20
151.2016615138572888
 30
0.0
 40
0.005
 50
126.3616946939957018
 51
222.0499646588883138
  0
ARC
  5
7AA3
  8
0
 10
4146.1894078735231233
 20
151.2124339954121126
 30
0.0
 40
0.0210836500539991
 50
222.0499646588883138
 51
314.2049268196734033
  0
ARC
  5
7AA4
  8
0
 10
4146.4874675442833905
 20
151.2737449363714859
 30
0.0
 40
0.0262823379935567
 50
134.035150024603297
 51
222.5390785767062027
  0
ARC
  5
7AA5
  8
0
 10
4146.5340273571855505
 20
151.3308853185951079
 30
0.0
 40
0.0997876530691234
 50
228.6502625869449048
 51
300.8615178771420915
  0
ARC
  5
7AA6
  8
0
 10
4146.5718520823620565
 20
151.2703323861090894
 30
0.0
 40
0.0284405328727562
 50
298.0246663283811017
 51
35.9929047524434012
  0
ARC
  5
7AA7
  8
0
 10
4146.5287687148038458
 20
151.2165512490336994
 30
0.0
 40
0.0966334993067387
 50
46.8454261306998774
 51
128.0575747109303109
  0
ARC
  5
7AA8
  8
0
 10
4146.5657393397368651
 20
151.2848114755286986
 30
0.0
 40
0.0476957477653339
 50
298.7569925817804801
 51
344.8284175108502723
  0
ARC
  5
7AA9
  8
0
 10
4146.5340779775578994
 20
151.3425058196297073
 30
0.0
 40
0.1135066829985698
 50
231.2787014660657121
 51
298.7569925817804801
  0
ARC
  5
7AAA
  8
0
 10
4146.4930494277223261
 20
151.2853735095754075
 30
0.0
 40
0.0434277584956983
 50
188.6608072629298931
 51
226.3545028203396896
  0
ARC
  5
7AAB
  8
0
 10
4146.4737760220423297
 20
151.3030185921489021
 30
0.0
 40
0.0338327062025688
 50
149.7241614233300027
 51
225.6292722100616004
  0
ARC
  5
7AAC
  8
0
 10
4146.5296708499718079
 20
151.2347550429043963
 30
0.0
 40
0.1205149823503475
 50
41.0855523711684683
 51
134.9301651770776971
  0
ARC
  5
7AAD
  8
0
 10
4146.5879063159882207
 20
151.2990660357087904
 30
0.0
 40
0.0358395659310882
 50
311.7532012492059152
 51
24.5478748357270113
  0
LINE
  5
7AAE
  8
0
 10
4146.6198103560027448
 20
151.3147471076561885
 30
0.0
 11
4146.6117727197570275
 21
151.2723289966569951
 31
0.0
  0
LINE
  5
7AAF
  8
0
 10
4146.4423901618338277
 20
151.3156510815337867
 30
0.0
 11
4146.4501168705573946
 21
151.2788339573569942
 31
0.0
  0
ARC
  5
7AB0
  8
0
 10
4146.5303321219171266
 20
151.2575396387479998
 30
0.0
 40
0.0237188866283004
 50
49.8931967845592581
 51
126.361694693997606
  0
ARC
  5
7AB1
  8
0
 10
4146.5423910991858065
 20
151.271856683967286
 30
0.0
 40
0.005
 50
314.2049268196734033
 51
49.8931967845592581
  0
ARC
  5
7AB2
  8
0
 10
4146.5192340564462938
 20
151.2726137775096049
 30
0.0
 40
0.005
 50
126.3616946939957018
 51
222.0499646588883138
  0
ARC
  5
7AB3
  8
0
 10
4146.531177148181996
 20
151.2833862590644003
 30
0.0
 40
0.0210836500539991
 50
222.0499646588883138
 51
314.2049268196734033
  0
ARC
  5
7AB4
  8
0
 10
4146.2894923136736907
 20
151.3865573253982006
 30
0.0
 40
0.0262823379935567
 50
134.035150024603297
 51
222.5390785767062027
  0
ARC
  5
7AB5
  8
0
 10
4146.3360521265767602
 20
151.4436977076217943
 30
0.0
 40
0.0997876530691234
 50
228.6502625869449048
 51
300.8615178771420915
  0
ARC
  5
7AB6
  8
0
 10
4146.3738768517541757
 20
151.3831447751358041
 30
0.0
 40
0.0284405328727562
 50
298.0246663283811017
 51
35.9929047524434012
  0
ARC
  5
7AB7
  8
0
 10
4146.330793484194146
 20
151.3293636380604141
 30
0.0
 40
0.0966334993067387
 50
46.8454261306998774
 51
128.0575747109303109
  0
ARC
  5
7AB8
  8
0
 10
4146.3677641091280748
 20
151.3976238645554986
 30
0.0
 40
0.0476957477653339
 50
298.7569925817804801
 51
344.8284175108502723
  0
ARC
  5
7AB9
  8
0
 10
4146.3361027469491091
 20
151.4553182086563936
 30
0.0
 40
0.1135066829985698
 50
231.2787014660657121
 51
298.7569925817804801
  0
ARC
  5
7ABA
  8
0
 10
4146.2950741971126263
 20
151.3981858986022075
 30
0.0
 40
0.0434277584956983
 50
188.6608072629298931
 51
226.3545028203396896
  0
ARC
  5
7ABB
  8
0
 10
4146.2758007914317204
 20
151.4158309811755885
 30
0.0
 40
0.0338327062025688
 50
149.7241614233300027
 51
225.6292722100616004
  0
ARC
  5
7ABC
  8
0
 10
4146.3316956193621081
 20
151.3475674319311111
 30
0.0
 40
0.1205149823503475
 50
41.0855523711684683
 51
134.9301651770776971
  0
ARC
  5
7ABD
  8
0
 10
4146.3899310853794304
 20
151.4118784247355052
 30
0.0
 40
0.0358395659310882
 50
311.7532012492059152
 51
24.5478748357270113
  0
LINE
  5
7ABE
  8
0
 10
4146.421835125393045
 20
151.4275594966829033
 30
0.0
 11
4146.4137974891482372
 21
151.3851413856837098
 31
0.0
  0
LINE
  5
7ABF
  8
0
 10
4146.2444149312259469
 20
151.4284634705605015
 30
0.0
 11
4146.2521416399486043
 21
151.391646346383709
 31
0.0
  0
ARC
  5
7AC0
  8
0
 10
4146.3323568913083363
 20
151.3703520277747998
 30
0.0
 40
0.0237188866283004
 50
49.8931967845592581
 51
126.361694693997606
  0
ARC
  5
7AC1
  8
0
 10
4146.3444158685779257
 20
151.3846690729940008
 30
0.0
 40
0.005
 50
314.2049268196734033
 51
49.8931967845592581
  0
ARC
  5
7AC2
  8
0
 10
4146.321258825838413
 20
151.3854261665364049
 30
0.0
 40
0.005
 50
126.3616946939957018
 51
222.0499646588883138
  0
ARC
  5
7AC3
  8
0
 10
4146.3332019175732057
 20
151.3961986480912003
 30
0.0
 40
0.0210836500539991
 50
222.0499646588883138
 51
314.2049268196734033
  0
ARC
  5
7AC4
  8
0
 10
4146.4806593779376271
 20
151.5500880510747947
 30
0.0
 40
0.0262823379935567
 50
134.035150024603297
 51
222.5390785767062027
  0
ARC
  5
7AC5
  8
0
 10
4146.5272191908397872
 20
151.6072284332983884
 30
0.0
 40
0.0997876530691234
 50
228.6502625869449048
 51
300.8615178771420915
  0
ARC
  5
7AC6
  8
0
 10
4146.5650439160172027
 20
151.5466755008123982
 30
0.0
 40
0.0284405328727562
 50
298.0246663283811017
 51
35.9929047524434012
  0
ARC
  5
7AC7
  8
0
 10
4146.5219605484580825
 20
151.4928943637370082
 30
0.0
 40
0.0966334993067387
 50
46.8454261306998774
 51
128.0575747109303109
  0
ARC
  5
7AC8
  8
0
 10
4146.5589311733911018
 20
151.5611545902320074
 30
0.0
 40
0.0476957477653339
 50
298.7569925817804801
 51
344.8284175108502723
  0
ARC
  5
7AC9
  8
0
 10
4146.5272698112121361
 20
151.6188489343329877
 30
0.0
 40
0.1135066829985698
 50
231.2787014660657121
 51
298.7569925817804801
  0
ARC
  5
7ACA
  8
0
 10
4146.4862412613765628
 20
151.5617166242788016
 30
0.0
 40
0.0434277584956983
 50
188.6608072629298931
 51
226.3545028203396896
  0
ARC
  5
7ACB
  8
0
 10
4146.4669678556965664
 20
151.579361706852211
 30
0.0
 40
0.0338327062025688
 50
149.7241614233300027
 51
225.6292722100616004
  0
ARC
  5
7ACC
  8
0
 10
4146.5228626836260446
 20
151.5110981576077052
 30
0.0
 40
0.1205149823503475
 50
41.0855523711684683
 51
134.9301651770776971
  0
ARC
  5
7ACD
  8
0
 10
4146.5810981496415479
 20
151.5754091504120993
 30
0.0
 40
0.0358395659310882
 50
311.7532012492059152
 51
24.5478748357270113
  0
LINE
  5
7ACE
  8
0
 10
4146.613002189656072
 20
151.5910902223594974
 30
0.0
 11
4146.6049645534112642
 21
151.5486721113603039
 31
0.0
  0
LINE
  5
7ACF
  8
0
 10
4146.4355819954889739
 20
151.5919941962370956
 30
0.0
 11
4146.4433087042116313
 21
151.5551770720603031
 31
0.0
  0
ARC
  5
7AD0
  8
0
 10
4146.5235239555713633
 20
151.5338827534513086
 30
0.0
 40
0.0237188866283004
 50
49.8931967845592581
 51
126.361694693997606
  0
ARC
  5
7AD1
  8
0
 10
4146.5355829328400432
 20
151.5481997986705949
 30
0.0
 40
0.005
 50
314.2049268196734033
 51
49.8931967845592581
  0
ARC
  5
7AD2
  8
0
 10
4146.512425890099621
 20
151.5489568922129138
 30
0.0
 40
0.005
 50
126.3616946939957018
 51
222.0499646588883138
  0
ARC
  5
7AD3
  8
0
 10
4146.5243689818362327
 20
151.5597293737677091
 30
0.0
 40
0.0210836500539991
 50
222.0499646588883138
 51
314.2049268196734033
  0
ARC
  5
7AD4
  8
0
 10
4146.8461892447458013
 20
151.5231679217729948
 30
0.0
 40
0.0262823379935567
 50
134.035150024603297
 51
222.5390785767062027
  0
ARC
  5
7AD5
  8
0
 10
4146.8927490576479613
 20
151.5803083039965884
 30
0.0
 40
0.0997876530691234
 50
228.6502625869449048
 51
300.8615178771420915
  0
ARC
  5
7AD6
  8
0
 10
4146.9305737828253768
 20
151.5197553715107119
 30
0.0
 40
0.0284405328727562
 50
298.0246663283811017
 51
35.9929047524434012
  0
ARC
  5
7AD7
  8
0
 10
4146.8874904152662566
 20
151.4659742344352082
 30
0.0
 40
0.0966334993067387
 50
46.8454261306998774
 51
128.0575747109303109
  0
ARC
  5
7AD8
  8
0
 10
4146.9244610401992759
 20
151.5342344609302927
 30
0.0
 40
0.0476957477653339
 50
298.7569925817804801
 51
344.8284175108502723
  0
ARC
  5
7AD9
  8
0
 10
4146.8927996780203102
 20
151.5919288050311877
 30
0.0
 40
0.1135066829985698
 50
231.2787014660657121
 51
298.7569925817804801
  0
ARC
  5
7ADA
  8
0
 10
4146.8517711281847369
 20
151.5347964949770017
 30
0.0
 40
0.0434277584956983
 50
188.6608072629298931
 51
226.3545028203396896
  0
ARC
  5
7ADB
  8
0
 10
4146.8324977225029215
 20
151.5524415775504963
 30
0.0
 40
0.0338327062025688
 50
149.7241614233300027
 51
225.6292722100616004
  0
ARC
  5
7ADC
  8
0
 10
4146.8883925504333092
 20
151.4841780283059052
 30
0.0
 40
0.1205149823503475
 50
41.0855523711684683
 51
134.9301651770776971
  0
ARC
  5
7ADD
  8
0
 10
4146.9466280164497221
 20
151.5484890211102993
 30
0.0
 40
0.0358395659310882
 50
311.7532012492059152
 51
24.5478748357270113
  0
LINE
  5
7ADE
  8
0
 10
4146.9785320564651556
 20
151.5641700930578111
 30
0.0
 11
4146.9704944202194383
 21
151.5217519820585039
 31
0.0
  0
LINE
  5
7ADF
  8
0
 10
4146.8011118622980575
 20
151.5650740669352956
 30
0.0
 11
4146.8088385710188959
 21
151.5282569427585031
 31
0.0
  0
ARC
  5
7AE0
  8
0
 10
4146.8890538223804469
 20
151.5069626241495939
 30
0.0
 40
0.0237188866283004
 50
49.8931967845592581
 51
126.361694693997606
  0
ARC
  5
7AE1
  8
0
 10
4146.9011127996491268
 20
151.5212796693687949
 30
0.0
 40
0.005
 50
314.2049268196734033
 51
49.8931967845592581
  0
ARC
  5
7AE2
  8
0
 10
4146.8779557569087046
 20
151.522036762911199
 30
0.0
 40
0.005
 50
126.3616946939957018
 51
222.0499646588883138
  0
ARC
  5
7AE3
  8
0
 10
4146.8898988486444068
 20
151.5328092444659944
 30
0.0
 40
0.0210836500539991
 50
222.0499646588883138
 51
314.2049268196734033
  0
ARC
  5
7AE4
  8
0
 10
4146.714952507029011
 20
151.6819609243194122
 30
0.0
 40
0.0262823379935567
 50
134.035150024603297
 51
222.5390785767062027
  0
ARC
  5
7AE5
  8
0
 10
4146.7615123199311711
 20
151.7391013065430059
 30
0.0
 40
0.0997876530691234
 50
228.6502625869449048
 51
300.8615178771420915
  0
ARC
  5
7AE6
  8
0
 10
4146.7993370451067676
 20
151.6785483740569873
 30
0.0
 40
0.0284405328727562
 50
298.0246663283811017
 51
35.9929047524434012
  0
ARC
  5
7AE7
  8
0
 10
4146.7562536775485569
 20
151.6247672369815973
 30
0.0
 40
0.0966334993067387
 50
46.8454261306998774
 51
128.0575747109303109
  0
ARC
  5
7AE8
  8
0
 10
4146.7932243024815762
 20
151.6930274634765965
 30
0.0
 40
0.0476957477653339
 50
298.7569925817804801
 51
344.8284175108502723
  0
ARC
  5
7AE9
  8
0
 10
4146.761562940301701
 20
151.7507218075776052
 30
0.0
 40
0.1135066829985698
 50
231.2787014660657121
 51
298.7569925817804801
  0
ARC
  5
7AEA
  8
0
 10
4146.7205343904670372
 20
151.6935894975233907
 30
0.0
 40
0.0434277584956983
 50
188.6608072629298931
 51
226.3545028203396896
  0
ARC
  5
7AEB
  8
0
 10
4146.7012609847861313
 20
151.7112345800968001
 30
0.0
 40
0.0338327062025688
 50
149.7241614233300027
 51
225.6292722100616004
  0
ARC
  5
7AEC
  8
0
 10
4146.7571558127174285
 20
151.6429710308522942
 30
0.0
 40
0.1205149823503475
 50
41.0855523711684683
 51
134.9301651770776971
  0
ARC
  5
7AED
  8
0
 10
4146.8153912787329318
 20
151.707282023656802
 30
0.0
 40
0.0358395659310882
 50
311.7532012492059152
 51
24.5478748357270113
  0
LINE
  5
7AEE
  8
0
 10
4146.8472953187492749
 20
151.7229630956040864
 30
0.0
 11
4146.8392576825017386
 21
151.680544984604893
 31
0.0
  0
LINE
  5
7AEF
  8
0
 10
4146.6698751245803578
 20
151.7238670694817131
 30
0.0
 11
4146.6776018333021057
 21
151.6870499453048922
 31
0.0
  0
ARC
  5
7AF0
  8
0
 10
4146.7578170846618377
 20
151.6657556266958977
 30
0.0
 40
0.0237188866283004
 50
49.8931967845592581
 51
126.361694693997606
  0
ARC
  5
7AF1
  8
0
 10
4146.7698760619314271
 20
151.6800726719152976
 30
0.0
 40
0.005
 50
314.2049268196734033
 51
49.8931967845592581
  0
ARC
  5
7AF2
  8
0
 10
4146.7467190191910049
 20
151.6808297654575028
 30
0.0
 40
0.005
 50
126.3616946939957018
 51
222.0499646588883138
  0
ARC
  5
7AF3
  8
0
 10
4146.7586621109267071
 20
151.6916022470124119
 30
0.0
 40
0.0210836500539991
 50
222.0499646588883138
 51
314.2049268196734033
  0
ARC
  5
7AF4
  8
0
 10
4146.9807402867381825
 20
151.7806823313798077
 30
0.0
 40
0.0262823379935567
 50
134.035150024603297
 51
222.5390785767062027
  0
ARC
  5
7AF5
  8
0
 10
4147.027300099641252
 20
151.8378227136034013
 30
0.0
 40
0.0997876530691234
 50
228.6502625869449048
 51
300.8615178771420915
  0
ARC
  5
7AF6
  8
0
 10
4147.0651248248177581
 20
151.7772697811174112
 30
0.0
 40
0.0284405328727562
 50
298.0246663283811017
 51
35.9929047524434012
  0
ARC
  5
7AF7
  8
0
 10
4147.0220414572577283
 20
151.7234886440419928
 30
0.0
 40
0.0966334993067387
 50
46.8454261306998774
 51
128.0575747109303109
  0
ARC
  5
7AF8
  8
0
 10
4147.0590120821907476
 20
151.7917488705371056
 30
0.0
 40
0.0476957477653339
 50
298.7569925817804801
 51
344.8284175108502723
  0
ARC
  5
7AF9
  8
0
 10
4147.027350720011782
 20
151.8494432146380007
 30
0.0
 40
0.1135066829985698
 50
231.2787014660657121
 51
298.7569925817804801
  0
ARC
  5
7AFA
  8
0
 10
4146.9863221701771181
 20
151.7923109045837862
 30
0.0
 40
0.0434277584956983
 50
188.6608072629298931
 51
226.3545028203396896
  0
ARC
  5
7AFB
  8
0
 10
4146.9670487644971217
 20
151.8099559871571955
 30
0.0
 40
0.0338327062025688
 50
149.7241614233300027
 51
225.6292722100616004
  0
ARC
  5
7AFC
  8
0
 10
4147.0229435924265999
 20
151.7416924379126897
 30
0.0
 40
0.1205149823503475
 50
41.0855523711684683
 51
134.9301651770776971
  0
ARC
  5
7AFD
  8
0
 10
4147.0811790584421033
 20
151.8060034307171122
 30
0.0
 40
0.0358395659310882
 50
311.7532012492059152
 51
24.5478748357270113
  0
LINE
  5
7AFE
  8
0
 10
4147.1130830984566273
 20
151.8216845026645103
 30
0.0
 11
4147.10504546221091
 21
151.7792663916652884
 31
0.0
  0
LINE
  5
7AFF
  8
0
 10
4146.9356629042886198
 20
151.8225884765421085
 30
0.0
 11
4146.9433896130121866
 21
151.7857713523652876
 31
0.0
  0
ARC
  5
7B00
  8
0
 10
4147.0236048643710092
 20
151.7644770337562932
 30
0.0
 40
0.0237188866283004
 50
49.8931967845592581
 51
126.361694693997606
  0
ARC
  5
7B01
  8
0
 10
4147.0356638416405985
 20
151.7787940789756078
 30
0.0
 40
0.005
 50
314.2049268196734033
 51
49.8931967845592581
  0
ARC
  5
7B02
  8
0
 10
4147.0125067989001764
 20
151.779551172518012
 30
0.0
 40
0.005
 50
126.3616946939957018
 51
222.0499646588883138
  0
ARC
  5
7B03
  8
0
 10
4147.0244498906358785
 20
151.7903236540728074
 30
0.0
 40
0.0210836500539991
 50
222.0499646588883138
 51
314.2049268196734033
  0
ARC
  5
7B04
  8
0
 10
4147.3171039735452723
 20
151.6575487639715902
 30
0.0
 40
0.0262823379935567
 50
134.035150024603297
 51
222.5390785767062027
  0
ARC
  5
7B05
  8
0
 10
4147.3636637864492513
 20
151.7146891461952123
 30
0.0
 40
0.0997876530691234
 50
228.6502625869449048
 51
300.8615178771420915
  0
ARC
  5
7B06
  8
0
 10
4147.4014885116248479
 20
151.6541362137091937
 30
0.0
 40
0.0284405328727562
 50
298.0246663283811017
 51
35.9929047524434012
  0
ARC
  5
7B07
  8
0
 10
4147.3584051440657277
 20
151.6003550766338037
 30
0.0
 40
0.0966334993067387
 50
46.8454261306998774
 51
128.0575747109303109
  0
ARC
  5
7B08
  8
0
 10
4147.3953757689987469
 20
151.6686153031288029
 30
0.0
 40
0.0476957477653339
 50
298.7569925817804801
 51
344.8284175108502723
  0
ARC
  5
7B09
  8
0
 10
4147.3637144068197813
 20
151.7263096472298116
 30
0.0
 40
0.1135066829985698
 50
231.2787014660657121
 51
298.7569925817804801
  0
ARC
  5
7B0A
  8
0
 10
4147.3226858569842079
 20
151.6691773371755971
 30
0.0
 40
0.0434277584956983
 50
188.6608072629298931
 51
226.3545028203396896
  0
ARC
  5
7B0B
  8
0
 10
4147.3034124513042116
 20
151.6868224197490065
 30
0.0
 40
0.0338327062025688
 50
149.7241614233300027
 51
225.6292722100616004
  0
ARC
  5
7B0C
  8
0
 10
4147.3593072792327803
 20
151.6185588705045006
 30
0.0
 40
0.1205149823503475
 50
41.0855523711684683
 51
134.9301651770776971
  0
ARC
  5
7B0D
  8
0
 10
4147.4175427452501026
 20
151.6828698633088948
 30
0.0
 40
0.0358395659310882
 50
311.7532012492059152
 51
24.5478748357270113
  0
LINE
  5
7B0E
  8
0
 10
4147.4494467852646267
 20
151.6985509352562929
 30
0.0
 11
4147.4414091490189094
 21
151.6561328242570994
 31
0.0
  0
LINE
  5
7B0F
  8
0
 10
4147.2720265910957096
 20
151.6994549091338911
 30
0.0
 11
4147.2797532998192764
 21
151.6626377849570986
 31
0.0
  0
ARC
  5
7B10
  8
0
 10
4147.3599685511790085
 20
151.6413434663481041
 30
0.0
 40
0.0237188866283004
 50
49.8931967845592581
 51
126.361694693997606
  0
ARC
  5
7B11
  8
0
 10
4147.3720275284476884
 20
151.6556605115673904
 30
0.0
 40
0.005
 50
314.2049268196734033
 51
49.8931967845592581
  0
ARC
  5
7B12
  8
0
 10
4147.3488704857081757
 20
151.6564176051097093
 30
0.0
 40
0.005
 50
126.3616946939957018
 51
222.0499646588883138
  0
ARC
  5
7B13
  8
0
 10
4147.3608135774438779
 20
151.6671900866645046
 30
0.0
 40
0.0210836500539991
 50
222.0499646588883138
 51
314.2049268196734033
  0
ARC
  5
7B14
  8
0
 10
4147.2690326433739756
 20
151.8435849496121932
 30
0.0
 40
0.0262823379935567
 50
134.035150024603297
 51
222.5390785767062027
  0
ARC
  5
7B15
  8
0
 10
4147.3155924562779546
 20
151.9007253318359005
 30
0.0
 40
0.0997876530691234
 50
228.6502625869449048
 51
300.8615178771420915
  0
ARC
  5
7B16
  8
0
 10
4147.3534171814535512
 20
151.8401723993499104
 30
0.0
 40
0.0284405328727562
 50
298.0246663283811017
 51
35.9929047524434012
  0
ARC
  5
7B17
  8
0
 10
4147.3103338138944309
 20
151.786391262274492
 30
0.0
 40
0.0966334993067387
 50
46.8454261306998774
 51
128.0575747109303109
  0
ARC
  5
7B18
  8
0
 10
4147.3473044388283597
 20
151.8546514887694912
 30
0.0
 40
0.0476957477653339
 50
298.7569925817804801
 51
344.8284175108502723
  0
ARC
  5
7B19
  8
0
 10
4147.3156430766493941
 20
151.9123458328704999
 30
0.0
 40
0.1135066829985698
 50
231.2787014660657121
 51
298.7569925817804801
  0
ARC
  5
7B1A
  8
0
 10
4147.2746145268129112
 20
151.8552135228162001
 30
0.0
 40
0.0434277584956983
 50
188.6608072629298931
 51
226.3545028203396896
  0
ARC
  5
7B1B
  8
0
 10
4147.2553411211329149
 20
151.8728586053896947
 30
0.0
 40
0.0338327062025688
 50
149.7241614233300027
 51
225.6292722100616004
  0
ARC
  5
7B1C
  8
0
 10
4147.3112359490633025
 20
151.8045950561451889
 30
0.0
 40
0.1205149823503475
 50
41.0855523711684683
 51
134.9301651770776971
  0
ARC
  5
7B1D
  8
0
 10
4147.3694714150788059
 20
151.8689060489496114
 30
0.0
 40
0.0358395659310882
 50
311.7532012492059152
 51
24.5478748357270113
  0
LINE
  5
7B1E
  8
0
 10
4147.4013754550942394
 20
151.8845871208970095
 30
0.0
 11
4147.3933378188476127
 21
151.8421690098977876
 31
0.0
  0
LINE
  5
7B1F
  8
0
 10
4147.2239552609253224
 20
151.8854910947746077
 30
0.0
 11
4147.2316819696488892
 21
151.8486739705977868
 31
0.0
  0
ARC
  5
7B20
  8
0
 10
4147.3118972210077118
 20
151.8273796519887924
 30
0.0
 40
0.0237188866283004
 50
49.8931967845592581
 51
126.361694693997606
  0
ARC
  5
7B21
  8
0
 10
4147.3239561982773012
 20
151.841696697208107
 30
0.0
 40
0.005
 50
314.2049268196734033
 51
49.8931967845592581
  0
ARC
  5
7B22
  8
0
 10
4147.300799155536879
 20
151.8424537907503975
 30
0.0
 40
0.005
 50
126.3616946939957018
 51
222.0499646588883138
  0
ARC
  5
7B23
  8
0
 10
4147.3127422472725812
 20
151.8532262723051929
 30
0.0
 40
0.0210836500539991
 50
222.0499646588883138
 51
314.2049268196734033
  0
ARC
  5
7B24
  8
0
 10
4147.3931175736770456
 20
150.4241503178010078
 30
0.0
 40
0.0262823379935567
 50
134.035150024603297
 51
222.5390785767062027
  0
ARC
  5
7B25
  8
0
 10
4147.4396773865801151
 20
150.4812907000246014
 30
0.0
 40
0.0997876530691234
 50
228.6502625869449048
 51
300.8615178771420915
  0
ARC
  5
7B26
  8
0
 10
4147.4775021117557117
 20
150.4207377675386965
 30
0.0
 40
0.0284405328727562
 50
298.0246663283811017
 51
35.9929047524434012
  0
ARC
  5
7B27
  8
0
 10
4147.4344187441984104
 20
150.3669566304631928
 30
0.0
 40
0.0966334993067387
 50
46.8454261306998774
 51
128.0575747109303109
  0
ARC
  5
7B28
  8
0
 10
4147.4713893691314297
 20
150.4352168569583057
 30
0.0
 40
0.0476957477653339
 50
298.7569925817804801
 51
344.8284175108502723
  0
ARC
  5
7B29
  8
0
 10
4147.4397280069506451
 20
150.4929112010592007
 30
0.0
 40
0.1135066829985698
 50
231.2787014660657121
 51
298.7569925817804801
  0
ARC
  5
7B2A
  8
0
 10
4147.3986994571159812
 20
150.4357788910049862
 30
0.0
 40
0.0434277584956983
 50
188.6608072629298931
 51
226.3545028203396896
  0
ARC
  5
7B2B
  8
0
 10
4147.3794260514350754
 20
150.4534239735785093
 30
0.0
 40
0.0338327062025688
 50
149.7241614233300027
 51
225.6292722100616004
  0
ARC
  5
7B2C
  8
0
 10
4147.4353208793663725
 20
150.3851604243338898
 30
0.0
 40
0.1205149823503475
 50
41.0855523711684683
 51
134.9301651770776971
  0
ARC
  5
7B2D
  8
0
 10
4147.4935563453818759
 20
150.4494714171383976
 30
0.0
 40
0.0358395659310882
 50
311.7532012492059152
 51
24.5478748357270113
  0
LINE
  5
7B2E
  8
0
 10
4147.5254603853982189
 20
150.4651524890857104
 30
0.0
 11
4147.5174227491506826
 21
150.4227343780864885
 31
0.0
  0
LINE
  5
7B2F
  8
0
 10
4147.3480401912283924
 20
150.4660564629633086
 30
0.0
 11
4147.3557668999510497
 21
150.4292393387864877
 31
0.0
  0
ARC
  5
7B30
  8
0
 10
4147.4359821513107818
 20
150.4079450201776069
 30
0.0
 40
0.0237188866283004
 50
49.8931967845592581
 51
126.361694693997606
  0
ARC
  5
7B31
  8
0
 10
4147.4480411285803712
 20
150.4222620653968079
 30
0.0
 40
0.005
 50
314.2049268196734033
 51
49.8931967845592581
  0
ARC
  5
7B32
  8
0
 10
4147.424884085839949
 20
150.423019158939212
 30
0.0
 40
0.005
 50
126.3616946939957018
 51
222.0499646588883138
  0
ARC
  5
7B33
  8
0
 10
4147.4368271775756511
 20
150.4337916404940074
 30
0.0
 40
0.0210836500539991
 50
222.0499646588883138
 51
314.2049268196734033
  0
ARC
  5
7B34
  8
0
 10
4147.124452155749168
 20
150.417268793027489
 30
0.0
 40
0.0262823379935567
 50
134.035150024603297
 51
222.5390785767062027
  0
ARC
  5
7B35
  8
0
 10
4147.1710119686531471
 20
150.474409175251111
 30
0.0
 40
0.0997876530691234
 50
228.6502625869449048
 51
300.8615178771420915
  0
ARC
  5
7B36
  8
0
 10
4147.2088366938287436
 20
150.4138562427650925
 30
0.0
 40
0.0284405328727562
 50
298.0246663283811017
 51
35.9929047524434012
  0
ARC
  5
7B37
  8
0
 10
4147.1657533262696234
 20
150.3600751056897025
 30
0.0
 40
0.0966334993067387
 50
46.8454261306998774
 51
128.0575747109303109
  0
ARC
  5
7B38
  8
0
 10
4147.2027239512026426
 20
150.4283353321847017
 30
0.0
 40
0.0476957477653339
 50
298.7569925817804801
 51
344.8284175108502723
  0
ARC
  5
7B39
  8
0
 10
4147.171062589023677
 20
150.4860296762857104
 30
0.0
 40
0.1135066829985698
 50
231.2787014660657121
 51
298.7569925817804801
  0
ARC
  5
7B3A
  8
0
 10
4147.1300340391890131
 20
150.4288973662314959
 30
0.0
 40
0.0434277584956983
 50
188.6608072629298931
 51
226.3545028203396896
  0
ARC
  5
7B3B
  8
0
 10
4147.1107606335081073
 20
150.4465424488049052
 30
0.0
 40
0.0338327062025688
 50
149.7241614233300027
 51
225.6292722100616004
  0
ARC
  5
7B3C
  8
0
 10
4147.1666554614375855
 20
150.3782788995603994
 30
0.0
 40
0.1205149823503475
 50
41.0855523711684683
 51
134.9301651770776971
  0
ARC
  5
7B3D
  8
0
 10
4147.2248909274539983
 20
150.4425898923647935
 30
0.0
 40
0.0358395659310882
 50
311.7532012492059152
 51
24.5478748357270113
  0
LINE
  5
7B3E
  8
0
 10
4147.2567949674703414
 20
150.4582709643121916
 30
0.0
 11
4147.2487573312228051
 21
150.4158528533129981
 31
0.0
  0
LINE
  5
7B3F
  8
0
 10
4147.0793747733014243
 20
150.4591749381897898
 30
0.0
 11
4147.0871014820240816
 21
150.4223578140129973
 31
0.0
  0
ARC
  5
7B40
  8
0
 10
4147.1673167333838137
 20
150.4010634954040029
 30
0.0
 40
0.0237188866283004
 50
49.8931967845592581
 51
126.361694693997606
  0
ARC
  5
7B41
  8
0
 10
4147.1793757106534031
 20
150.4153805406232891
 30
0.0
 40
0.005
 50
314.2049268196734033
 51
49.8931967845592581
  0
ARC
  5
7B42
  8
0
 10
4147.1562186679120714
 20
150.416137634165608
 30
0.0
 40
0.005
 50
126.3616946939957018
 51
222.0499646588883138
  0
ARC
  5
7B43
  8
0
 10
4147.1681617596477736
 20
150.4269101157204034
 30
0.0
 40
0.0210836500539991
 50
222.0499646588883138
 51
314.2049268196734033
  0
ARC
  5
7B44
  8
0
 10
4147.1432075410239122
 20
150.5976618267660001
 30
0.0
 40
0.0262823379935567
 50
134.035150024603297
 51
222.5390785767062027
  0
ARC
  5
7B45
  8
0
 10
4147.1897673539260722
 20
150.6548022089897074
 30
0.0
 40
0.0997876530691234
 50
228.6502625869449048
 51
300.8615178771420915
  0
ARC
  5
7B46
  8
0
 10
4147.2275920791025783
 20
150.5942492765036889
 30
0.0
 40
0.0284405328727562
 50
298.0246663283811017
 51
35.9929047524434012
  0
ARC
  5
7B47
  8
0
 10
4147.1845087115425486
 20
150.5404681394282136
 30
0.0
 40
0.0966334993067387
 50
46.8454261306998774
 51
128.0575747109303109
  0
ARC
  5
7B48
  8
0
 10
4147.2214793364755678
 20
150.608728365923298
 30
0.0
 40
0.0476957477653339
 50
298.7569925817804801
 51
344.8284175108502723
  0
ARC
  5
7B49
  8
0
 10
4147.1898179742984212
 20
150.6664227100243068
 30
0.0
 40
0.1135066829985698
 50
231.2787014660657121
 51
298.7569925817804801
  0
ARC
  5
7B4A
  8
0
 10
4147.1487894244619383
 20
150.609290399970007
 30
0.0
 40
0.0434277584956983
 50
188.6608072629298931
 51
226.3545028203396896
  0
ARC
  5
7B4B
  8
0
 10
4147.1295160187810325
 20
150.6269354825435016
 30
0.0
 40
0.0338327062025688
 50
149.7241614233300027
 51
225.6292722100616004
  0
ARC
  5
7B4C
  8
0
 10
4147.1854108467114202
 20
150.5586719332989105
 30
0.0
 40
0.1205149823503475
 50
41.0855523711684683
 51
134.9301651770776971
  0
ARC
  5
7B4D
  8
0
 10
4147.243646312727833
 20
150.6229829261033899
 30
0.0
 40
0.0358395659310882
 50
311.7532012492059152
 51
24.5478748357270113
  0
LINE
  5
7B4E
  8
0
 10
4147.2755503527432666
 20
150.638663998050788
 30
0.0
 11
4147.2675127164966398
 21
150.5962458870515093
 31
0.0
  0
LINE
  5
7B4F
  8
0
 10
4147.098130158575259
 20
150.6395679719283009
 30
0.0
 11
4147.1058568672970068
 21
150.6027508477515084
 31
0.0
  0
ARC
  5
7B50
  8
0
 10
4147.1860721186558294
 20
150.5814565291425993
 30
0.0
 40
0.0237188866283004
 50
49.8931967845592581
 51
126.361694693997606
  0
ARC
  5
7B51
  8
0
 10
4147.1981310959263283
 20
150.5957735743619139
 30
0.0
 40
0.005
 50
314.2049268196734033
 51
49.8931967845592581
  0
ARC
  5
7B52
  8
0
 10
4147.1749740531859061
 20
150.5965306679042044
 30
0.0
 40
0.005
 50
126.3616946939957018
 51
222.0499646588883138
  0
ARC
  5
7B53
  8
0
 10
4147.1869171449206988
 20
150.6073031494589998
 30
0.0
 40
0.0210836500539991
 50
222.0499646588883138
 51
314.2049268196734033
  0
ARC
  5
7B54
  8
0
 10
4146.9388501380426533
 20
150.7281675757444077
 30
0.0
 40
0.0262823379935567
 50
134.035150024603297
 51
222.5390785767062027
  0
ARC
  5
7B55
  8
0
 10
4146.9854099509457228
 20
150.7853079579680866
 30
0.0
 40
0.0997876530691234
 50
228.6502625869449048
 51
300.8615178771420915
  0
ARC
  5
7B56
  8
0
 10
4147.0232346761222288
 20
150.7247550254820965
 30
0.0
 40
0.0284405328727562
 50
298.0246663283811017
 51
35.9929047524434012
  0
ARC
  5
7B57
  8
0
 10
4146.9801513085640181
 20
150.6709738884067065
 30
0.0
 40
0.0966334993067387
 50
46.8454261306998774
 51
128.0575747109303109
  0
ARC
  5
7B58
  8
0
 10
4147.0171219334970374
 20
150.7392341149017057
 30
0.0
 40
0.0476957477653339
 50
298.7569925817804801
 51
344.8284175108502723
  0
ARC
  5
7B59
  8
0
 10
4146.9854605713171622
 20
150.7969284590026859
 30
0.0
 40
0.1135066829985698
 50
231.2787014660657121
 51
298.7569925817804801
  0
ARC
  5
7B5A
  8
0
 10
4146.9444320214815889
 20
150.7397961489483862
 30
0.0
 40
0.0434277584956983
 50
188.6608072629298931
 51
226.3545028203396896
  0
ARC
  5
7B5B
  8
0
 10
4146.9251586158015925
 20
150.7574412315219092
 30
0.0
 40
0.0338327062025688
 50
149.7241614233300027
 51
225.6292722100616004
  0
ARC
  5
7B5C
  8
0
 10
4146.9810534437319802
 20
150.6891776822774034
 30
0.0
 40
0.1205149823503475
 50
41.0855523711684683
 51
134.9301651770776971
  0
ARC
  5
7B5D
  8
0
 10
4147.0392889097483931
 20
150.7534886750817975
 30
0.0
 40
0.0358395659310882
 50
311.7532012492059152
 51
24.5478748357270113
  0
LINE
  5
7B5E
  8
0
 10
4147.0711929497638266
 20
150.7691697470291956
 30
0.0
 11
4147.0631553135162903
 21
150.7267516360298885
 31
0.0
  0
LINE
  5
7B5F
  8
0
 10
4146.8937727555949095
 20
150.7700737209067086
 30
0.0
 11
4146.9014994643166574
 21
150.7332565967300013
 31
0.0
  0
ARC
  5
7B60
  8
0
 10
4146.9817147156782084
 20
150.7119622781210069
 30
0.0
 40
0.0237188866283004
 50
49.8931967845592581
 51
126.361694693997606
  0
ARC
  5
7B61
  8
0
 10
4146.9937736929468883
 20
150.7262793233402931
 30
0.0
 40
0.005
 50
314.2049268196734033
 51
49.8931967845592581
  0
ARC
  5
7B62
  8
0
 10
4146.9706166502055567
 20
150.727036416882612
 30
0.0
 40
0.005
 50
126.3616946939957018
 51
222.0499646588883138
  0
ARC
  5
7B63
  8
0
 10
4146.9825597419421683
 20
150.7378088984374074
 30
0.0
 40
0.0210836500539991
 50
222.0499646588883138
 51
314.2049268196734033
  0
ARC
  5
7B64
  8
0
 10
4147.1423131315432329
 20
150.8433876557701012
 30
0.0
 40
0.0262823379935567
 50
134.035150024603297
 51
222.5390785767062027
  0
ARC
  5
7B65
  8
0
 10
4147.1888729444453929
 20
150.9005280379936949
 30
0.0
 40
0.0997876530691234
 50
228.6502625869449048
 51
300.8615178771420915
  0
ARC
  5
7B66
  8
0
 10
4147.226697669621899
 20
150.8399751055077047
 30
0.0
 40
0.0284405328727562
 50
298.0246663283811017
 51
35.9929047524434012
  0
ARC
  5
7B67
  8
0
 10
4147.1836143020627787
 20
150.786193968432201
 30
0.0
 40
0.0966334993067387
 50
46.8454261306998774
 51
128.0575747109303109
  0
ARC
  5
7B68
  8
0
 10
4147.2205849269967075
 20
150.8544541949273139
 30
0.0
 40
0.0476957477653339
 50
298.7569925817804801
 51
344.8284175108502723
  0
ARC
  5
7B69
  8
0
 10
4147.1889235648177419
 20
150.9121485390282942
 30
0.0
 40
0.1135066829985698
 50
231.2787014660657121
 51
298.7569925817804801
  0
ARC
  5
7B6A
  8
0
 10
4147.1478950149821685
 20
150.8550162289739944
 30
0.0
 40
0.0434277584956983
 50
188.6608072629298931
 51
226.3545028203396896
  0
ARC
  5
7B6B
  8
0
 10
4147.1286216093012627
 20
150.872661311547489
 30
0.0
 40
0.0338327062025688
 50
149.7241614233300027
 51
225.6292722100616004
  0
ARC
  5
7B6C
  8
0
 10
4147.1845164372298314
 20
150.8043977623030116
 30
0.0
 40
0.1205149823503475
 50
41.0855523711684683
 51
134.9301651770776971
  0
ARC
  5
7B6D
  8
0
 10
4147.2427519032480632
 20
150.8687087551074058
 30
0.0
 40
0.0358395659310882
 50
311.7532012492059152
 51
24.5478748357270113
  0
LINE
  5
7B6E
  8
0
 10
4147.2746559432616777
 20
150.8843898270548038
 30
0.0
 11
4147.2666183070168699
 21
150.8419717160554967
 31
0.0
  0
LINE
  5
7B6F
  8
0
 10
4147.0972357490936702
 20
150.8852938009322884
 30
0.0
 11
4147.104962457817237
 21
150.8484766767556096
 31
0.0
  0
ARC
  5
7B70
  8
0
 10
4147.1851777091769691
 20
150.8271823581465867
 30
0.0
 40
0.0237188866283004
 50
49.8931967845592581
 51
126.361694693997606
  0
ARC
  5
7B71
  8
0
 10
4147.197236686445649
 20
150.8414994033659013
 30
0.0
 40
0.005
 50
314.2049268196734033
 51
49.8931967845592581
  0
ARC
  5
7B72
  8
0
 10
4147.1740796437061363
 20
150.8422564969081918
 30
0.0
 40
0.005
 50
126.3616946939957018
 51
222.0499646588883138
  0
ARC
  5
7B73
  8
0
 10
4147.1860227354418384
 20
150.8530289784629872
 30
0.0
 40
0.0210836500539991
 50
222.0499646588883138
 51
314.2049268196734033
  0
ARC
  5
7B74
  8
0
 10
4147.1236206226240029
 20
151.0362824366386008
 30
0.0
 40
0.0262823379935567
 50
134.035150024603297
 51
222.5390785767062027
  0
ARC
  5
7B75
  8
0
 10
4147.1701804355261629
 20
151.0934228188621944
 30
0.0
 40
0.0997876530691234
 50
228.6502625869449048
 51
300.8615178771420915
  0
ARC
  5
7B76
  8
0
 10
4147.2080051607035784
 20
151.0328698863762042
 30
0.0
 40
0.0284405328727562
 50
298.0246663283811017
 51
35.9929047524434012
  0
ARC
  5
7B77
  8
0
 10
4147.1649217931435487
 20
150.9790887493007858
 30
0.0
 40
0.0966334993067387
 50
46.8454261306998774
 51
128.0575747109303109
  0
ARC
  5
7B78
  8
0
 10
4147.201892418078387
 20
151.0473489757958134
 30
0.0
 40
0.0476957477653339
 50
298.7569925817804801
 51
344.8284175108502723
  0
ARC
  5
7B79
  8
0
 10
4147.1702310558994213
 20
151.1050433198967937
 30
0.0
 40
0.1135066829985698
 50
231.2787014660657121
 51
298.7569925817804801
  0
ARC
  5
7B7A
  8
0
 10
4147.1292025060629385
 20
151.047911009842494
 30
0.0
 40
0.0434277584956983
 50
188.6608072629298931
 51
226.3545028203396896
  0
ARC
  5
7B7B
  8
0
 10
4147.1099291003829421
 20
151.0655560924159886
 30
0.0
 40
0.0338327062025688
 50
149.7241614233300027
 51
225.6292722100616004
  0
ARC
  5
7B7C
  8
0
 10
4147.1658239283124203
 20
150.9972925431715112
 30
0.0
 40
0.1205149823503475
 50
41.0855523711684683
 51
134.9301651770776971
  0
ARC
  5
7B7D
  8
0
 10
4147.2240593943288332
 20
151.0616035359759053
 30
0.0
 40
0.0358395659310882
 50
311.7532012492059152
 51
24.5478748357270113
  0
LINE
  5
7B7E
  8
0
 10
4147.2559634343442667
 20
151.0772846079233034
 30
0.0
 11
4147.2479257980976399
 21
151.0348664969241099
 31
0.0
  0
LINE
  5
7B7F
  8
0
 10
4147.0785432401753496
 20
151.0781885818009016
 30
0.0
 11
4147.0862699488989165
 21
151.0413714576241091
 31
0.0
  0
ARC
  5
7B80
  8
0
 10
4147.1664852002577391
 20
151.0200771390150862
 30
0.0
 40
0.0237188866283004
 50
49.8931967845592581
 51
126.361694693997606
  0
ARC
  5
7B81
  8
0
 10
4147.1785441775282379
 20
151.0343941842344009
 30
0.0
 40
0.005
 50
314.2049268196734033
 51
49.8931967845592581
  0
ARC
  5
7B82
  8
0
 10
4147.1553871347869062
 20
151.0351512777766914
 30
0.0
 40
0.005
 50
126.3616946939957018
 51
222.0499646588883138
  0
ARC
  5
7B83
  8
0
 10
4147.1673302265226084
 20
151.0459237593314867
 30
0.0
 40
0.0210836500539991
 50
222.0499646588883138
 51
314.2049268196734033
  0
ARC
  5
7B84
  8
0
 10
4147.3931098364173522
 20
151.0186146229505084
 30
0.0
 40
0.0262823379935567
 50
134.035150024603297
 51
222.5390785767062027
  0
ARC
  5
7B85
  8
0
 10
4147.4396696493186028
 20
151.0757550051741873
 30
0.0
 40
0.0997876530691234
 50
228.6502625869449048
 51
300.8615178771420915
  0
ARC
  5
7B86
  8
0
 10
4147.4774943744969278
 20
151.0152020726881972
 30
0.0
 40
0.0284405328727562
 50
298.0246663283811017
 51
35.9929047524434012
  0
ARC
  5
7B87
  8
0
 10
4147.4344110069359886
 20
150.9614209356128072
 30
0.0
 40
0.0966334993067387
 50
46.8454261306998774
 51
128.0575747109303109
  0
ARC
  5
7B88
  8
0
 10
4147.4713816318708268
 20
151.0296811621078064
 30
0.0
 40
0.0476957477653339
 50
298.7569925817804801
 51
344.8284175108502723
  0
ARC
  5
7B89
  8
0
 10
4147.4397202696918612
 20
151.0873755062087866
 30
0.0
 40
0.1135066829985698
 50
231.2787014660657121
 51
298.7569925817804801
  0
ARC
  5
7B8A
  8
0
 10
4147.3986917198562878
 20
151.0302431961544869
 30
0.0
 40
0.0434277584956983
 50
188.6608072629298931
 51
226.3545028203396896
  0
ARC
  5
7B8B
  8
0
 10
4147.3794183141762915
 20
151.0478882787280099
 30
0.0
 40
0.0338327062025688
 50
149.7241614233300027
 51
225.6292722100616004
  0
ARC
  5
7B8C
  8
0
 10
4147.4353131421039507
 20
150.9796247294835041
 30
0.0
 40
0.1205149823503475
 50
41.0855523711684683
 51
134.9301651770776971
  0
ARC
  5
7B8D
  8
0
 10
4147.4935486081221825
 20
151.0439357222878982
 30
0.0
 40
0.0358395659310882
 50
311.7532012492059152
 51
24.5478748357270113
  0
LINE
  5
7B8E
  8
0
 10
4147.5254526481357971
 20
151.0596167942352963
 30
0.0
 11
4147.5174150118909893
 21
151.0171986832361029
 31
0.0
  0
LINE
  5
7B8F
  8
0
 10
4147.3480324539677895
 20
151.0605207681128093
 30
0.0
 11
4147.3557591626913563
 21
151.0237036439359883
 31
0.0
  0
ARC
  5
7B90
  8
0
 10
4147.4359744140510884
 20
151.0024093253271076
 30
0.0
 40
0.0237188866283004
 50
49.8931967845592581
 51
126.361694693997606
  0
ARC
  5
7B91
  8
0
 10
4147.4480333913197683
 20
151.0167263705463938
 30
0.0
 40
0.005
 50
314.2049268196734033
 51
49.8931967845592581
  0
ARC
  5
7B92
  8
0
 10
4147.4248763485802556
 20
151.0174834640887127
 30
0.0
 40
0.005
 50
126.3616946939957018
 51
222.0499646588883138
  0
ARC
  5
7B93
  8
0
 10
4147.4368194403159578
 20
151.0282559456435081
 30
0.0
 40
0.0210836500539991
 50
222.0499646588883138
 51
314.2049268196734033
  0
ARC
  5
7B94
  8
0
 10
4147.2488514002870943
 20
150.052522646836195
 30
0.0
 40
0.1927421565859276
 50
64.447562014554876
 51
125.1299274386925049
  0
ARC
  5
7B95
  8
0
 10
4147.2712052537726777
 20
150.0992783024055086
 30
0.0
 40
0.1409175862223613
 50
34.6256647104652515
 51
64.447562014554876
  0
ARC
  5
7B96
  8
0
 10
4147.3297127908017501
 20
150.1494184733211057
 30
0.0
 40
0.0647802353497898
 50
313.5861768056221877
 51
27.5187126278514711
  0
ARC
  5
7B97
  8
0
 10
4147.2629908815233648
 20
150.225339670542013
 30
0.0
 40
0.1658225298535404
 50
265.5402356552978063
 51
312.1990199889286259
  0
ARC
  5
7B98
  8
0
 10
4147.2537956489104545
 20
150.250768208170399
 30
0.0
 40
0.1907848489371033
 50
235.9395298900367948
 51
268.8890725326464235
  0
ARC
  5
7B99
  8
0
 10
4147.1799628517819656
 20
150.1543108006214027
 30
0.0
 40
0.0698897212901058
 50
126.9598456114339058
 51
241.8063564519167983
  0
ARC
  5
7B9A
  8
0
 10
4147.2481541433489838
 20
150.0765128203343011
 30
0.0
 40
0.0794943820092316
 50
43.5927489302090123
 51
122.968704217730803
  0
ARC
  5
7B9B
  8
0
 10
4147.2811754180356729
 20
150.1167994035509139
 30
0.0
 40
0.0285288708713396
 50
312.652795473116214
 51
30.6108118289216584
  0
ARC
  5
7B9C
  8
0
 10
4147.2535080860116068
 20
150.1583307957700129
 30
0.0
 40
0.0782092468540521
 50
220.9540691604271956
 51
306.9355237885333736
  0
ARC
  5
7B9D
  8
0
 10
4147.2190529658373634
 20
150.1195299900545876
 30
0.0
 40
0.0275863953504439
 50
120.8791655964801066
 51
206.855060809761909
  0
ARC
  5
7B9E
  8
0
 10
4147.2775552135171893
 20
150.1293663154822013
 30
0.0
 40
0.0456316546509115
 50
298.7635312024004861
 51
343.6094322880069853
  0
ARC
  5
7B9F
  8
0
 10
4147.2542621844850146
 20
150.1718001334976123
 30
0.0
 40
0.0940382049602132
 50
225.988498263163109
 51
298.7635312023999745
  0
ARC
  5
7BA0
  8
0
 10
4147.2218575608649189
 20
150.1304022889246994
 30
0.0
 40
0.0421052808182292
 50
190.7105490953333913
 51
218.540543183262514
  0
ARC
  5
7BA1
  8
0
 10
4147.2966068604637258
 20
150.1433560652720018
 30
0.0
 40
0.0365123079731247
 50
312.6239950527415772
 51
28.9680498121620609
  0
ARC
  5
7BA2
  8
0
 10
4147.2506178407329571
 20
150.0953216980616958
 30
0.0
 40
0.1019434152692049
 50
40.1396241629427806
 51
138.3088497648890041
  0
ARC
  5
7BA3
  8
0
 10
4147.2025909415006026
 20
150.1465616264576113
 30
0.0
 40
0.0326173716327942
 50
149.4804241156913918
 51
227.3350250400575874
  0
LINE
  5
7BA4
  8
0
 10
4147.3313933935905879
 20
150.1544486639980107
 30
0.0
 11
4147.3213324178850598
 21
150.1164898142550044
 31
0.0
  0
LINE
  5
7BA5
  8
0
 10
4147.1804858131708897
 20
150.122577126592887
 30
0.0
 11
4147.1741106082217811
 21
150.162460165654295
 31
0.0
  0
ARC
  5
7BA6
  8
0
 10
4147.2498749883470737
 20
150.103704986396707
 30
0.0
 40
0.0237188866283004
 50
49.8931967845592581
 51
126.361694693997606
  0
ARC
  5
7BA7
  8
0
 10
4147.2619339656175725
 20
150.1180220316159932
 30
0.0
 40
0.005
 50
314.2049268196734033
 51
49.8931967845592581
  0
ARC
  5
7BA8
  8
0
 10
4147.2387769228771504
 20
150.1187791251583121
 30
0.0
 40
0.005
 50
126.3616946939957018
 51
222.0499646588883138
  0
ARC
  5
7BA9
  8
0
 10
4147.2507200146128525
 20
150.1295516067131075
 30
0.0
 40
0.0210836500539991
 50
222.0499646588883138
 51
314.2049268196734033
  0
ARC
  5
7BAA
  8
0
 10
4146.7355743720581813
 20
150.4095503533256988
 30
0.0
 40
0.1927421565859276
 50
64.447562014554876
 51
125.1299274386925049
  0
ARC
  5
7BAB
  8
0
 10
4146.7579282255428552
 20
150.4563060088950124
 30
0.0
 40
0.1409175862223613
 50
34.6256647104652515
 51
64.447562014554876
  0
ARC
  5
7BAC
  8
0
 10
4146.8164357625728371
 20
150.5064461798106095
 30
0.0
 40
0.0647802353497898
 50
313.5861768056221877
 51
27.5187126278514711
  0
ARC
  5
7BAD
  8
0
 10
4146.7497138532953613
 20
150.5823673770314883
 30
0.0
 40
0.1658225298535404
 50
265.5402356552978063
 51
312.1990199889286259
  0
ARC
  5
7BAE
  8
0
 10
4146.740518620680632
 20
150.6077959146597891
 30
0.0
 40
0.1907848489371033
 50
235.9395298900367948
 51
268.8890725326464235
  0
ARC
  5
7BAF
  8
0
 10
4146.6666858235539621
 20
150.5113385071109064
 30
0.0
 40
0.0698897212901058
 50
126.9598456114339058
 51
241.8063564519167983
  0
ARC
  5
7BB0
  8
0
 10
4146.7348771151200708
 20
150.4335405268238048
 30
0.0
 40
0.0794943820092316
 50
43.5927489302090123
 51
122.968704217730803
  0
ARC
  5
7BB1
  8
0
 10
4146.7678983898085789
 20
150.4738271100403892
 30
0.0
 40
0.0285288708713396
 50
312.652795473116214
 51
30.6108118289216584
  0
ARC
  5
7BB2
  8
0
 10
4146.7402310577817843
 20
150.5153585022594882
 30
0.0
 40
0.0782092468540521
 50
220.9540691604271956
 51
306.9355237885333736
  0
ARC
  5
7BB3
  8
0
 10
4146.7057759376102695
 20
150.4765576965440914
 30
0.0
 40
0.0275863953504439
 50
120.8791655964801066
 51
206.8550608097611985
  0
ARC
  5
7BB4
  8
0
 10
4146.7642781852900953
 20
150.4863940219717051
 30
0.0
 40
0.0456316546509115
 50
298.7635312024004861
 51
343.6094322880069853
  0
ARC
  5
7BB5
  8
0
 10
4146.7409851562570111
 20
150.5288278399870876
 30
0.0
 40
0.0940382049602132
 50
225.988498263163109
 51
298.7635312023999745
  0
ARC
  5
7BB6
  8
0
 10
4146.708580532636006
 20
150.4874299954142884
 30
0.0
 40
0.0421052808182292
 50
190.7105490953333913
 51
218.540543183262514
  0
ARC
  5
7BB7
  8
0
 10
4146.7833298322357223
 20
150.5003837717615056
 30
0.0
 40
0.0365123079731247
 50
312.6239950527415772
 51
28.9680498121620609
  0
ARC
  5
7BB8
  8
0
 10
4146.7373408125049536
 20
150.4523494045511995
 30
0.0
 40
0.1019434152692049
 50
40.1396241629427806
 51
138.3088497648890041
  0
ARC
  5
7BB9
  8
0
 10
4146.6893139132725992
 20
150.5035893329472003
 30
0.0
 40
0.0326173716327942
 50
149.4804241156913918
 51
227.3350250400575874
  0
LINE
  5
7BBA
  8
0
 10
4146.8181163653625845
 20
150.5114763704874861
 30
0.0
 11
4146.8080553896579659
 21
150.4735175207445081
 31
0.0
  0
LINE
  5
7BBB
  8
0
 10
4146.6672087849419768
 20
150.4796048330823908
 30
0.0
 11
4146.6608335799946872
 21
150.5194878721439125
 31
0.0
  0
ARC
  5
7BBC
  8
0
 10
4146.7365979601199797
 20
150.4607326928862108
 30
0.0
 40
0.0237188866283004
 50
49.8931967845592581
 51
126.361694693997606
  0
ARC
  5
7BBD
  8
0
 10
4146.7486569373886596
 20
150.475049738105497
 30
0.0
 40
0.005
 50
314.2049268196734033
 51
49.8931967845592581
  0
ARC
  5
7BBE
  8
0
 10
4146.7254998946482374
 20
150.4758068316477875
 30
0.0
 40
0.005
 50
126.3616946939957018
 51
222.0499646588883138
  0
ARC
  5
7BBF
  8
0
 10
4146.7374429863848491
 20
150.4865793132026113
 30
0.0
 40
0.0210836500539991
 50
222.0499646588883138
 51
314.2049268196734033
  0
ARC
  5
7BC0
  8
0
 10
4146.7351858193078442
 20
150.9154871419895017
 30
0.0
 40
0.1927421565859276
 50
64.447562014554876
 51
125.1299274386925049
  0
ARC
  5
7BC1
  8
0
 10
4146.7575396727934276
 20
150.9622427975587868
 30
0.0
 40
0.1409175862223613
 50
34.6256647104652515
 51
64.447562014554876
  0
ARC
  5
7BC2
  8
0
 10
4146.8160472098215905
 20
151.0123829684744976
 30
0.0
 40
0.0647802353497898
 50
313.5861768056221877
 51
27.5187126278514711
  0
ARC
  5
7BC3
  8
0
 10
4146.7493253005432052
 20
151.0883041656952912
 30
0.0
 40
0.1658225298535404
 50
265.5402356552978063
 51
312.1990199889286259
  0
ARC
  5
7BC4
  8
0
 10
4146.7401300679302949
 20
151.1137327033237057
 30
0.0
 40
0.1907848489371033
 50
235.9395298900367948
 51
268.8890725326464235
  0
ARC
  5
7BC5
  8
0
 10
4146.6662972708027155
 20
151.0172752957747093
 30
0.0
 40
0.0698897212901058
 50
126.9598456114339058
 51
241.8063564519167983
  0
ARC
  5
7BC6
  8
0
 10
4146.7344885623679147
 20
150.9394773154876077
 30
0.0
 40
0.0794943820092316
 50
43.5927489302090123
 51
122.968704217730803
  0
ARC
  5
7BC7
  8
0
 10
4146.7675098370573323
 20
150.9797638987041921
 30
0.0
 40
0.0285288708713396
 50
312.652795473116214
 51
30.6108118289216584
  0
ARC
  5
7BC8
  8
0
 10
4146.7398425050314472
 20
151.0212952909234048
 30
0.0
 40
0.0782092468540521
 50
220.9540691604271956
 51
306.9355237885333736
  0
ARC
  5
7BC9
  8
0
 10
4146.7053873848581134
 20
150.982494485208008
 30
0.0
 40
0.0275863953504439
 50
120.8791655964801066
 51
206.8550608097611985
  0
ARC
  5
7BCA
  8
0
 10
4146.7638896325379392
 20
150.9923308106355933
 30
0.0
 40
0.0456316546509115
 50
298.7635312024004861
 51
343.6094322880069853
  0
ARC
  5
7BCB
  8
0
 10
4146.7405966035057645
 20
151.0347646286508905
 30
0.0
 40
0.0940382049602132
 50
225.988498263163109
 51
298.7635312023999745
  0
ARC
  5
7BCC
  8
0
 10
4146.7081919798847593
 20
150.9933667840780913
 30
0.0
 40
0.0421052808182292
 50
190.7105490953333913
 51
218.540543183262514
  0
ARC
  5
7BCD
  8
0
 10
4146.7829412794853852
 20
151.0063205604253938
 30
0.0
 40
0.0365123079731247
 50
312.6239950527415772
 51
28.9680498121620609
  0
ARC
  5
7BCE
  8
0
 10
4146.7369522597527975
 20
150.9582861932150877
 30
0.0
 40
0.1019434152692049
 50
40.1396241629427806
 51
138.3088497648890041
  0
ARC
  5
7BCF
  8
0
 10
4146.6889253605213526
 20
151.0095261216110032
 30
0.0
 40
0.0326173716327942
 50
149.4804241156913918
 51
227.3350250400575874
  0
LINE
  5
7BD0
  8
0
 10
4146.8177278126122474
 20
151.0174131591512889
 30
0.0
 11
4146.8076668369058098
 21
150.979454309408311
 31
0.0
  0
LINE
  5
7BD1
  8
0
 10
4146.6668202321916397
 20
150.9855416217463073
 30
0.0
 11
4146.6604450272434406
 21
151.0254246608076869
 31
0.0
  0
ARC
  5
7BD2
  8
0
 10
4146.7362094073678236
 20
150.9666694815500136
 30
0.0
 40
0.0237188866283004
 50
49.8931967845592581
 51
126.361694693997606
  0
ARC
  5
7BD3
  8
0
 10
4146.7482683846383225
 20
150.9809865267692999
 30
0.0
 40
0.005
 50
314.2049268196734033
 51
49.8931967845592581
  0
ARC
  5
7BD4
  8
0
 10
4146.7251113418960813
 20
150.9817436203115903
 30
0.0
 40
0.005
 50
126.3616946939957018
 51
222.0499646588883138
  0
ARC
  5
7BD5
  8
0
 10
4146.7370544336336025
 20
150.9925161018664994
 30
0.0
 40
0.0210836500539991
 50
222.0499646588883138
 51
314.2049268196734033
  0
ARC
  5
7BD6
  8
0
 10
4147.2490442981852539
 20
151.272140569105801
 30
0.0
 40
0.1927421565859276
 50
64.447562014554876
 51
125.1299274386925049
  0
ARC
  5
7BD7
  8
0
 10
4147.2713981516708373
 20
151.3188962246750862
 30
0.0
 40
0.1409175862223613
 50
34.6256647104652515
 51
64.447562014554876
  0
ARC
  5
7BD8
  8
0
 10
4147.3299056886999097
 20
151.369036395590598
 30
0.0
 40
0.0647802353497898
 50
313.5861768056221877
 51
27.5187126278514711
  0
ARC
  5
7BD9
  8
0
 10
4147.2631837794197054
 20
151.4449575928115053
 30
0.0
 40
0.1658225298535404
 50
265.5402356552978063
 51
312.1990199889286259
  0
ARC
  5
7BDA
  8
0
 10
4147.2539885468077046
 20
151.4703861304398913
 30
0.0
 40
0.1907848489371033
 50
235.9395298900367948
 51
268.8890725326464235
  0
ARC
  5
7BDB
  8
0
 10
4147.1801557496801252
 20
151.373928722890895
 30
0.0
 40
0.0698897212901058
 50
126.9598456114339058
 51
241.8063564519167983
  0
ARC
  5
7BDC
  8
0
 10
4147.2483470412471434
 20
151.2961307426037934
 30
0.0
 40
0.0794943820092316
 50
43.5927489302090123
 51
122.968704217730803
  0
ARC
  5
7BDD
  8
0
 10
4147.281368315934742
 20
151.3364173258204062
 30
0.0
 40
0.0285288708713396
 50
312.652795473116214
 51
30.6108118289216584
  0
ARC
  5
7BDE
  8
0
 10
4147.2537009839097664
 20
151.3779487180395051
 30
0.0
 40
0.0782092468540521
 50
220.9540691604271956
 51
306.9355237885333736
  0
ARC
  5
7BDF
  8
0
 10
4147.2192458637364325
 20
151.3391479123241936
 30
0.0
 40
0.0275863953504439
 50
120.8791655964801066
 51
206.8550608097611985
  0
ARC
  5
7BE0
  8
0
 10
4147.2777481114162583
 20
151.3489842377518073
 30
0.0
 40
0.0456316546509115
 50
298.7635312024004861
 51
343.6094322880069853
  0
ARC
  5
7BE1
  8
0
 10
4147.2544550823831742
 20
151.3914180557671045
 30
0.0
 40
0.0940382049602132
 50
225.988498263163109
 51
298.7635312023999745
  0
ARC
  5
7BE2
  8
0
 10
4147.2220504587630785
 20
151.3500202111943054
 30
0.0
 40
0.0421052808182292
 50
190.7105490953333913
 51
218.540543183262514
  0
ARC
  5
7BE3
  8
0
 10
4147.2967997583627948
 20
151.3629739875416078
 30
0.0
 40
0.0365123079731247
 50
312.6239950527415772
 51
28.9680498121620609
  0
ARC
  5
7BE4
  8
0
 10
4147.2508107386320262
 20
151.3149396203311881
 30
0.0
 40
0.1019434152692049
 50
40.1396241629427806
 51
138.3088497648890041
  0
ARC
  5
7BE5
  8
0
 10
4147.2027838393987622
 20
151.3661795487271888
 30
0.0
 40
0.0326173716327942
 50
149.4804241156913918
 51
227.3350250400575874
  0
LINE
  5
7BE6
  8
0
 10
4147.3315862914887475
 20
151.374066586267503
 30
0.0
 11
4147.3215253157841289
 21
151.3361077365244967
 31
0.0
  0
LINE
  5
7BE7
  8
0
 10
4147.1806787110699588
 20
151.342195048862493
 30
0.0
 11
4147.1743035061208502
 21
151.382078087923901
 31
0.0
  0
ARC
  5
7BE8
  8
0
 10
4147.2500678862461427
 20
151.3233229086661993
 30
0.0
 40
0.0237188866283004
 50
49.8931967845592581
 51
126.361694693997606
  0
ARC
  5
7BE9
  8
0
 10
4147.2621268635148226
 20
151.3376399538855139
 30
0.0
 40
0.005
 50
314.2049268196734033
 51
49.8931967845592581
  0
ARC
  5
7BEA
  8
0
 10
4147.2389698207753099
 20
151.3383970474278044
 30
0.0
 40
0.005
 50
126.3616946939957018
 51
222.0499646588883138
  0
ARC
  5
7BEB
  8
0
 10
4147.2509129125101026
 20
151.3491695289825998
 30
0.0
 40
0.0210836500539991
 50
222.0499646588883138
 51
314.2049268196734033
  0
ARC
  5
7BEC
  8
0
 10
4146.9938385014056621
 20
143.9403188289711011
 30
0.0
 40
0.0788
 50
183.0771721812569126
 51
270.0167288807634804
  0
LINE
  5
7BED
  8
0
 10
4145.3505191295671466
 20
151.1120850753194986
 30
0.0
 11
4145.3505191295671466
 21
151.5942532297790137
 31
0.0
  0
LINE
  5
7BEE
  8
0
 10
4148.0267671684387096
 20
143.6422594041648892
 30
0.0
 11
4148.0267671684387096
 21
143.6678775558306995
 31
0.0
  0
LINE
  5
7BEF
  8
0
 10
4148.0267671684387096
 20
143.7068261391970907
 30
0.0
 11
4148.0267671684387096
 21
143.732327083287089
 31
0.0
  0
LINE
  5
7BF0
  8
0
 10
4148.0267671684387096
 20
143.7714587014874041
 30
0.0
 11
4148.0267671684387096
 21
143.7968810842496907
 31
0.0
  0
LINE
  5
7BF1
  8
0
 10
4148.0267671684387096
 20
143.8360959392350935
 30
0.0
 11
4148.0267671684387096
 21
143.8615188289711
 31
0.0
  0
LINE
  5
7BF2
  8
0
 10
4148.0267671684387096
 20
143.603319785636188
 30
0.0
 11
4148.0267671684387096
 21
143.5780034328766988
 31
0.0
  0
LINE
  5
7BF3
  8
0
 10
4148.0012443299901861
 20
143.8213362651009106
 30
0.0
 11
4148.0267671684387096
 21
143.8360959392350935
 31
0.0
  0
LINE
  5
7BF4
  8
0
 10
4148.0012443325949789
 20
143.8116407385766991
 30
0.0
 11
4148.0267671684387096
 21
143.7968810842496907
 31
0.0
  0
LINE
  5
7BF5
  8
0
 10
4148.0013117997023073
 20
143.7567409533307057
 30
0.0
 11
4148.0267671684387096
 21
143.7714587014874041
 31
0.0
  0
LINE
  5
7BF6
  8
0
 10
4148.0013117830358169
 20
143.7470449578410125
 30
0.0
 11
4148.0267671684387096
 21
143.732327083287089
 31
0.0
  0
LINE
  5
7BF7
  8
0
 10
4148.0014607240691475
 20
143.692200521973092
 30
0.0
 11
4148.0267671684387096
 21
143.7068261391970907
 31
0.0
  0
LINE
  5
7BF8
  8
0
 10
4148.0014606747554353
 20
143.6825035449236907
 30
0.0
 11
4148.0267671684387096
 21
143.6678775558306995
 31
0.0
  0
LINE
  5
7BF9
  8
0
 10
4148.0014542190929205
 20
143.6276293962037016
 30
0.0
 11
4148.0267671684387096
 21
143.6422594041648892
 31
0.0
  0
LINE
  5
7BFA
  8
0
 10
4148.0014567039679605
 20
143.6179310600965948
 30
0.0
 11
4148.0267671684387096
 21
143.603319785636188
 31
0.0
  0
ARC
  5
7BFB
  8
0
 10
4148.0040477562251908
 20
143.8164885025919943
 30
0.0
 40
0.0056
 50
120.0404864593998013
 51
239.9595443276693914
  0
ARC
  5
7BFC
  8
0
 10
4148.004114810788451
 20
143.7518929507679104
 30
0.0
 40
0.0056
 50
120.0355799296849
 51
239.9642231046481982
  0
ARC
  5
7BFD
  8
0
 10
4148.0042628698238332
 20
143.6873520191979026
 30
0.0
 40
0.0056
 50
120.0253536124970992
 51
239.9740636302221901
  0
ARC
  5
7BFE
  8
0
 10
4148.0042564554842102
 20
143.6227809458115132
 30
0.0
 40
0.0056
 50
120.0264246748420049
 51
240.0029355913981135
  0
ARC
  5
7C00
  8
0
 10
3874.1123330460532088
 20
158.6767213422027964
 30
0.0
 40
274.5969803585953173
 50
356.9228278187571277
 51
357.0541953055284239
  0
ARC
  5
7C01
  8
0
 10
4098.7680101288678998
 20
147.1160881247724035
 30
0.0
 40
49.644048646368141
 50
357.0541953055292197
 51
358.5655581764569888
  0
ARC
  5
7C02
  8
0
 10
4139.5268400887925964
 20
146.0954477001228042
 30
0.0
 40
8.8724417786170289
 50
358.5655581764569888
 51
7.3096920533230731
  0
ARC
  5
7C03
  8
0
 10
4163.7059534469235587
 20
149.1970208637652036
 30
0.0
 40
15.5047869169269994
 50
184.0460662009625992
 51
187.3096920533230048
  0
ARC
  5
7C04
  8
0
 10
4150.92714323333621
 20
148.2931143324285017
 30
0.0
 40
2.6940477699331389
 50
174.1055630900038977
 51
184.0460662009625992
  0
ARC
  5
7C05
  8
0
 10
4149.1800183186669528
 20
148.4974088161650911
 30
0.0
 40
0.9354826388886479
 50
128.92704462869861
 51
175.5628957625330031
  0
ARC
  5
7C06
  8
0
 10
4153.4045555923567008
 20
142.9399906720680917
 30
0.0
 40
7.9159284356423489
 50
121.4301503912937932
 51
127.4399695583699952
  0
ARC
  5
7C07
  8
0
 10
4147.7382034091733658
 20
152.0960738241626871
 30
0.0
 40
2.8521515907187331
 50
302.6445145926734881
 51
318.6603628930022865
  0
ARC
  5
7C08
  8
0
 10
4148.5062151507108865
 20
151.3982478405563938
 30
0.0
 40
1.8146701767851281
 50
319.1859083461932869
 51
342.9250256587981198
  0
ARC
  5
7C09
  8
0
 10
4148.7321492081664474
 20
151.3291428553982882
 30
0.0
 40
1.578404210433398
 50
342.9148448179457773
 51
359.9404893852849909
  0
ARC
  5
7C0A
  8
0
 10
4148.7707227976898139
 20
151.3218738978343936
 30
0.0
 40
1.5398400601304709
 50
0.2094694954393802
 51
26.4712088071631513
  0
ARC
  5
7C0B
  8
0
 10
4148.2252467820771926
 20
151.0311328837134113
 30
0.0
 40
2.1577926446580369
 50
26.9256517581091792
 51
58.8648919366074921
  0
ARC
  5
7C0C
  8
0
 10
4147.7888460917838529
 20
150.3947152670666014
 30
0.0
 40
2.9285166992637812
 50
57.9947621360389292
 51
70.5016574673642538
  0
ARC
  5
7C0D
  8
0
 10
4147.6335154925245661
 20
149.9632657609458875
 30
0.0
 40
3.3870701148041711
 50
70.4608301473672469
 51
82.0773710623099078
  0
ARC
  5
7C0E
  8
0
 10
4147.6116619809617987
 20
149.8412050083015004
 30
0.0
 40
3.510981314259769
 50
81.9987037536993171
 51
89.9574857799086232
  0
ARC
  5
7C0F
  8
0
 10
4147.6007835783047994
 20
148.9492346754489063
 30
0.0
 40
3.781876551073462
 50
86.4963200862992636
 51
89.7957218314308676
  0
ARC
  5
7C10
  8
0
 10
4147.6326239990476097
 20
149.4692728180498023
 30
0.0
 40
3.2608645721776299
 50
75.66065274495719
 51
86.4963200862992636
  0
ARC
  5
7C11
  8
0
 10
4147.7324712021945743
 20
149.8598680964146013
 30
0.0
 40
2.8577093471624759
 50
59.0826296668072217
 51
75.66065274495719
  0
ARC
  5
7C12
  8
0
 10
4148.2520002806822959
 20
150.7273409991624078
 30
0.0
 40
1.8465616327333061
 50
31.6232556408024195
 51
59.0826296668072217
  0
ARC
  5
7C13
  8
0
 10
4148.7790196459682193
 20
151.0771429302835998
 30
0.0
 40
1.2145757836353761
 50
0.4122060279411971
 51
30.6076319243862116
  0
ARC
  5
7C14
  8
0
 10
4148.7377475578841768
 20
151.0988555802427982
 30
0.0
 40
1.255883462259503
 50
323.5505236910448161
 51
359.4080618855011267
  0
ARC
  5
7C15
  8
0
 10
4148.1774567942993599
 20
151.5125922458917103
 30
0.0
 40
1.9523773708413581
 50
294.5201748135688149
 51
323.5527095686226176
  0
ARC
  5
7C16
  8
0
 10
4147.6890066880168888
 20
152.4309829394395877
 30
0.0
 40
2.9913254968968501
 50
278.2759501655780241
 51
295.7318436714417089
  0
ARC
  5
7C17
  8
0
 10
4147.6153357604407574
 20
152.8232068903363086
 30
0.0
 40
3.3901090930721942
 50
269.981939979019387
 51
278.5539146760823996
  0
ARC
  5
7C18
  8
0
 10
4147.6169081219877626
 20
149.5579752861287943
 30
0.0
 40
2.7711442446816581
 50
76.3193591742837043
 51
90.0546038496973296
  0
ARC
  5
7C19
  8
0
 10
4147.7232480097072767
 20
149.9948404816884988
 30
0.0
 40
2.3215228808523829
 50
56.2231696675180004
 51
76.3193591742837043
  0
ARC
  5
7C1A
  8
0
 10
4148.2415310525620953
 20
150.7697201133163105
 30
0.0
 40
1.3892912808618989
 50
25.9612388554369993
 51
56.2231696675180004
  0
ARC
  5
7C1B
  8
0
 10
4148.6581389412713179
 20
150.9725645883004006
 30
0.0
 40
0.9259253196964333
 50
359.5605872466035748
 51
25.9612388554369993
  0
ARC
  5
7C1C
  8
0
 10
4148.465681507204863
 20
150.9740406116617066
 30
0.0
 40
1.118388413749229
 50
325.0869372771261965
 51
359.5605872466035748
  0
ARC
  5
7C1D
  8
0
 10
4148.0089447331101837
 20
151.3255869903659061
 30
0.0
 40
1.6943369635045451
 50
294.560308970605206
 51
324.1782585492628073
  0
ARC
  5
7C1E
  8
0
 10
4147.6315888227145479
 20
152.0936662861790865
 30
0.0
 40
2.5498846046261932
 50
278.1130778375464274
 51
295.0987319713705119
  0
ARC
  5
7C1F
  8
0
 10
4147.5959617621274447
 20
152.8433518377111113
 30
0.0
 40
3.2978491525683049
 50
270.3180340375697028
 51
276.8876093203662094
  0
ARC
  5
7C20
  8
0
 10
4147.3637067825693521
 20
150.4918727150042059
 30
0.0
 40
2.4854396463700681
 50
48.9849321452970727
 51
53.8196456279911501
  0
ARC
  5
7C21
  8
0
 10
4147.4414581970058862
 20
150.5812679938493091
 30
0.0
 40
2.366962651444565
 50
39.0066841789996488
 51
48.9849321452970727
  0
ARC
  5
7C22
  8
0
 10
4148.1311138889068388
 20
151.1398733889693915
 30
0.0
 40
1.4794577439487959
 50
14.3244307118919707
 51
39.0066841789996488
  0
ARC
  5
7C23
  8
0
 10
4148.4829783987306655
 20
151.6728516653606107
 30
0.0
 40
1.10267038153676
 50
357.2528705219414178
 51
21.7751797018390185
  0
LINE
  5
7C24
  8
0
 10
4149.5713531486471766
 20
151.6200027843767089
 30
0.0
 11
4149.8655233871886594
 21
151.6200027843767089
 31
0.0
  0
ARC
  5
7C25
  8
0
 10
4149.7291488411947284
 20
151.5716069615228037
 30
0.0
 40
0.1650504051998794
 50
159.1189565416989069
 51
182.1737074423429874
  0
ARC
  5
7C26
  8
0
 10
4149.5665674058036529
 20
151.6195959886948117
 30
0.0
 40
0.0136958078822866
 50
1.7020612691382351
 51
52.3223126202724771
  0
ARC
  5
7C27
  8
0
 10
4149.5839713365066928
 20
151.5751421421971088
 30
0.0
 40
0.0220494007108962
 50
197.1305141514862953
 51
206.3752849400329978
  0
ARC
  5
7C28
  8
0
 10
4148.5286196788101734
 20
151.3276948802212019
 30
0.0
 40
1.0619765619428969
 50
13.1140842173112606
 51
18.6856987060916993
  0
ARC
  5
7C29
  8
0
 10
4148.2342222078068517
 20
151.2094470762571063
 30
0.0
 40
1.3788538176337151
 50
19.4210835963414183
 51
38.1899855230843883
  0
ARC
  5
7C2A
  8
0
 10
4147.554237355803707
 20
150.6858994104206033
 30
0.0
 40
2.2370102491389119
 50
37.9613968329336799
 51
52.5328382032606811
  0
LINE
  5
7C2B
  8
0
 10
4149.5642172018033307
 20
151.5653467231767024
 30
0.0
 11
4149.5555968148037209
 21
151.5652941194767038
 31
0.0
  0
ARC
  5
7C2C
  8
0
 10
4149.555804324242672
 20
151.5374489100979076
 30
0.0
 40
0.0278454225357021
 50
90.4269593589539795
 51
105.4457779474684003
  0
ARC
  5
7C2D
  8
0
 10
4159.9634177013331282
 20
151.9693458623752065
 30
0.0
 40
10.4091636068628599
 50
182.5517652713504901
 51
184.1909398974057126
  0
ARC
  5
7C2E
  8
0
 10
4145.2578210213705461
 20
151.0558891447574013
 30
0.0
 40
4.3269637192435422
 50
358.9484207149827171
 51
2.0230685946938478
  0
LINE
  5
7C2F
  8
0
 10
4149.7643079363815559
 20
151.0294516032766978
 30
0.0
 11
4149.5853735297059757
 21
151.0294516032766978
 31
0.0
  0
ARC
  5
7C30
  8
0
 10
4149.7956790295538667
 20
151.120009655365692
 30
0.0
 40
0.0827166686428634
 50
293.4265444023687905
 51
354.5024086446059073
  0
ARC
  5
7C31
  8
0
 10
4149.7657442770932903
 20
151.1713128537670059
 30
0.0
 40
0.1418685217563244
 50
269.419901852086582
 51
296.2832491422155954
  0
ARC
  5
7C32
  8
0
 10
4148.5351406233112357
 20
151.4458515387578075
 30
0.0
 40
1.1886461667802151
 50
331.5304206881136793
 51
339.4934501407926746
  0
ARC
  5
7C33
  8
0
 10
4148.041770893478315
 20
150.0799961691539863
 30
0.0
 40
2.3912578878658861
 50
72.9741055311892097
 51
79.9515824028857907
  0
ARC
  5
7C34
  8
0
 10
4147.8093922719290276
 20
148.768592786257102
 30
0.0
 40
3.723090706363092
 50
79.9515824028857907
 51
86.7263955395599879
  0
ARC
  5
7C35
  8
0
 10
4147.603845204598656
 20
145.1749510477999934
 30
0.0
 40
7.3226060266900852
 50
86.7263955395599879
 51
89.9184531964491924
  0
LINE
  5
7C36
  8
0
 10
4148.7536381838572197
 20
152.3700899177896986
 30
0.0
 11
4148.7555471497253166
 21
152.528166865002305
 31
0.0
  0
ARC
  5
7C37
  8
0
 10
4148.748800360785026
 20
152.370145655240492
 30
0.0
 40
0.0048381441408539
 50
269.3919136996224211
 51
359.339913974730905
  0
ARC
  5
7C38
  8
0
 10
4148.7490807252661398
 20
152.388124636213405
 30
0.0
 40
0.0228192637174971
 50
251.7656014850998076
 51
269.1670929900723763
  0
LINE
  5
7C39
  8
0
 10
4148.7487386789089214
 20
152.5117919636566057
 30
0.0
 11
4148.7495927308036698
 21
152.4409812993766877
 31
0.0
  0
LINE
  5
7C3A
  8
0
 10
4148.7495927308036698
 20
152.4409812993766877
 30
0.0
 11
4148.7487423214870432
 21
152.371296007959188
 31
0.0
  0
ARC
  5
7C3B
  8
0
 10
4148.7405851235298542
 20
152.3712756724738995
 30
0.0
 40
0.0081572233043671
 50
314.6565565092088264
 51
0.1428352079670183
  0
LINE
  5
7C3C
  8
0
 10
4148.701830980802697
 20
152.5481471616305953
 30
0.0
 11
4148.7433034804289491
 21
152.521586465078002
 31
0.0
  0
ARC
  5
7C3D
  8
0
 10
4148.736939537084254
 20
152.5116496534618875
 30
0.0
 40
0.0118
 50
0.6910145095225433
 51
57.362827995205258
  0
LINE
  5
7C3E
  8
0
 10
4148.7553587738912029
 20
152.5125679079191912
 30
0.0
 11
4148.7465529861074174
 21
152.5184922843799882
 31
0.0
  0
LINE
  5
7C3F
  8
0
 10
4148.6329778724320931
 20
152.5234934844430938
 30
0.0
 11
4148.6329778708095546
 21
152.4460319258909067
 31
0.0
  0
LINE
  5
7C40
  8
0
 10
4148.6185371879655577
 20
152.5484584616615109
 30
0.0
 11
4148.5138340611747481
 21
152.6086814395623037
 31
0.0
  0
ARC
  5
7C41
  8
0
 10
4144.9616761526949631
 20
135.4432453354785935
 30
0.0
 40
17.3885769791871709
 50
77.8316522686507568
 51
78.0264692950402434
  0
ARC
  5
7C42
  8
0
 10
4147.632010577885012
 20
147.5705770000236896
 30
0.0
 40
4.9720387725037902
 50
79.1363046681284885
 51
90.2044682892343843
  0
ARC
  5
7C43
  8
0
 10
4148.6041778724320466
 20
152.5234934850464015
 30
0.0
 40
0.0288
 50
359.9999987998847928
 51
60.0934165806936704
  0
ARC
  5
7C44
  8
0
 10
4148.6279778708094454
 20
152.4460319259956975
 30
0.0
 40
0.005
 50
257.8316522686503731
 51
359.9999987998775168
  0
LINE
  5
7C45
  8
0
 10
4148.5796612759795607
 20
152.4512667668155075
 30
0.0
 11
4148.6280353403071786
 21
152.5396260988013921
 31
0.0
  0
ARC
  5
7C46
  8
0
 10
4147.9582496932771392
 20
149.7427838771911865
 30
0.0
 40
0.0262823379935567
 50
317.4609214232938257
 51
45.9648499753966178
  0
ARC
  5
7C47
  8
0
 10
4147.9116898803731601
 20
149.7999242594148086
 30
0.0
 40
0.0997876530691234
 50
239.1384821228579085
 51
311.3497374130549815
  0
ARC
  5
7C48
  8
0
 10
4147.8738651551966541
 20
149.73937132692879
 30
0.0
 40
0.0284405328727562
 50
144.007095247556606
 51
241.9753336716188983
  0
ARC
  5
7C49
  8
0
 10
4147.9169485227575933
 20
149.6855901898534
 30
0.0
 40
0.0966334993067387
 50
51.9424252890696394
 51
133.1545738693000942
  0
ARC
  5
7C4A
  8
0
 10
4147.879977897822755
 20
149.7538504163483992
 30
0.0
 40
0.0476957477653339
 50
195.1715824891496993
 51
241.2430074182194915
  0
ARC
  5
7C4B
  8
0
 10
4147.9116392600017207
 20
149.8115447604494079
 30
0.0
 40
0.1135066829985698
 50
241.2430074182194915
 51
308.7212985339342026
  0
ARC
  5
7C4C
  8
0
 10
4147.9526678098382035
 20
149.7544124503951082
 30
0.0
 40
0.0434277584956983
 50
313.6454971796603104
 51
351.3391927370701069
  0
ARC
  5
7C4D
  8
0
 10
4147.9719412155181999
 20
149.7720575329686028
 30
0.0
 40
0.0338327062025688
 50
314.370727789938428
 51
30.2758385766700187
  0
ARC
  5
7C4E
  8
0
 10
4147.9160463875896312
 20
149.703793983724097
 30
0.0
 40
0.1205149823503475
 50
45.0698348229233972
 51
138.9144476288315104
  0
ARC
  5
7C4F
  8
0
 10
4147.8578109215723089
 20
149.7681049765284911
 30
0.0
 40
0.0358395659310882
 50
155.4521251642730135
 51
228.2467987507941984
  0
LINE
  5
7C50
  8
0
 10
4147.8259068815577848
 20
149.7837860484758892
 30
0.0
 11
4147.8339445178025926
 21
149.7413679374766957
 31
0.0
  0
LINE
  5
7C51
  8
0
 10
4148.0033270757257924
 20
149.7846900223534874
 30
0.0
 11
4147.995600367003135
 21
149.7478728981766949
 31
0.0
  0
ARC
  5
7C52
  8
0
 10
4147.915385115643403
 20
149.7265785795677004
 30
0.0
 40
0.0237188866283004
 50
53.6383053060023229
 51
130.1068032154406922
  0
ARC
  5
7C53
  8
0
 10
4147.9033261383738136
 20
149.7408956247869867
 30
0.0
 40
0.005
 50
130.1068032154406922
 51
225.7950731803265967
  0
ARC
  5
7C54
  8
0
 10
4147.9264831811142358
 20
149.7416527183293056
 30
0.0
 40
0.005
 50
317.9500353411117999
 51
53.6383053060042485
  0
ARC
  5
7C55
  8
0
 10
4147.9145400893776241
 20
149.7524251998841009
 30
0.0
 40
0.0210836500539991
 50
225.7950731803265967
 51
317.9500353411117999
  0
ARC
  5
7C56
  8
0
 10
4147.9127345937604332
 20
149.8816624584354997
 30
0.0
 40
0.0262823379935567
 50
317.4609214232938257
 51
45.9648499753966178
  0
ARC
  5
7C57
  8
0
 10
4147.8661747808573637
 20
149.9388028406590081
 30
0.0
 40
0.0997876530691234
 50
239.1384821228579085
 51
311.3497374130549815
  0
ARC
  5
7C58
  8
0
 10
4147.8283500556808576
 20
149.8782499081731032
 30
0.0
 40
0.0284405328727562
 50
144.007095247556606
 51
241.9753336716188983
  0
ARC
  5
7C59
  8
0
 10
4147.8714334232399779
 20
149.8244687710975995
 30
0.0
 40
0.0966334993067387
 50
51.9424252890696394
 51
133.1545738693000942
  0
ARC
  5
7C5A
  8
0
 10
4147.8344627983069586
 20
149.8927289975927124
 30
0.0
 40
0.0476957477653339
 50
195.1715824891496993
 51
241.2430074182194915
  0
ARC
  5
7C5B
  8
0
 10
4147.8661241604859242
 20
149.9504233416936074
 30
0.0
 40
0.1135066829985698
 50
241.2430074182194915
 51
308.7212985339342026
  0
ARC
  5
7C5C
  8
0
 10
4147.9071527103205881
 20
149.8932910316393929
 30
0.0
 40
0.0434277584956983
 50
313.6454971796603104
 51
351.3391927370701069
  0
ARC
  5
7C5D
  8
0
 10
4147.9264261160024034
 20
149.9109361142128876
 30
0.0
 40
0.0338327062025688
 50
314.370727789938428
 51
30.2758385766700187
  0
ARC
  5
7C5E
  8
0
 10
4147.8705312880729252
 20
149.8426725649684101
 30
0.0
 40
0.1205149823503475
 50
45.0698348229233972
 51
138.9144476288315104
  0
ARC
  5
7C5F
  8
0
 10
4147.8122958220556029
 20
149.9069835577728043
 30
0.0
 40
0.0358395659310882
 50
155.4521251642730135
 51
228.2467987507941984
  0
LINE
  5
7C60
  8
0
 10
4147.7803917820410788
 20
149.9226646297202024
 30
0.0
 11
4147.7884294182858866
 21
149.8802465187208952
 31
0.0
  0
LINE
  5
7C61
  8
0
 10
4147.9578119762081769
 20
149.9235686035976869
 30
0.0
 11
4147.9500852674873386
 21
149.8867514794210081
 31
0.0
  0
ARC
  5
7C62
  8
0
 10
4147.8698700161257875
 20
149.8654571608120136
 30
0.0
 40
0.0237188866283004
 50
53.6383053060023229
 51
130.1068032154406922
  0
ARC
  5
7C63
  8
0
 10
4147.8578110388571076
 20
149.8797742060312999
 30
0.0
 40
0.005
 50
130.1068032154406922
 51
225.7950731803265967
  0
ARC
  5
7C64
  8
0
 10
4147.8809680815984393
 20
149.8805312995735903
 30
0.0
 40
0.005
 50
317.9500353411117999
 51
53.6383053060042485
  0
ARC
  5
7C65
  8
0
 10
4147.8690249898609181
 20
149.8913037811284141
 30
0.0
 40
0.0210836500539991
 50
225.7950731803265967
 51
317.9500353411117999
  0
ARC
  5
7C66
  8
0
 10
4148.2483462544605572
 20
149.8032686480109135
 30
0.0
 40
0.0262823379935567
 50
317.4609214232938257
 51
45.9648499753966178
  0
ARC
  5
7C67
  8
0
 10
4148.2017864415565782
 20
149.8604090302345071
 30
0.0
 40
0.0997876530691234
 50
239.1384821228579085
 51
311.3497374130549815
  0
ARC
  5
7C68
  8
0
 10
4148.1639617163800722
 20
149.7998560977484885
 30
0.0
 40
0.0284405328727562
 50
144.007095247556606
 51
241.9753336716188983
  0
ARC
  5
7C69
  8
0
 10
4148.2070450839401019
 20
149.7460749606730985
 30
0.0
 40
0.0966334993067387
 50
51.9424252890696394
 51
133.1545738693000942
  0
ARC
  5
7C6A
  8
0
 10
4148.1700744590070826
 20
149.8143351871682114
 30
0.0
 40
0.0476957477653339
 50
195.1715824891496993
 51
241.2430074182194915
  0
ARC
  5
7C6B
  8
0
 10
4148.2017358211860483
 20
149.8720295312691064
 30
0.0
 40
0.1135066829985698
 50
241.2430074182194915
 51
308.7212985339342026
  0
ARC
  5
7C6C
  8
0
 10
4148.2427643710216216
 20
149.8148972212148919
 30
0.0
 40
0.0434277584956983
 50
313.6454971796603104
 51
351.3391927370701069
  0
ARC
  5
7C6D
  8
0
 10
4148.262037776701618
 20
149.8325423037883866
 30
0.0
 40
0.0338327062025688
 50
314.370727789938428
 51
30.2758385766700187
  0
ARC
  5
7C6E
  8
0
 10
4148.2061429487712303
 20
149.7642787545437955
 30
0.0
 40
0.1205149823503475
 50
45.0698348229233972
 51
138.9144476288315104
  0
ARC
  5
7C6F
  8
0
 10
4148.147907482755727
 20
149.8285897473481896
 30
0.0
 40
0.0358395659310882
 50
155.4521251642730135
 51
228.2467987507941984
  0
LINE
  5
7C70
  8
0
 10
4148.1160034427402934
 20
149.8442708192955877
 30
0.0
 11
4148.1240410789851012
 21
149.8018527082963942
 31
0.0
  0
LINE
  5
7C71
  8
0
 10
4148.2934236369092105
 20
149.8451747931731859
 30
0.0
 11
4148.2856969281856436
 21
149.8083576689963934
 31
0.0
  0
ARC
  5
7C72
  8
0
 10
4148.2054816768268211
 20
149.7870633503875126
 30
0.0
 40
0.0237188866283004
 50
53.6383053060023229
 51
130.1068032154406922
  0
ARC
  5
7C73
  8
0
 10
4148.1934226995572317
 20
149.8013803956067989
 30
0.0
 40
0.005
 50
130.1068032154406922
 51
225.7950731803265967
  0
ARC
  5
7C74
  8
0
 10
4148.2165797422976539
 20
149.8021374891490893
 30
0.0
 40
0.005
 50
317.9500353411117999
 51
53.6383053060042485
  0
ARC
  5
7C75
  8
0
 10
4148.2046366505619517
 20
149.8129099707039131
 30
0.0
 40
0.0210836500539991
 50
225.7950731803265967
 51
317.9500353411117999
  0
ARC
  5
7C76
  8
0
 10
4148.5147328269540594
 20
149.9022430340434084
 30
0.0
 40
0.0262823379935567
 50
317.4609214232938257
 51
45.9648499753966178
  0
ARC
  5
7C77
  8
0
 10
4148.4681730140518994
 20
149.9593834162670021
 30
0.0
 40
0.0997876530691234
 50
239.1384821228579085
 51
311.3497374130549815
  0
ARC
  5
7C78
  8
0
 10
4148.4303482888753933
 20
149.8988304837810119
 30
0.0
 40
0.0284405328727562
 50
144.007095247556606
 51
241.9753336716188983
  0
ARC
  5
7C79
  8
0
 10
4148.4734316564354231
 20
149.8450493467055935
 30
0.0
 40
0.0966334993067387
 50
51.9424252890696394
 51
133.1545738693000942
  0
ARC
  5
7C7A
  8
0
 10
4148.4364610315024038
 20
149.9133095732005927
 30
0.0
 40
0.0476957477653339
 50
195.1715824891496993
 51
241.2430074182194915
  0
ARC
  5
7C7B
  8
0
 10
4148.4681223936795504
 20
149.9710039173016014
 30
0.0
 40
0.1135066829985698
 50
241.2430074182194915
 51
308.7212985339342026
  0
ARC
  5
7C7C
  8
0
 10
4148.5091509435151238
 20
149.9138716072473869
 30
0.0
 40
0.0434277584956983
 50
313.6454971796603104
 51
351.3391927370701069
  0
ARC
  5
7C7D
  8
0
 10
4148.5284243491960297
 20
149.9315166898207963
 30
0.0
 40
0.0338327062025688
 50
314.370727789938428
 51
30.2758385766700187
  0
ARC
  5
7C7E
  8
0
 10
4148.472529521265642
 20
149.8632531405762904
 30
0.0
 40
0.1205149823503475
 50
45.0698348229233972
 51
138.9144476288315104
  0
ARC
  5
7C7F
  8
0
 10
4148.4142940552492291
 20
149.9275641333807982
 30
0.0
 40
0.0358395659310882
 50
155.4521251642730135
 51
228.2467987507941984
  0
LINE
  5
7C80
  8
0
 10
4148.3823900152347051
 20
149.9432452053281963
 30
0.0
 11
4148.3904276514804224
 21
149.9008270943288892
 31
0.0
  0
LINE
  5
7C81
  8
0
 10
4148.5598102094027126
 20
149.9441491792057093
 30
0.0
 11
4148.5520835006809648
 21
149.9073320550288884
 31
0.0
  0
ARC
  5
7C82
  8
0
 10
4148.4718682493203232
 20
149.8860377364198939
 30
0.0
 40
0.0237188866283004
 50
53.6383053060023229
 51
130.1068032154406922
  0
ARC
  5
7C83
  8
0
 10
4148.4598092720507339
 20
149.9003547816392938
 30
0.0
 40
0.005
 50
130.1068032154406922
 51
225.7950731803265967
  0
ARC
  5
7C84
  8
0
 10
4148.4829663147920655
 20
149.901111875181499
 30
0.0
 40
0.005
 50
317.9500353411117999
 51
53.6383053060042485
  0
ARC
  5
7C85
  8
0
 10
4148.4710232230554539
 20
149.9118843567364081
 30
0.0
 40
0.0210836500539991
 50
225.7950731803265967
 51
317.9500353411117999
  0
ARC
  5
7C86
  8
0
 10
4148.3820701210952393
 20
150.0167937664801912
 30
0.0
 40
0.0262823379935567
 50
317.4609214232938257
 51
45.9648499753966178
  0
ARC
  5
7C87
  8
0
 10
4148.3355103081921698
 20
150.0739341487038132
 30
0.0
 40
0.0997876530691234
 50
239.1384821228579085
 51
311.3497374130549815
  0
ARC
  5
7C88
  8
0
 10
4148.2976855830156637
 20
150.0133812162177946
 30
0.0
 40
0.0284405328727562
 50
144.007095247556606
 51
241.9753336716188983
  0
ARC
  5
7C89
  8
0
 10
4148.3407689505738745
 20
149.9596000791424046
 30
0.0
 40
0.0966334993067387
 50
51.9424252890696394
 51
133.1545738693000942
  0
ARC
  5
7C8A
  8
0
 10
4148.3037983256408552
 20
150.0278603056374038
 30
0.0
 40
0.0476957477653339
 50
195.1715824891496993
 51
241.2430074182194915
  0
ARC
  5
7C8B
  8
0
 10
4148.3354596878198208
 20
150.0855546497384125
 30
0.0
 40
0.1135066829985698
 50
241.2430074182194915
 51
308.7212985339342026
  0
ARC
  5
7C8C
  8
0
 10
4148.3764882376563037
 20
150.0284223396841128
 30
0.0
 40
0.0434277584956983
 50
313.6454971796603104
 51
351.3391927370701069
  0
ARC
  5
7C8D
  8
0
 10
4148.3957616433363
 20
150.0460674222576074
 30
0.0
 40
0.0338327062025688
 50
314.370727789938428
 51
30.2758385766700187
  0
ARC
  5
7C8E
  8
0
 10
4148.3398668154068218
 20
149.9778038730131016
 30
0.0
 40
0.1205149823503475
 50
45.0698348229233972
 51
138.9144476288315104
  0
ARC
  5
7C8F
  8
0
 10
4148.281631349390409
 20
150.0421148658174957
 30
0.0
 40
0.0358395659310882
 50
155.4521251642730135
 51
228.2467987507941984
  0
LINE
  5
7C90
  8
0
 10
4148.2497273093758849
 20
150.0577959377648938
 30
0.0
 11
4148.2577649456206927
 21
150.0153778267657003
 31
0.0
  0
LINE
  5
7C91
  8
0
 10
4148.4271475035438925
 20
150.058699911642492
 30
0.0
 11
4148.4194207948212352
 21
150.0218827874656995
 31
0.0
  0
ARC
  5
7C92
  8
0
 10
4148.3392055434605936
 20
150.000588468856705
 30
0.0
 40
0.0237188866283004
 50
53.6383053060023229
 51
130.1068032154406922
  0
ARC
  5
7C93
  8
0
 10
4148.3271465661919137
 20
150.0149055140759913
 30
0.0
 40
0.005
 50
130.1068032154406922
 51
225.7950731803265967
  0
ARC
  5
7C94
  8
0
 10
4148.3503036089323359
 20
150.0156626076183102
 30
0.0
 40
0.005
 50
317.9500353411117999
 51
53.6383053060042485
  0
ARC
  5
7C95
  8
0
 10
4148.3383605171957242
 20
150.0264350891731056
 30
0.0
 40
0.0210836500539991
 50
225.7950731803265967
 51
317.9500353411117999
  0
ARC
  5
7C96
  8
0
 10
4148.7474181178240542
 20
150.0355415750750865
 30
0.0
 40
0.0262823379935567
 50
317.4609214232938257
 51
45.9648499753966178
  0
ARC
  5
7C97
  8
0
 10
4148.7008583049209847
 20
150.0926819572987085
 30
0.0
 40
0.0997876530691234
 50
239.1384821228579085
 51
311.3497374130549815
  0
ARC
  5
7C98
  8
0
 10
4148.6630335797435691
 20
150.0321290248128037
 30
0.0
 40
0.0284405328727562
 50
144.007095247556606
 51
241.9753336716188983
  0
ARC
  5
7C99
  8
0
 10
4148.7061169473035989
 20
149.9783478877373
 30
0.0
 40
0.0966334993067387
 50
51.9424252890696394
 51
133.1545738693000942
  0
ARC
  5
7C9A
  8
0
 10
4148.6691463223705796
 20
150.0466081142324128
 30
0.0
 40
0.0476957477653339
 50
195.1715824891496993
 51
241.2430074182194915
  0
ARC
  5
7C9B
  8
0
 10
4148.7008076845504547
 20
150.1043024583333079
 30
0.0
 40
0.1135066829985698
 50
241.2430074182194915
 51
308.7212985339342026
  0
ARC
  5
7C9C
  8
0
 10
4148.7418362343851186
 20
150.0471701482790934
 30
0.0
 40
0.0434277584956983
 50
313.6454971796603104
 51
351.3391927370701069
  0
ARC
  5
7C9D
  8
0
 10
4148.7611096400651149
 20
150.0648152308525027
 30
0.0
 40
0.0338327062025688
 50
314.370727789938428
 51
30.2758385766700187
  0
ARC
  5
7C9E
  8
0
 10
4148.7052148121347273
 20
149.9965516816081106
 30
0.0
 40
0.1205149823503475
 50
45.0698348229233972
 51
138.9144476288315104
  0
ARC
  5
7C9F
  8
0
 10
4148.6469793461192239
 20
150.060862674412391
 30
0.0
 40
0.0358395659310882
 50
155.4521251642730135
 51
228.2467987507941984
  0
LINE
  5
7CA0
  8
0
 10
4148.6150753061028809
 20
150.0765437463599028
 30
0.0
 11
4148.6231129423485982
 21
150.0341256353605957
 31
0.0
  0
LINE
  5
7CA1
  8
0
 10
4148.7924955002717979
 20
150.0774477202373873
 30
0.0
 11
4148.7847687915500501
 21
150.0406305960605948
 31
0.0
  0
ARC
  5
7CA2
  8
0
 10
4148.704553540190318
 20
150.0193362774517141
 30
0.0
 40
0.0237188866283004
 50
53.6383053060023229
 51
130.1068032154406922
  0
ARC
  5
7CA3
  8
0
 10
4148.6924945629189097
 20
150.0336533226708866
 30
0.0
 40
0.005
 50
130.1068032154406922
 51
225.7950731803265967
  0
ARC
  5
7CA4
  8
0
 10
4148.7156516056620603
 20
150.0344104162132908
 30
0.0
 40
0.005
 50
317.9500353411117999
 51
53.6383053060042485
  0
ARC
  5
7CA5
  8
0
 10
4148.7037085139263581
 20
150.0451828977680861
 30
0.0
 40
0.0210836500539991
 50
225.7950731803265967
 51
317.9500353411117999
  0
ARC
  5
7CA6
  8
0
 10
4148.9383266508793895
 20
150.1981747664848967
 30
0.0
 40
0.0262823379935567
 50
317.4609214232938257
 51
45.9648499753966178
  0
ARC
  5
7CA7
  8
0
 10
4148.8917668379763199
 20
150.2553151487084904
 30
0.0
 40
0.0997876530691234
 50
239.1384821228579085
 51
311.3497374130549815
  0
ARC
  5
7CA8
  8
0
 10
4148.8539421127998139
 20
150.1947622162225002
 30
0.0
 40
0.0284405328727562
 50
144.007095247556606
 51
241.9753336716188983
  0
ARC
  5
7CA9
  8
0
 10
4148.8970254803580247
 20
150.1409810791471102
 30
0.0
 40
0.0966334993067387
 50
51.9424252890696394
 51
133.1545738693000942
  0
ARC
  5
7CAA
  8
0
 10
4148.8600548554250054
 20
150.2092413056421094
 30
0.0
 40
0.0476957477653339
 50
195.1715824891496993
 51
241.2430074182194915
  0
ARC
  5
7CAB
  8
0
 10
4148.8917162176048805
 20
150.2669356497430897
 30
0.0
 40
0.1135066829985698
 50
241.2430074182194915
 51
308.7212985339342026
  0
ARC
  5
7CAC
  8
0
 10
4148.9327447674404539
 20
150.2098033396887899
 30
0.0
 40
0.0434277584956983
 50
313.6454971796603104
 51
351.3391927370701069
  0
ARC
  5
7CAD
  8
0
 10
4148.9520181731213597
 20
150.227448422262313
 30
0.0
 40
0.0338327062025688
 50
314.370727789938428
 51
30.2758385766700187
  0
ARC
  5
7CAE
  8
0
 10
4148.896123345190972
 20
150.1591848730178071
 30
0.0
 40
0.1205149823503475
 50
45.0698348229233972
 51
138.9144476288315104
  0
ARC
  5
7CAF
  8
0
 10
4148.8378878791736497
 20
150.2234958658222013
 30
0.0
 40
0.0358395659310882
 50
155.4521251642730135
 51
228.2467987507941984
  0
LINE
  5
7CB0
  8
0
 10
4148.8059838391591256
 20
150.2391769377695994
 30
0.0
 11
4148.8140214754048429
 21
150.1967588267704059
 31
0.0
  0
LINE
  5
7CB1
  8
0
 10
4148.9834040333271332
 20
150.2400809116471976
 30
0.0
 11
4148.9756773246062949
 21
150.2032637874704051
 31
0.0
  0
ARC
  5
7CB2
  8
0
 10
4148.8954620732447438
 20
150.1819694688614106
 30
0.0
 40
0.0237188866283004
 50
53.6383053060023229
 51
130.1068032154406922
  0
ARC
  5
7CB3
  8
0
 10
4148.8834030959742449
 20
150.1962865140806969
 30
0.0
 40
0.005
 50
130.1068032154406922
 51
225.7950731803265967
  0
ARC
  5
7CB4
  8
0
 10
4148.9065601387155766
 20
150.1970436076229873
 30
0.0
 40
0.005
 50
317.9500353411117999
 51
53.6383053060042485
  0
ARC
  5
7CB5
  8
0
 10
4148.8946170469798744
 20
150.2078160891778111
 30
0.0
 40
0.0210836500539991
 50
225.7950731803265967
 51
317.9500353411117999
  0
ARC
  5
7CB6
  8
0
 10
4148.7430061898230633
 20
150.2663586312175994
 30
0.0
 40
0.0262823379935567
 50
317.4609214232938257
 51
45.9648499753966178
  0
ARC
  5
7CB7
  8
0
 10
4148.6964463769190843
 20
150.323499013441193
 30
0.0
 40
0.0997876530691234
 50
239.1384821228579085
 51
311.3497374130549815
  0
ARC
  5
7CB8
  8
0
 10
4148.6586216517425783
 20
150.2629460809552029
 30
0.0
 40
0.0284405328727562
 50
144.007095247556606
 51
241.9753336716188983
  0
ARC
  5
7CB9
  8
0
 10
4148.7017050193016985
 20
150.2091649438798129
 30
0.0
 40
0.0966334993067387
 50
51.9424252890696394
 51
133.1545738693000942
  0
ARC
  5
7CBA
  8
0
 10
4148.6647343943686792
 20
150.2774251703748973
 30
0.0
 40
0.0476957477653339
 50
195.1715824891496993
 51
241.2430074182194915
  0
ARC
  5
7CBB
  8
0
 10
4148.6963957565476449
 20
150.3351195144757924
 30
0.0
 40
0.1135066829985698
 50
241.2430074182194915
 51
308.7212985339342026
  0
ARC
  5
7CBC
  8
0
 10
4148.7374243063841277
 20
150.2779872044216063
 30
0.0
 40
0.0434277584956983
 50
313.6454971796603104
 51
351.3391927370701069
  0
ARC
  5
7CBD
  8
0
 10
4148.7566977120641241
 20
150.2956322869949872
 30
0.0
 40
0.0338327062025688
 50
314.370727789938428
 51
30.2758385766700187
  0
ARC
  5
7CBE
  8
0
 10
4148.7008028841346459
 20
150.2273687377505098
 30
0.0
 40
0.1205149823503475
 50
45.0698348229233972
 51
138.9144476288315104
  0
ARC
  5
7CBF
  8
0
 10
4148.642567418118233
 20
150.2916797305549039
 30
0.0
 40
0.0358395659310882
 50
155.4521251642730135
 51
228.2467987507941984
  0
LINE
  5
7CC0
  8
0
 10
4148.6106633781027995
 20
150.307360802502302
 30
0.0
 11
4148.6187010143476073
 21
150.2649426915031086
 31
0.0
  0
LINE
  5
7CC1
  8
0
 10
4148.7880835722717165
 20
150.3082647763799002
 30
0.0
 11
4148.7803568635490592
 21
150.2714476522031077
 31
0.0
  0
ARC
  5
7CC2
  8
0
 10
4148.7001416121893271
 20
150.2501533335941133
 30
0.0
 40
0.0237188866283004
 50
53.6383053060023229
 51
130.1068032154406922
  0
ARC
  5
7CC3
  8
0
 10
4148.6880826349197378
 20
150.2644703788133995
 30
0.0
 40
0.005
 50
130.1068032154406922
 51
225.7950731803265967
  0
ARC
  5
7CC4
  8
0
 10
4148.7112396776601599
 20
150.2652274723558037
 30
0.0
 40
0.005
 50
317.9500353411117999
 51
53.6383053060042485
  0
ARC
  5
7CC5
  8
0
 10
4148.6992965859235483
 20
150.2759999539105138
 30
0.0
 40
0.0210836500539991
 50
225.7950731803265967
 51
317.9500353411117999
  0
ARC
  5
7CC6
  8
0
 10
4149.0818459777283351
 20
150.3827758375431074
 30
0.0
 40
0.0262823379935567
 50
317.4609214232938257
 51
45.9648499753966178
  0
ARC
  5
7CC7
  8
0
 10
4149.0352861648261751
 20
150.4399162197665873
 30
0.0
 40
0.0997876530691234
 50
239.1384821228579085
 51
311.3497374130549815
  0
ARC
  5
7CC8
  8
0
 10
4148.9974614396478501
 20
150.3793632872805972
 30
0.0
 40
0.0284405328727562
 50
144.007095247556606
 51
241.9753336716188983
  0
ARC
  5
7CC9
  8
0
 10
4149.0405448072087893
 20
150.3255821502052072
 30
0.0
 40
0.0966334993067387
 50
51.9424252890696394
 51
133.1545738693000942
  0
ARC
  5
7CCA
  8
0
 10
4149.0035741822748605
 20
150.3938423767002917
 30
0.0
 40
0.0476957477653339
 50
195.1715824891496993
 51
241.2430074182194915
  0
ARC
  5
7CCB
  8
0
 10
4149.0352355444529167
 20
150.4515367208011867
 30
0.0
 40
0.1135066829985698
 50
241.2430074182194915
 51
308.7212985339342026
  0
ARC
  5
7CCC
  8
0
 10
4149.0762640942893995
 20
150.3944044107470006
 30
0.0
 40
0.0434277584956983
 50
313.6454971796603104
 51
351.3391927370701069
  0
ARC
  5
7CCD
  8
0
 10
4149.0955374999703054
 20
150.4120494933204952
 30
0.0
 40
0.0338327062025688
 50
314.370727789938428
 51
30.2758385766700187
  0
ARC
  5
7CCE
  8
0
 10
4149.0396426720408272
 20
150.3437859440759894
 30
0.0
 40
0.1205149823503475
 50
45.0698348229233972
 51
138.9144476288315104
  0
ARC
  5
7CCF
  8
0
 10
4148.9814072060225953
 20
150.4080969368804119
 30
0.0
 40
0.0358395659310882
 50
155.4521251642730135
 51
228.2467987507941984
  0
LINE
  5
7CD0
  8
0
 10
4148.9495031660089808
 20
150.42377800882781
 30
0.0
 11
4148.9575408022537886
 21
150.3813598978285029
 31
0.0
  0
LINE
  5
7CD1
  8
0
 10
4149.1269233601769884
 20
150.4246819827052946
 30
0.0
 11
4149.119196651454331
 21
150.3878648585285873
 31
0.0
  0
ARC
  5
7CD2
  8
0
 10
4149.0389814000945989
 20
150.3665705399195929
 30
0.0
 40
0.0237188866283004
 50
53.6383053060023229
 51
130.1068032154406922
  0
ARC
  5
7CD3
  8
0
 10
4149.0269224228250096
 20
150.3808875851389075
 30
0.0
 40
0.005
 50
130.1068032154406922
 51
225.7950731803265967
  0
ARC
  5
7CD4
  8
0
 10
4149.0500794655654317
 20
150.381644678681198
 30
0.0
 40
0.005
 50
317.9500353411117999
 51
53.6383053060042485
  0
ARC
  5
7CD5
  8
0
 10
4149.0381363738297296
 20
150.3924171602359934
 30
0.0
 40
0.0210836500539991
 50
225.7950731803265967
 51
317.9500353411117999
  0
ARC
  5
7CD6
  8
0
 10
4148.9352384168923891
 20
150.593717590099601
 30
0.0
 40
0.0262823379935567
 50
317.4609214232938257
 51
45.9648499753966178
  0
ARC
  5
7CD7
  8
0
 10
4148.8886786039911385
 20
150.6508579723231946
 30
0.0
 40
0.0997876530691234
 50
239.1384821228579085
 51
311.3497374130549815
  0
ARC
  5
7CD8
  8
0
 10
4148.8508538788128135
 20
150.5903050398372045
 30
0.0
 40
0.0284405328727562
 50
144.007095247556606
 51
241.9753336716188983
  0
ARC
  5
7CD9
  8
0
 10
4148.8939372463728432
 20
150.5365239027617861
 30
0.0
 40
0.0966334993067387
 50
51.9424252890696394
 51
133.1545738693000942
  0
ARC
  5
7CDA
  8
0
 10
4148.8569666214389144
 20
150.604784129256899
 30
0.0
 40
0.0476957477653339
 50
195.1715824891496993
 51
241.2430074182194915
  0
ARC
  5
7CDB
  8
0
 10
4148.8886279836187896
 20
150.662478473357794
 30
0.0
 40
0.1135066829985698
 50
241.2430074182194915
 51
308.7212985339342026
  0
ARC
  5
7CDC
  8
0
 10
4148.9296565334534534
 20
150.6053461633036079
 30
0.0
 40
0.0434277584956983
 50
313.6454971796603104
 51
351.3391927370701069
  0
ARC
  5
7CDD
  8
0
 10
4148.9489299391343593
 20
150.6229912458771025
 30
0.0
 40
0.0338327062025688
 50
314.370727789938428
 51
30.2758385766700187
  0
ARC
  5
7CDE
  8
0
 10
4148.8930351112048811
 20
150.5547276966325114
 30
0.0
 40
0.1205149823503475
 50
45.0698348229233972
 51
138.9144476288315104
  0
ARC
  5
7CDF
  8
0
 10
4148.8347996451875588
 20
150.6190386894369908
 30
0.0
 40
0.0358395659310882
 50
155.4521251642730135
 51
228.2467987507941984
  0
LINE
  5
7CE0
  8
0
 10
4148.8028956051730347
 20
150.6347197613843889
 30
0.0
 11
4148.810933241418752
 21
150.5923016503851102
 31
0.0
  0
LINE
  5
7CE1
  8
0
 10
4148.9803157993410423
 20
150.6356237352619019
 30
0.0
 11
4148.9725890906183849
 21
150.5988066110851946
 31
0.0
  0
ARC
  5
7CE2
  8
0
 10
4148.8923738392586529
 20
150.5775122924760865
 30
0.0
 40
0.0237188866283004
 50
53.6383053060023229
 51
130.1068032154406922
  0
ARC
  5
7CE3
  8
0
 10
4148.8803148619890635
 20
150.5918293376954864
 30
0.0
 40
0.005
 50
130.1068032154406922
 51
225.7950731803265967
  0
ARC
  5
7CE4
  8
0
 10
4148.9034719047303952
 20
150.5925864312378053
 30
0.0
 40
0.005
 50
317.9500353411117999
 51
53.6383053060042485
  0
ARC
  5
7CE5
  8
0
 10
4148.8915288129937835
 20
150.6033589127926007
 30
0.0
 40
0.0210836500539991
 50
225.7950731803265967
 51
317.9500353411117999
  0
ARC
  5
7CE6
  8
0
 10
4149.1694518610966043
 20
150.583307753764899
 30
0.0
 40
0.0262823379935567
 50
317.4609214232938257
 51
45.9648499753966178
  0
ARC
  5
7CE7
  8
0
 10
4149.1228920481953537
 20
150.6404481359884926
 30
0.0
 40
0.0997876530691234
 50
239.1384821228579085
 51
311.3497374130549815
  0
ARC
  5
7CE8
  8
0
 10
4149.0850673230170287
 20
150.5798952035025025
 30
0.0
 40
0.0284405328727562
 50
144.007095247556606
 51
241.9753336716188983
  0
ARC
  5
7CE9
  8
0
 10
4149.1281506905779679
 20
150.5261140664271977
 30
0.0
 40
0.0966334993067387
 50
51.9424252890696394
 51
133.1545738693000942
  0
ARC
  5
7CEA
  8
0
 10
4149.0911800656440391
 20
150.5943742929221969
 30
0.0
 40
0.0476957477653339
 50
195.1715824891496993
 51
241.2430074182194915
  0
ARC
  5
7CEB
  8
0
 10
4149.1228414278230048
 20
150.6520686370230919
 30
0.0
 40
0.1135066829985698
 50
241.2430074182194915
 51
308.7212985339342026
  0
ARC
  5
7CEC
  8
0
 10
4149.1638699776576686
 20
150.5949363269689059
 30
0.0
 40
0.0434277584956983
 50
313.6454971796603104
 51
351.3391927370701069
  0
ARC
  5
7CED
  8
0
 10
4149.1831433833385745
 20
150.6125814095422868
 30
0.0
 40
0.0338327062025688
 50
314.370727789938428
 51
30.2758385766700187
  0
ARC
  5
7CEE
  8
0
 10
4149.1272485554100058
 20
150.5443178602978094
 30
0.0
 40
0.1205149823503475
 50
45.0698348229233972
 51
138.9144476288315104
  0
ARC
  5
7CEF
  8
0
 10
4149.0690130893926835
 20
150.6086288531022888
 30
0.0
 40
0.0358395659310882
 50
155.4521251642730135
 51
228.2467987507941984
  0
LINE
  5
7CF0
  8
0
 10
4149.0371090493781594
 20
150.6243099250496016
 30
0.0
 11
4149.0451466856238767
 21
150.5818918140504081
 31
0.0
  0
LINE
  5
7CF1
  8
0
 10
4149.214529243546167
 20
150.6252138989271998
 30
0.0
 11
4149.2068025348226001
 21
150.5883967747504073
 31
0.0
  0
ARC
  5
7CF2
  8
0
 10
4149.1265872834637776
 20
150.5671024561414129
 30
0.0
 40
0.0237188866283004
 50
53.6383053060023229
 51
130.1068032154406922
  0
ARC
  5
7CF3
  8
0
 10
4149.1145283061941882
 20
150.5814195013608128
 30
0.0
 40
0.005
 50
130.1068032154406922
 51
225.7950731803265967
  0
ARC
  5
7CF4
  8
0
 10
4149.1376853489346104
 20
150.5821765949031033
 30
0.0
 40
0.005
 50
317.9500353411117999
 51
53.6383053060042485
  0
ARC
  5
7CF5
  8
0
 10
4149.1257422571989082
 20
150.5929490764578986
 30
0.0
 40
0.0210836500539991
 50
225.7950731803265967
 51
317.9500353411117999
  0
ARC
  5
7CF6
  8
0
 10
4149.1986438319645458
 20
150.792627407281401
 30
0.0
 40
0.0262823379935567
 50
317.4609214232938257
 51
45.9648499753966178
  0
ARC
  5
7CF7
  8
0
 10
4149.1520840190623858
 20
150.8497677895049947
 30
0.0
 40
0.0997876530691234
 50
239.1384821228579085
 51
311.3497374130549815
  0
ARC
  5
7CF8
  8
0
 10
4149.1142592938849702
 20
150.7892148570190045
 30
0.0
 40
0.0284405328727562
 50
144.007095247556606
 51
241.9753336716188983
  0
ARC
  5
7CF9
  8
0
 10
4149.157342661445
 20
150.7354337199435861
 30
0.0
 40
0.0966334993067387
 50
51.9424252890696394
 51
133.1545738693000942
  0
ARC
  5
7CFA
  8
0
 10
4149.1203720365119807
 20
150.8036939464386137
 30
0.0
 40
0.0476957477653339
 50
195.1715824891496993
 51
241.2430074182194915
  0
ARC
  5
7CFB
  8
0
 10
4149.1520333986909463
 20
150.861388290539594
 30
0.0
 40
0.1135066829985698
 50
241.2430074182194915
 51
308.7212985339342026
  0
ARC
  5
7CFC
  8
0
 10
4149.1930619485256102
 20
150.8042559804854079
 30
0.0
 40
0.0434277584956983
 50
313.6454971796603104
 51
351.3391927370701069
  0
ARC
  5
7CFD
  8
0
 10
4149.2123353542074256
 20
150.8219010630587888
 30
0.0
 40
0.0338327062025688
 50
314.370727789938428
 51
30.2758385766700187
  0
ARC
  5
7CFE
  8
0
 10
4149.1564405262779474
 20
150.7536375138143114
 30
0.0
 40
0.1205149823503475
 50
45.0698348229233972
 51
138.9144476288315104
  0
ARC
  5
7CFF
  8
0
 10
4149.0982050602597155
 20
150.8179485066187056
 30
0.0
 40
0.0358395659310882
 50
155.4521251642730135
 51
228.2467987507941984
  0
LINE
  5
7D00
  8
0
 10
4149.066301020246101
 20
150.8336295785661036
 30
0.0
 11
4149.0743386564918183
 21
150.7912114675669102
 31
0.0
  0
LINE
  5
7D01
  8
0
 10
4149.243721214413199
 20
150.8345335524437019
 30
0.0
 11
4149.2359945056923607
 21
150.7977164282669094
 31
0.0
  0
ARC
  5
7D02
  8
0
 10
4149.1557792543308096
 20
150.7764221096578865
 30
0.0
 40
0.0237188866283004
 50
53.6383053060023229
 51
130.1068032154406922
  0
ARC
  5
7D03
  8
0
 10
4149.1437202770621298
 20
150.7907391548772011
 30
0.0
 40
0.005
 50
130.1068032154406922
 51
225.7950731803265967
  0
ARC
  5
7D04
  8
0
 10
4149.1668773198016424
 20
150.7914962484194916
 30
0.0
 40
0.005
 50
317.9500353411117999
 51
53.6383053060042485
  0
ARC
  5
7D05
  8
0
 10
4149.1549342280668498
 20
150.802268729974287
 30
0.0
 40
0.0210836500539991
 50
225.7950731803265967
 51
317.9500353411117999
  0
ARC
  5
7D06
  8
0
 10
4148.9376017496488203
 20
150.9479265591118065
 30
0.0
 40
0.0262823379935567
 50
317.4609214232938257
 51
45.9648499753966178
  0
ARC
  5
7D07
  8
0
 10
4148.8910419367448412
 20
151.0050669413354001
 30
0.0
 40
0.0997876530691234
 50
239.1384821228579085
 51
311.3497374130549815
  0
ARC
  5
7D08
  8
0
 10
4148.8532172115692447
 20
150.9445140088494099
 30
0.0
 40
0.0284405328727562
 50
144.007095247556606
 51
241.9753336716188983
  0
ARC
  5
7D09
  8
0
 10
4148.8963005791283649
 20
150.8907328717739915
 30
0.0
 40
0.0966334993067387
 50
51.9424252890696394
 51
133.1545738693000942
  0
ARC
  5
7D0A
  8
0
 10
4148.8593299541953456
 20
150.9589930982691044
 30
0.0
 40
0.0476957477653339
 50
195.1715824891496993
 51
241.2430074182194915
  0
ARC
  5
7D0B
  8
0
 10
4148.8909913163743113
 20
151.0166874423699994
 30
0.0
 40
0.1135066829985698
 50
241.2430074182194915
 51
308.7212985339342026
  0
ARC
  5
7D0C
  8
0
 10
4148.9320198662098846
 20
150.9595551323158134
 30
0.0
 40
0.0434277584956983
 50
313.6454971796603104
 51
351.3391927370701069
  0
ARC
  5
7D0D
  8
0
 10
4148.951293271889881
 20
150.9772002148891943
 30
0.0
 40
0.0338327062025688
 50
314.370727789938428
 51
30.2758385766700187
  0
ARC
  5
7D0E
  8
0
 10
4148.8953984439604028
 20
150.9089366656446884
 30
0.0
 40
0.1205149823503475
 50
45.0698348229233972
 51
138.9144476288315104
  0
ARC
  5
7D0F
  8
0
 10
4148.83716297794399
 20
150.9732476584491963
 30
0.0
 40
0.0358395659310882
 50
155.4521251642730135
 51
228.2467987507941984
  0
LINE
  5
7D10
  8
0
 10
4148.8052589379285564
 20
150.9889287303965943
 30
0.0
 11
4148.8132965741751832
 21
150.9465106193972872
 31
0.0
  0
LINE
  5
7D11
  8
0
 10
4148.982679132096564
 20
150.9898327042741073
 30
0.0
 11
4148.9749524233748161
 21
150.9530155800972864
 31
0.0
  0
ARC
  5
7D12
  8
0
 10
4148.8947371720150841
 20
150.9317212614882919
 30
0.0
 40
0.0237188866283004
 50
53.6383053060023229
 51
130.1068032154406922
  0
ARC
  5
7D13
  8
0
 10
4148.8826781947464042
 20
150.9460383067076918
 30
0.0
 40
0.005
 50
130.1068032154406922
 51
225.7950731803265967
  0
ARC
  5
7D14
  8
0
 10
4148.9058352374859169
 20
150.9467954002500107
 30
0.0
 40
0.005
 50
317.9500353411117999
 51
53.6383053060042485
  0
ARC
  5
7D15
  8
0
 10
4148.8938921457502147
 20
150.9575678818048061
 30
0.0
 40
0.0210836500539991
 50
225.7950731803265967
 51
317.9500353411117999
  0
ARC
  5
7D16
  8
0
 10
4149.1695028202930189
 20
151.0016256036468008
 30
0.0
 40
0.0262823379935567
 50
317.4609214232938257
 51
45.9648499753966178
  0
ARC
  5
7D17
  8
0
 10
4149.1229430073899493
 20
151.0587659858703944
 30
0.0
 40
0.0997876530691234
 50
239.1384821228579085
 51
311.3497374130549815
  0
ARC
  5
7D18
  8
0
 10
4149.0851182822143528
 20
150.9982130533844042
 30
0.0
 40
0.0284405328727562
 50
144.007095247556606
 51
241.9753336716188983
  0
ARC
  5
7D19
  8
0
 10
4149.1282016497725635
 20
150.9444319163089858
 30
0.0
 40
0.0966334993067387
 50
51.9424252890696394
 51
133.1545738693000942
  0
ARC
  5
7D1A
  8
0
 10
4149.0912310248404538
 20
151.0126921428040987
 30
0.0
 40
0.0476957477653339
 50
195.1715824891496993
 51
241.2430074182194915
  0
ARC
  5
7D1B
  8
0
 10
4149.1228923870194194
 20
151.0703864869049937
 30
0.0
 40
0.1135066829985698
 50
241.2430074182194915
 51
308.7212985339342026
  0
ARC
  5
7D1C
  8
0
 10
4149.1639209368540833
 20
151.0132541768508077
 30
0.0
 40
0.0434277584956983
 50
313.6454971796603104
 51
351.3391927370701069
  0
ARC
  5
7D1D
  8
0
 10
4149.1831943425349891
 20
151.0308992594241886
 30
0.0
 40
0.0338327062025688
 50
314.370727789938428
 51
30.2758385766700187
  0
ARC
  5
7D1E
  8
0
 10
4149.1272995146064204
 20
150.9626357101797112
 30
0.0
 40
0.1205149823503475
 50
45.0698348229233972
 51
138.9144476288315104
  0
ARC
  5
7D1F
  8
0
 10
4149.0690640485890981
 20
151.0269467029841053
 30
0.0
 40
0.0358395659310882
 50
155.4521251642730135
 51
228.2467987507941984
  0
LINE
  5
7D20
  8
0
 10
4149.0371600085736645
 20
151.0426277749315034
 30
0.0
 11
4149.0451976448193818
 21
151.0002096639323099
 31
0.0
  0
LINE
  5
7D21
  8
0
 10
4149.2145802027407626
 20
151.0435317488091016
 30
0.0
 11
4149.2068534940199243
 21
151.0067146246323091
 31
0.0
  0
ARC
  5
7D22
  8
0
 10
4149.1266382426601922
 20
150.9854203060232862
 30
0.0
 40
0.0237188866283004
 50
53.6383053060023229
 51
130.1068032154406922
  0
ARC
  5
7D23
  8
0
 10
4149.1145792653887838
 20
150.9997373512426009
 30
0.0
 40
0.005
 50
130.1068032154406922
 51
225.7950731803265967
  0
ARC
  5
7D24
  8
0
 10
4149.137736308131025
 20
151.0004944447848914
 30
0.0
 40
0.005
 50
317.9500353411117999
 51
53.6383053060042485
  0
ARC
  5
7D25
  8
0
 10
4149.1257932163953228
 20
151.0112669263396867
 30
0.0
 40
0.0210836500539991
 50
225.7950731803265967
 51
317.9500353411117999
  0
ARC
  5
7D26
  8
0
 10
4149.0828360802188399
 20
151.2027926727191129
 30
0.0
 40
0.0262823379935567
 50
317.4609214232938257
 51
45.9648499753966178
  0
ARC
  5
7D27
  8
0
 10
4149.0362762673157704
 20
151.2599330549427918
 30
0.0
 40
0.0997876530691234
 50
239.1384821228579085
 51
311.3497374130549815
  0
ARC
  5
7D28
  8
0
 10
4148.9984515421392643
 20
151.1993801224568017
 30
0.0
 40
0.0284405328727562
 50
144.007095247556606
 51
241.9753336716188983
  0
ARC
  5
7D29
  8
0
 10
4149.0415349096983846
 20
151.145598985381298
 30
0.0
 40
0.0966334993067387
 50
51.9424252890696394
 51
133.1545738693000942
  0
ARC
  5
7D2A
  8
0
 10
4149.0045642847653653
 20
151.2138592118764109
 30
0.0
 40
0.0476957477653339
 50
195.1715824891496993
 51
241.2430074182194915
  0
ARC
  5
7D2B
  8
0
 10
4149.0362256469443309
 20
151.2715535559773912
 30
0.0
 40
0.1135066829985698
 50
241.2430074182194915
 51
308.7212985339342026
  0
ARC
  5
7D2C
  8
0
 10
4149.0772541967799043
 20
151.2144212459230914
 30
0.0
 40
0.0434277584956983
 50
313.6454971796603104
 51
351.3391927370701069
  0
ARC
  5
7D2D
  8
0
 10
4149.0965276024599007
 20
151.232066328496586
 30
0.0
 40
0.0338327062025688
 50
314.370727789938428
 51
30.2758385766700187
  0
ARC
  5
7D2E
  8
0
 10
4149.0406327745304225
 20
151.1638027792519949
 30
0.0
 40
0.1205149823503475
 50
45.0698348229233972
 51
138.9144476288315104
  0
ARC
  5
7D2F
  8
0
 10
4148.9823973085140096
 20
151.2281137720565027
 30
0.0
 40
0.0358395659310882
 50
155.4521251642730135
 51
228.2467987507941984
  0
LINE
  5
7D30
  8
0
 10
4148.9504932684985761
 20
151.2437948440039008
 30
0.0
 11
4148.9585309047452029
 21
151.2013767330047074
 31
0.0
  0
LINE
  5
7D31
  8
0
 10
4149.1279134626665837
 20
151.2446988178814138
 30
0.0
 11
4149.1201867539448358
 21
151.2078816937045929
 31
0.0
  0
ARC
  5
7D32
  8
0
 10
4149.0399715025851037
 20
151.1865873750957121
 30
0.0
 40
0.0237188866283004
 50
53.6383053060023229
 51
130.1068032154406922
  0
ARC
  5
7D33
  8
0
 10
4149.0279125253146049
 20
151.2009044203149983
 30
0.0
 40
0.005
 50
130.1068032154406922
 51
225.7950731803265967
  0
ARC
  5
7D34
  8
0
 10
4149.0510695680559365
 20
151.2016615138572888
 30
0.0
 40
0.005
 50
317.9500353411117999
 51
53.6383053060042485
  0
ARC
  5
7D35
  8
0
 10
4149.0391264763202344
 20
151.2124339954121126
 30
0.0
 40
0.0210836500539991
 50
225.7950731803265967
 51
317.9500353411117999
  0
ARC
  5
7D36
  8
0
 10
4148.7410668055581482
 20
151.2737449363714859
 30
0.0
 40
0.0262823379935567
 50
317.4609214232938257
 51
45.9648499753966178
  0
ARC
  5
7D37
  8
0
 10
4148.6945069926568976
 20
151.3308853185951079
 30
0.0
 40
0.0997876530691234
 50
239.1384821228579085
 51
311.3497374130549815
  0
ARC
  5
7D38
  8
0
 10
4148.6566822674803916
 20
151.2703323861090894
 30
0.0
 40
0.0284405328727562
 50
144.007095247556606
 51
241.9753336716188983
  0
ARC
  5
7D39
  8
0
 10
4148.6997656350386023
 20
151.2165512490336994
 30
0.0
 40
0.0966334993067387
 50
51.9424252890696394
 51
133.1545738693000942
  0
ARC
  5
7D3A
  8
0
 10
4148.6627950101055831
 20
151.2848114755286986
 30
0.0
 40
0.0476957477653339
 50
195.1715824891496993
 51
241.2430074182194915
  0
ARC
  5
7D3B
  8
0
 10
4148.6944563722845487
 20
151.3425058196297073
 30
0.0
 40
0.1135066829985698
 50
241.2430074182194915
 51
308.7212985339342026
  0
ARC
  5
7D3C
  8
0
 10
4148.7354849221201221
 20
151.2853735095754075
 30
0.0
 40
0.0434277584956983
 50
313.6454971796603104
 51
351.3391927370701069
  0
ARC
  5
7D3D
  8
0
 10
4148.7547583278001184
 20
151.3030185921489021
 30
0.0
 40
0.0338327062025688
 50
314.370727789938428
 51
30.2758385766700187
  0
ARC
  5
7D3E
  8
0
 10
4148.6988634998715497
 20
151.2347550429043963
 30
0.0
 40
0.1205149823503475
 50
45.0698348229233972
 51
138.9144476288315104
  0
ARC
  5
7D3F
  8
0
 10
4148.6406280338551369
 20
151.2990660357087904
 30
0.0
 40
0.0358395659310882
 50
155.4521251642730135
 51
228.2467987507941984
  0
LINE
  5
7D40
  8
0
 10
4148.6087239938397033
 20
151.3147471076561885
 30
0.0
 11
4148.6167616300854206
 21
151.2723289966569951
 31
0.0
  0
LINE
  5
7D41
  8
0
 10
4148.7861441880068014
 20
151.3156510815337867
 30
0.0
 11
4148.7784174792850536
 21
151.2788339573569942
 31
0.0
  0
ARC
  5
7D42
  8
0
 10
4148.698202227926231
 20
151.2575396387479998
 30
0.0
 40
0.0237188866283004
 50
53.6383053060023229
 51
130.1068032154406922
  0
ARC
  5
7D43
  8
0
 10
4148.6861432506557321
 20
151.271856683967286
 30
0.0
 40
0.005
 50
130.1068032154406922
 51
225.7950731803265967
  0
ARC
  5
7D44
  8
0
 10
4148.7093002933970638
 20
151.2726137775096049
 30
0.0
 40
0.005
 50
317.9500353411117999
 51
53.6383053060042485
  0
ARC
  5
7D45
  8
0
 10
4148.6973572016613616
 20
151.2833862590644003
 30
0.0
 40
0.0210836500539991
 50
225.7950731803265967
 51
317.9500353411117999
  0
ARC
  5
7D46
  8
0
 10
4148.939042036167848
 20
151.3865573253982006
 30
0.0
 40
0.0262823379935567
 50
317.4609214232938257
 51
45.9648499753966178
  0
ARC
  5
7D47
  8
0
 10
4148.8924822232647784
 20
151.4436977076217943
 30
0.0
 40
0.0997876530691234
 50
239.1384821228579085
 51
311.3497374130549815
  0
ARC
  5
7D48
  8
0
 10
4148.8546574980891819
 20
151.3831447751358041
 30
0.0
 40
0.0284405328727562
 50
144.007095247556606
 51
241.9753336716188983
  0
ARC
  5
7D49
  8
0
 10
4148.8977408656492116
 20
151.3293636380604141
 30
0.0
 40
0.0966334993067387
 50
51.9424252890696394
 51
133.1545738693000942
  0
ARC
  5
7D4A
  8
0
 10
4148.8607702407152829
 20
151.3976238645554986
 30
0.0
 40
0.0476957477653339
 50
195.1715824891496993
 51
241.2430074182194915
  0
ARC
  5
7D4B
  8
0
 10
4148.8924316028942485
 20
151.4553182086563936
 30
0.0
 40
0.1135066829985698
 50
241.2430074182194915
 51
308.7212985339342026
  0
ARC
  5
7D4C
  8
0
 10
4148.9334601527289124
 20
151.3981858986022075
 30
0.0
 40
0.0434277584956983
 50
313.6454971796603104
 51
351.3391927370701069
  0
ARC
  5
7D4D
  8
0
 10
4148.9527335584098182
 20
151.4158309811755885
 30
0.0
 40
0.0338327062025688
 50
314.370727789938428
 51
30.2758385766700187
  0
ARC
  5
7D4E
  8
0
 10
4148.896838730482159
 20
151.3475674319311111
 30
0.0
 40
0.1205149823503475
 50
45.0698348229233972
 51
138.9144476288315104
  0
ARC
  5
7D4F
  8
0
 10
4148.8386032644639272
 20
151.4118784247355052
 30
0.0
 40
0.0358395659310882
 50
155.4521251642730135
 51
228.2467987507941984
  0
LINE
  5
7D50
  8
0
 10
4148.8066992244503126
 20
151.4275594966829033
 30
0.0
 11
4148.8147368606951204
 21
151.3851413856837098
 31
0.0
  0
LINE
  5
7D51
  8
0
 10
4148.9841194186174107
 20
151.4284634705605015
 30
0.0
 11
4148.9763927098947534
 21
151.391646346383709
 31
0.0
  0
ARC
  5
7D52
  8
0
 10
4148.8961774585341118
 20
151.3703520277747998
 30
0.0
 40
0.0237188866283004
 50
53.6383053060023229
 51
130.1068032154406922
  0
ARC
  5
7D53
  8
0
 10
4148.8841184812654319
 20
151.3846690729940008
 30
0.0
 40
0.005
 50
130.1068032154406922
 51
225.7950731803265967
  0
ARC
  5
7D54
  8
0
 10
4148.9072755240049446
 20
151.3854261665364049
 30
0.0
 40
0.005
 50
317.9500353411117999
 51
53.6383053060042485
  0
ARC
  5
7D55
  8
0
 10
4148.8953324322701519
 20
151.3961986480912003
 30
0.0
 40
0.0210836500539991
 50
225.7950731803265967
 51
317.9500353411117999
  0
ARC
  5
7D56
  8
0
 10
4148.747874971904821
 20
151.5500880510747947
 30
0.0
 40
0.0262823379935567
 50
317.4609214232938257
 51
45.9648499753966178
  0
ARC
  5
7D57
  8
0
 10
4148.7013151590017515
 20
151.6072284332983884
 30
0.0
 40
0.0997876530691234
 50
239.1384821228579085
 51
311.3497374130549815
  0
ARC
  5
7D58
  8
0
 10
4148.6634904338252454
 20
151.5466755008123982
 30
0.0
 40
0.0284405328727562
 50
144.007095247556606
 51
241.9753336716188983
  0
ARC
  5
7D59
  8
0
 10
4148.7065738013852751
 20
151.4928943637370082
 30
0.0
 40
0.0966334993067387
 50
51.9424252890696394
 51
133.1545738693000942
  0
ARC
  5
7D5A
  8
0
 10
4148.6696031764522559
 20
151.5611545902320074
 30
0.0
 40
0.0476957477653339
 50
195.1715824891496993
 51
241.2430074182194915
  0
ARC
  5
7D5B
  8
0
 10
4148.7012645386312215
 20
151.6188489343329877
 30
0.0
 40
0.1135066829985698
 50
241.2430074182194915
 51
308.7212985339342026
  0
ARC
  5
7D5C
  8
0
 10
4148.7422930884658854
 20
151.5617166242788016
 30
0.0
 40
0.0434277584956983
 50
313.6454971796603104
 51
351.3391927370701069
  0
ARC
  5
7D5D
  8
0
 10
4148.7615664941467912
 20
151.579361706852211
 30
0.0
 40
0.0338327062025688
 50
314.370727789938428
 51
30.2758385766700187
  0
ARC
  5
7D5E
  8
0
 10
4148.705671666217313
 20
151.5110981576077052
 30
0.0
 40
0.1205149823503475
 50
45.0698348229233972
 51
138.9144476288315104
  0
ARC
  5
7D5F
  8
0
 10
4148.6474362001999907
 20
151.5754091504120993
 30
0.0
 40
0.0358395659310882
 50
155.4521251642730135
 51
228.2467987507941984
  0
LINE
  5
7D60
  8
0
 10
4148.6155321601845571
 20
151.5910902223594974
 30
0.0
 11
4148.6235697964311839
 21
151.5486721113603039
 31
0.0
  0
LINE
  5
7D61
  8
0
 10
4148.7929523543525647
 20
151.5919941962370956
 30
0.0
 11
4148.7852256456317264
 21
151.5551770720603031
 31
0.0
  0
ARC
  5
7D62
  8
0
 10
4148.7050103942719943
 20
151.5338827534513086
 30
0.0
 40
0.0237188866283004
 50
53.6383053060023229
 51
130.1068032154406922
  0
ARC
  5
7D63
  8
0
 10
4148.6929514170005859
 20
151.5481997986705949
 30
0.0
 40
0.005
 50
130.1068032154406922
 51
225.7950731803265967
  0
ARC
  5
7D64
  8
0
 10
4148.7161084597428271
 20
151.5489568922129138
 30
0.0
 40
0.005
 50
317.9500353411117999
 51
53.6383053060042485
  0
ARC
  5
7D65
  8
0
 10
4148.7041653680071249
 20
151.5597293737677091
 30
0.0
 40
0.0210836500539991
 50
225.7950731803265967
 51
317.9500353411117999
  0
ARC
  5
7D66
  8
0
 10
4148.3823451050966469
 20
151.5231679217729948
 30
0.0
 40
0.0262823379935567
 50
317.4609214232938257
 51
45.9648499753966178
  0
ARC
  5
7D67
  8
0
 10
4148.3357852921953963
 20
151.5803083039965884
 30
0.0
 40
0.0997876530691234
 50
239.1384821228579085
 51
311.3497374130549815
  0
ARC
  5
7D68
  8
0
 10
4148.2979605670179808
 20
151.5197553715107119
 30
0.0
 40
0.0284405328727562
 50
144.007095247556606
 51
241.9753336716188983
  0
ARC
  5
7D69
  8
0
 10
4148.3410439345780105
 20
151.4659742344352082
 30
0.0
 40
0.0966334993067387
 50
51.9424252890696394
 51
133.1545738693000942
  0
ARC
  5
7D6A
  8
0
 10
4148.3040733096449912
 20
151.5342344609302927
 30
0.0
 40
0.0476957477653339
 50
195.1715824891496993
 51
241.2430074182194915
  0
ARC
  5
7D6B
  8
0
 10
4148.3357346718230474
 20
151.5919288050311877
 30
0.0
 40
0.1135066829985698
 50
241.2430074182194915
 51
308.7212985339342026
  0
ARC
  5
7D6C
  8
0
 10
4148.3767632216586208
 20
151.5347964949770017
 30
0.0
 40
0.0434277584956983
 50
313.6454971796603104
 51
351.3391927370701069
  0
ARC
  5
7D6D
  8
0
 10
4148.3960366273386171
 20
151.5524415775504963
 30
0.0
 40
0.0338327062025688
 50
314.370727789938428
 51
30.2758385766700187
  0
ARC
  5
7D6E
  8
0
 10
4148.3401417994100484
 20
151.4841780283059052
 30
0.0
 40
0.1205149823503475
 50
45.0698348229233972
 51
138.9144476288315104
  0
ARC
  5
7D6F
  8
0
 10
4148.2819063333927261
 20
151.5484890211102993
 30
0.0
 40
0.0358395659310882
 50
155.4521251642730135
 51
228.2467987507941984
  0
LINE
  5
7D70
  8
0
 10
4148.250002293378202
 20
151.5641700930578111
 30
0.0
 11
4148.2580399296239193
 21
151.5217519820585039
 31
0.0
  0
LINE
  5
7D71
  8
0
 10
4148.4274224875462096
 20
151.5650740669352956
 30
0.0
 11
4148.4196957788226428
 21
151.5282569427585031
 31
0.0
  0
ARC
  5
7D72
  8
0
 10
4148.3394805274638202
 20
151.5069626241495939
 30
0.0
 40
0.0237188866283004
 50
53.6383053060023229
 51
130.1068032154406922
  0
ARC
  5
7D73
  8
0
 10
4148.3274215501942308
 20
151.5212796693687949
 30
0.0
 40
0.005
 50
130.1068032154406922
 51
225.7950731803265967
  0
ARC
  5
7D74
  8
0
 10
4148.350578592934653
 20
151.522036762911199
 30
0.0
 40
0.005
 50
317.9500353411117999
 51
53.6383053060042485
  0
ARC
  5
7D75
  8
0
 10
4148.3386355011989508
 20
151.5328092444659944
 30
0.0
 40
0.0210836500539991
 50
225.7950731803265967
 51
317.9500353411117999
  0
ARC
  5
7D76
  8
0
 10
4148.5135818428143466
 20
151.6819609243194122
 30
0.0
 40
0.0262823379935567
 50
317.4609214232938257
 51
45.9648499753966178
  0
ARC
  5
7D77
  8
0
 10
4148.4670220299121866
 20
151.7391013065430059
 30
0.0
 40
0.0997876530691234
 50
239.1384821228579085
 51
311.3497374130549815
  0
ARC
  5
7D78
  8
0
 10
4148.429197304734771
 20
151.6785483740569873
 30
0.0
 40
0.0284405328727562
 50
144.007095247556606
 51
241.9753336716188983
  0
ARC
  5
7D79
  8
0
 10
4148.4722806722948008
 20
151.6247672369815973
 30
0.0
 40
0.0966334993067387
 50
51.9424252890696394
 51
133.1545738693000942
  0
ARC
  5
7D7A
  8
0
 10
4148.4353100473617815
 20
151.6930274634765965
 30
0.0
 40
0.0476957477653339
 50
195.1715824891496993
 51
241.2430074182194915
  0
ARC
  5
7D7B
  8
0
 10
4148.4669714095407471
 20
151.7507218075776052
 30
0.0
 40
0.1135066829985698
 50
241.2430074182194915
 51
308.7212985339342026
  0
ARC
  5
7D7C
  8
0
 10
4148.5079999593763205
 20
151.6935894975233907
 30
0.0
 40
0.0434277584956983
 50
313.6454971796603104
 51
351.3391927370701069
  0
ARC
  5
7D7D
  8
0
 10
4148.5272733650563168
 20
151.7112345800968001
 30
0.0
 40
0.0338327062025688
 50
314.370727789938428
 51
30.2758385766700187
  0
ARC
  5
7D7E
  8
0
 10
4148.4713785371259291
 20
151.6429710308522942
 30
0.0
 40
0.1205149823503475
 50
45.0698348229233972
 51
138.9144476288315104
  0
ARC
  5
7D7F
  8
0
 10
4148.4131430711086068
 20
151.707282023656802
 30
0.0
 40
0.0358395659310882
 50
155.4521251642730135
 51
228.2467987507941984
  0
LINE
  5
7D80
  8
0
 10
4148.3812390310949922
 20
151.7229630956040864
 30
0.0
 11
4148.3892766673398
 21
151.680544984604893
 31
0.0
  0
LINE
  5
7D81
  8
0
 10
4148.5586592252629998
 20
151.7238670694817131
 30
0.0
 11
4148.550932516541252
 21
151.6870499453048922
 31
0.0
  0
ARC
  5
7D82
  8
0
 10
4148.4707172651806104
 20
151.6657556266958977
 30
0.0
 40
0.0237188866283004
 50
53.6383053060023229
 51
130.1068032154406922
  0
ARC
  5
7D83
  8
0
 10
4148.458658287911021
 20
151.6800726719152976
 30
0.0
 40
0.005
 50
130.1068032154406922
 51
225.7950731803265967
  0
ARC
  5
7D84
  8
0
 10
4148.4818153306532622
 20
151.6808297654575028
 30
0.0
 40
0.005
 50
317.9500353411117999
 51
53.6383053060042485
  0
ARC
  5
7D85
  8
0
 10
4148.469872238915741
 20
151.6916022470124119
 30
0.0
 40
0.0210836500539991
 50
225.7950731803265967
 51
317.9500353411117999
  0
ARC
  5
7D86
  8
0
 10
4148.2477940631042657
 20
151.7806823313798077
 30
0.0
 40
0.0262823379935567
 50
317.4609214232938257
 51
45.9648499753966178
  0
ARC
  5
7D87
  8
0
 10
4148.2012342502021056
 20
151.8378227136034013
 30
0.0
 40
0.0997876530691234
 50
239.1384821228579085
 51
311.3497374130549815
  0
ARC
  5
7D88
  8
0
 10
4148.1634095250246901
 20
151.7772697811174112
 30
0.0
 40
0.0284405328727562
 50
144.007095247556606
 51
241.9753336716188983
  0
ARC
  5
7D89
  8
0
 10
4148.2064928925847198
 20
151.7234886440419928
 30
0.0
 40
0.0966334993067387
 50
51.9424252890696394
 51
133.1545738693000942
  0
ARC
  5
7D8A
  8
0
 10
4148.1695222676517005
 20
151.7917488705371056
 30
0.0
 40
0.0476957477653339
 50
195.1715824891496993
 51
241.2430074182194915
  0
ARC
  5
7D8B
  8
0
 10
4148.2011836298297567
 20
151.8494432146380007
 30
0.0
 40
0.1135066829985698
 50
241.2430074182194915
 51
308.7212985339342026
  0
ARC
  5
7D8C
  8
0
 10
4148.24221217966533
 20
151.7923109045837862
 30
0.0
 40
0.0434277584956983
 50
313.6454971796603104
 51
351.3391927370701069
  0
ARC
  5
7D8D
  8
0
 10
4148.2614855853462359
 20
151.8099559871571955
 30
0.0
 40
0.0338327062025688
 50
314.370727789938428
 51
30.2758385766700187
  0
ARC
  5
7D8E
  8
0
 10
4148.2055907574167577
 20
151.7416924379126897
 30
0.0
 40
0.1205149823503475
 50
45.0698348229233972
 51
138.9144476288315104
  0
ARC
  5
7D8F
  8
0
 10
4148.1473552914003449
 20
151.8060034307171122
 30
0.0
 40
0.0358395659310882
 50
155.4521251642730135
 51
228.2467987507941984
  0
LINE
  5
7D90
  8
0
 10
4148.1154512513840018
 20
151.8216845026645103
 30
0.0
 11
4148.1234888876297191
 21
151.7792663916652884
 31
0.0
  0
LINE
  5
7D91
  8
0
 10
4148.2928714455529189
 20
151.8225884765421085
 30
0.0
 11
4148.2851447368302615
 21
151.7857713523652876
 31
0.0
  0
ARC
  5
7D92
  8
0
 10
4148.2049294854723485
 20
151.7644770337562932
 30
0.0
 40
0.0237188866283004
 50
53.6383053060023229
 51
130.1068032154406922
  0
ARC
  5
7D93
  8
0
 10
4148.1928705082009401
 20
151.7787940789756078
 30
0.0
 40
0.005
 50
130.1068032154406922
 51
225.7950731803265967
  0
ARC
  5
7D94
  8
0
 10
4148.2160275509422718
 20
151.779551172518012
 30
0.0
 40
0.005
 50
317.9500353411117999
 51
53.6383053060042485
  0
ARC
  5
7D95
  8
0
 10
4148.2040844592056601
 20
151.7903236540728074
 30
0.0
 40
0.0210836500539991
 50
225.7950731803265967
 51
317.9500353411117999
  0
ARC
  5
7D96
  8
0
 10
4147.9114303762962663
 20
151.6575487639715902
 30
0.0
 40
0.0262823379935567
 50
317.4609214232938257
 51
45.9648499753966178
  0
ARC
  5
7D97
  8
0
 10
4147.8648705633941063
 20
151.7146891461952123
 30
0.0
 40
0.0997876530691234
 50
239.1384821228579085
 51
311.3497374130549815
  0
ARC
  5
7D98
  8
0
 10
4147.8270458382176002
 20
151.6541362137091937
 30
0.0
 40
0.0284405328727562
 50
144.007095247556606
 51
241.9753336716188983
  0
ARC
  5
7D99
  8
0
 10
4147.8701292057767205
 20
151.6003550766338037
 30
0.0
 40
0.0966334993067387
 50
51.9424252890696394
 51
133.1545738693000942
  0
ARC
  5
7D9A
  8
0
 10
4147.8331585808437012
 20
151.6686153031288029
 30
0.0
 40
0.0476957477653339
 50
195.1715824891496993
 51
241.2430074182194915
  0
ARC
  5
7D9B
  8
0
 10
4147.8648199430226668
 20
151.7263096472298116
 30
0.0
 40
0.1135066829985698
 50
241.2430074182194915
 51
308.7212985339342026
  0
ARC
  5
7D9C
  8
0
 10
4147.9058484928582402
 20
151.6691773371755971
 30
0.0
 40
0.0434277584956983
 50
313.6454971796603104
 51
351.3391927370701069
  0
ARC
  5
7D9D
  8
0
 10
4147.9251218985391461
 20
151.6868224197490065
 30
0.0
 40
0.0338327062025688
 50
314.370727789938428
 51
30.2758385766700187
  0
ARC
  5
7D9E
  8
0
 10
4147.8692270706096679
 20
151.6185588705045006
 30
0.0
 40
0.1205149823503475
 50
45.0698348229233972
 51
138.9144476288315104
  0
ARC
  5
7D9F
  8
0
 10
4147.8109916045923455
 20
151.6828698633088948
 30
0.0
 40
0.0358395659310882
 50
155.4521251642730135
 51
228.2467987507941984
  0
LINE
  5
7DA0
  8
0
 10
4147.7790875645778215
 20
151.6985509352562929
 30
0.0
 11
4147.7871252008244483
 21
151.6561328242570994
 31
0.0
  0
LINE
  5
7DA1
  8
0
 10
4147.9565077587449196
 20
151.6994549091338911
 30
0.0
 11
4147.9487810500240812
 21
151.6626377849570986
 31
0.0
  0
ARC
  5
7DA2
  8
0
 10
4147.8685657986643491
 20
151.6413434663481041
 30
0.0
 40
0.0237188866283004
 50
53.6383053060023229
 51
130.1068032154406922
  0
ARC
  5
7DA3
  8
0
 10
4147.8565068213929408
 20
151.6556605115673904
 30
0.0
 40
0.005
 50
130.1068032154406922
 51
225.7950731803265967
  0
ARC
  5
7DA4
  8
0
 10
4147.8796638641351819
 20
151.6564176051097093
 30
0.0
 40
0.005
 50
317.9500353411117999
 51
53.6383053060042485
  0
ARC
  5
7DA5
  8
0
 10
4147.8677207723985703
 20
151.6671900866645046
 30
0.0
 40
0.0210836500539991
 50
225.7950731803265967
 51
317.9500353411117999
  0
ARC
  5
7DA6
  8
0
 10
4147.959501706469382
 20
151.8435849496121932
 30
0.0
 40
0.0262823379935567
 50
317.4609214232938257
 51
45.9648499753966178
  0
ARC
  5
7DA7
  8
0
 10
4147.912941893565403
 20
151.9007253318359005
 30
0.0
 40
0.0997876530691234
 50
239.1384821228579085
 51
311.3497374130549815
  0
ARC
  5
7DA8
  8
0
 10
4147.8751171683879875
 20
151.8401723993499104
 30
0.0
 40
0.0284405328727562
 50
144.007095247556606
 51
241.9753336716188983
  0
ARC
  5
7DA9
  8
0
 10
4147.9182005359480172
 20
151.786391262274492
 30
0.0
 40
0.0966334993067387
 50
51.9424252890696394
 51
133.1545738693000942
  0
ARC
  5
7DAA
  8
0
 10
4147.8812299110149979
 20
151.8546514887694912
 30
0.0
 40
0.0476957477653339
 50
195.1715824891496993
 51
241.2430074182194915
  0
ARC
  5
7DAB
  8
0
 10
4147.9128912731930541
 20
151.9123458328704999
 30
0.0
 40
0.1135066829985698
 50
241.2430074182194915
 51
308.7212985339342026
  0
ARC
  5
7DAC
  8
0
 10
4147.9539198230304464
 20
151.8552135228162001
 30
0.0
 40
0.0434277584956983
 50
313.6454971796603104
 51
351.3391927370701069
  0
ARC
  5
7DAD
  8
0
 10
4147.9731932287086238
 20
151.8728586053896947
 30
0.0
 40
0.0338327062025688
 50
314.370727789938428
 51
30.2758385766700187
  0
ARC
  5
7DAE
  8
0
 10
4147.9172984007800551
 20
151.8045950561451889
 30
0.0
 40
0.1205149823503475
 50
45.0698348229233972
 51
138.9144476288315104
  0
ARC
  5
7DAF
  8
0
 10
4147.8590629347627328
 20
151.8689060489496114
 30
0.0
 40
0.0358395659310882
 50
155.4521251642730135
 51
228.2467987507941984
  0
LINE
  5
7DB0
  8
0
 10
4147.8271588947482087
 20
151.8845871208970095
 30
0.0
 11
4147.8351965309930165
 21
151.8421690098977876
 31
0.0
  0
LINE
  5
7DB1
  8
0
 10
4148.0045790889171258
 20
151.8854910947746077
 30
0.0
 11
4147.9968523801935589
 21
151.8486739705977868
 31
0.0
  0
ARC
  5
7DB2
  8
0
 10
4147.9166371288347364
 20
151.8273796519887924
 30
0.0
 40
0.0237188866283004
 50
53.6383053060023229
 51
130.1068032154406922
  0
ARC
  5
7DB3
  8
0
 10
4147.904578151565147
 20
151.841696697208107
 30
0.0
 40
0.005
 50
130.1068032154406922
 51
225.7950731803265967
  0
ARC
  5
7DB4
  8
0
 10
4147.9277351943046597
 20
151.8424537907503975
 30
0.0
 40
0.005
 50
317.9500353411117999
 51
53.6383053060042485
  0
ARC
  5
7DB5
  8
0
 10
4147.915792102569867
 20
151.8532262723051929
 30
0.0
 40
0.0210836500539991
 50
225.7950731803265967
 51
317.9500353411117999
  0
ARC
  5
7DB6
  8
0
 10
4147.835416776166312
 20
150.4241503178010078
 30
0.0
 40
0.0262823379935567
 50
317.4609214232938257
 51
45.9648499753966178
  0
ARC
  5
7DB7
  8
0
 10
4147.7888569632632425
 20
150.4812907000246014
 30
0.0
 40
0.0997876530691234
 50
239.1384821228579085
 51
311.3497374130549815
  0
ARC
  5
7DB8
  8
0
 10
4147.751032238085827
 20
150.4207377675386965
 30
0.0
 40
0.0284405328727562
 50
144.007095247556606
 51
241.9753336716188983
  0
ARC
  5
7DB9
  8
0
 10
4147.7941156056458567
 20
150.3669566304631928
 30
0.0
 40
0.0966334993067387
 50
51.9424252890696394
 51
133.1545738693000942
  0
ARC
  5
7DBA
  8
0
 10
4147.7571449807128374
 20
150.4352168569583057
 30
0.0
 40
0.0476957477653339
 50
195.1715824891496993
 51
241.2430074182194915
  0
ARC
  5
7DBB
  8
0
 10
4147.7888063428918031
 20
150.4929112010592007
 30
0.0
 40
0.1135066829985698
 50
241.2430074182194915
 51
308.7212985339342026
  0
ARC
  5
7DBC
  8
0
 10
4147.8298348927273764
 20
150.4357788910049862
 30
0.0
 40
0.0434277584956983
 50
313.6454971796603104
 51
351.3391927370701069
  0
ARC
  5
7DBD
  8
0
 10
4147.8491082984073728
 20
150.4534239735785093
 30
0.0
 40
0.0338327062025688
 50
314.370727789938428
 51
30.2758385766700187
  0
ARC
  5
7DBE
  8
0
 10
4147.7932134704769851
 20
150.3851604243338898
 30
0.0
 40
0.1205149823503475
 50
45.0698348229233972
 51
138.9144476288315104
  0
ARC
  5
7DBF
  8
0
 10
4147.7349780044605723
 20
150.4494714171383976
 30
0.0
 40
0.0358395659310882
 50
155.4521251642730135
 51
228.2467987507941984
  0
LINE
  5
7DC0
  8
0
 10
4147.7030739644460482
 20
150.4651524890857104
 30
0.0
 11
4147.711111600690856
 21
150.4227343780864885
 31
0.0
  0
LINE
  5
7DC1
  8
0
 10
4147.8804941586140558
 20
150.4660564629633086
 30
0.0
 11
4147.8727674498923079
 21
150.4292393387864877
 31
0.0
  0
ARC
  5
7DC2
  8
0
 10
4147.7925521985316664
 20
150.4079450201776069
 30
0.0
 40
0.0237188866283004
 50
53.6383053060023229
 51
130.1068032154406922
  0
ARC
  5
7DC3
  8
0
 10
4147.780493221262077
 20
150.4222620653968079
 30
0.0
 40
0.005
 50
130.1068032154406922
 51
225.7950731803265967
  0
ARC
  5
7DC4
  8
0
 10
4147.8036502640043182
 20
150.423019158939212
 30
0.0
 40
0.005
 50
317.9500353411117999
 51
53.6383053060042485
  0
ARC
  5
7DC5
  8
0
 10
4147.7917071722677065
 20
150.4337916404940074
 30
0.0
 40
0.0210836500539991
 50
225.7950731803265967
 51
317.9500353411117999
  0
ARC
  5
7DC6
  8
0
 10
4148.1040821940941896
 20
150.417268793027489
 30
0.0
 40
0.0262823379935567
 50
317.4609214232938257
 51
45.9648499753966178
  0
ARC
  5
7DC7
  8
0
 10
4148.0575223811902106
 20
150.474409175251111
 30
0.0
 40
0.0997876530691234
 50
239.1384821228579085
 51
311.3497374130549815
  0
ARC
  5
7DC8
  8
0
 10
4148.0196976560127951
 20
150.4138562427650925
 30
0.0
 40
0.0284405328727562
 50
144.007095247556606
 51
241.9753336716188983
  0
ARC
  5
7DC9
  8
0
 10
4148.0627810235728248
 20
150.3600751056897025
 30
0.0
 40
0.0966334993067387
 50
51.9424252890696394
 51
133.1545738693000942
  0
ARC
  5
7DCA
  8
0
 10
4148.0258103986398055
 20
150.4283353321847017
 30
0.0
 40
0.0476957477653339
 50
195.1715824891496993
 51
241.2430074182194915
  0
ARC
  5
7DCB
  8
0
 10
4148.0574717608178617
 20
150.4860296762857104
 30
0.0
 40
0.1135066829985698
 50
241.2430074182194915
 51
308.7212985339342026
  0
ARC
  5
7DCC
  8
0
 10
4148.098500310655254
 20
150.4288973662314959
 30
0.0
 40
0.0434277584956983
 50
313.6454971796603104
 51
351.3391927370701069
  0
ARC
  5
7DCD
  8
0
 10
4148.1177737163343409
 20
150.4465424488049052
 30
0.0
 40
0.0338327062025688
 50
314.370727789938428
 51
30.2758385766700187
  0
ARC
  5
7DCE
  8
0
 10
4148.0618788884039532
 20
150.3782788995603994
 30
0.0
 40
0.1205149823503475
 50
45.0698348229233972
 51
138.9144476288315104
  0
ARC
  5
7DCF
  8
0
 10
4148.0036434223884498
 20
150.4425898923647935
 30
0.0
 40
0.0358395659310882
 50
155.4521251642730135
 51
228.2467987507941984
  0
LINE
  5
7DD0
  8
0
 10
4147.9717393823739258
 20
150.4582709643121916
 30
0.0
 11
4147.9797770186187336
 21
150.4158528533129981
 31
0.0
  0
LINE
  5
7DD1
  8
0
 10
4148.1491595765419333
 20
150.4591749381897898
 30
0.0
 11
4148.141432867819276
 21
150.4223578140129973
 31
0.0
  0
ARC
  5
7DD2
  8
0
 10
4148.0612176164604534
 20
150.4010634954040029
 30
0.0
 40
0.0237188866283004
 50
53.6383053060023229
 51
130.1068032154406922
  0
ARC
  5
7DD3
  8
0
 10
4148.0491586391899546
 20
150.4153805406232891
 30
0.0
 40
0.005
 50
130.1068032154406922
 51
225.7950731803265967
  0
ARC
  5
7DD4
  8
0
 10
4148.0723156819303767
 20
150.416137634165608
 30
0.0
 40
0.005
 50
317.9500353411117999
 51
53.6383053060042485
  0
ARC
  5
7DD5
  8
0
 10
4148.0603725901946746
 20
150.4269101157204034
 30
0.0
 40
0.0210836500539991
 50
225.7950731803265967
 51
317.9500353411117999
  0
ARC
  5
7DD6
  8
0
 10
4148.0853268088203549
 20
150.5976618267660001
 30
0.0
 40
0.0262823379935567
 50
317.4609214232938257
 51
45.9648499753966178
  0
ARC
  5
7DD7
  8
0
 10
4148.0387669959172854
 20
150.6548022089897074
 30
0.0
 40
0.0997876530691234
 50
239.1384821228579085
 51
311.3497374130549815
  0
ARC
  5
7DD8
  8
0
 10
4148.0009422707407793
 20
150.5942492765036889
 30
0.0
 40
0.0284405328727562
 50
144.007095247556606
 51
241.9753336716188983
  0
ARC
  5
7DD9
  8
0
 10
4148.0440256382989901
 20
150.5404681394282136
 30
0.0
 40
0.0966334993067387
 50
51.9424252890696394
 51
133.1545738693000942
  0
ARC
  5
7DDA
  8
0
 10
4148.0070550133659708
 20
150.608728365923298
 30
0.0
 40
0.0476957477653339
 50
195.1715824891496993
 51
241.2430074182194915
  0
ARC
  5
7DDB
  8
0
 10
4148.0387163755458459
 20
150.6664227100243068
 30
0.0
 40
0.1135066829985698
 50
241.2430074182194915
 51
308.7212985339342026
  0
ARC
  5
7DDC
  8
0
 10
4148.0797449253814193
 20
150.609290399970007
 30
0.0
 40
0.0434277584956983
 50
313.6454971796603104
 51
351.3391927370701069
  0
ARC
  5
7DDD
  8
0
 10
4148.0990183310623252
 20
150.6269354825435016
 30
0.0
 40
0.0338327062025688
 50
314.370727789938428
 51
30.2758385766700187
  0
ARC
  5
7DDE
  8
0
 10
4148.043123503131028
 20
150.5586719332989105
 30
0.0
 40
0.1205149823503475
 50
45.0698348229233972
 51
138.9144476288315104
  0
ARC
  5
7DDF
  8
0
 10
4147.9848880371137056
 20
150.6229829261033899
 30
0.0
 40
0.0358395659310882
 50
155.4521251642730135
 51
228.2467987507941984
  0
LINE
  5
7DE0
  8
0
 10
4147.9529839970991816
 20
150.638663998050788
 30
0.0
 11
4147.9610216333458084
 21
150.5962458870515093
 31
0.0
  0
LINE
  5
7DE1
  8
0
 10
4148.1304041912680987
 20
150.6395679719283009
 30
0.0
 11
4148.1226774825463508
 21
150.6027508477515084
 31
0.0
  0
ARC
  5
7DE2
  8
0
 10
4148.0424622311857092
 20
150.5814565291425993
 30
0.0
 40
0.0237188866283004
 50
53.6383053060023229
 51
130.1068032154406922
  0
ARC
  5
7DE3
  8
0
 10
4148.0304032539152104
 20
150.5957735743619139
 30
0.0
 40
0.005
 50
130.1068032154406922
 51
225.7950731803265967
  0
ARC
  5
7DE4
  8
0
 10
4148.0535602966574515
 20
150.5965306679042044
 30
0.0
 40
0.005
 50
317.9500353411117999
 51
53.6383053060042485
  0
ARC
  5
7DE5
  8
0
 10
4148.0416172049208399
 20
150.6073031494589998
 30
0.0
 40
0.0210836500539991
 50
225.7950731803265967
 51
317.9500353411117999
  0
ARC
  5
7DE6
  8
0
 10
4148.2896842117988854
 20
150.7281675757444077
 30
0.0
 40
0.0262823379935567
 50
317.4609214232938257
 51
45.9648499753966178
  0
ARC
  5
7DE7
  8
0
 10
4148.2431243988967253
 20
150.7853079579680866
 30
0.0
 40
0.0997876530691234
 50
239.1384821228579085
 51
311.3497374130549815
  0
ARC
  5
7DE8
  8
0
 10
4148.2052996737202193
 20
150.7247550254820965
 30
0.0
 40
0.0284405328727562
 50
144.007095247556606
 51
241.9753336716188983
  0
ARC
  5
7DE9
  8
0
 10
4148.248383041280249
 20
150.6709738884067065
 30
0.0
 40
0.0966334993067387
 50
51.9424252890696394
 51
133.1545738693000942
  0
ARC
  5
7DEA
  8
0
 10
4148.2114124163472297
 20
150.7392341149017057
 30
0.0
 40
0.0476957477653339
 50
195.1715824891496993
 51
241.2430074182194915
  0
ARC
  5
7DEB
  8
0
 10
4148.2430737785252859
 20
150.7969284590026859
 30
0.0
 40
0.1135066829985698
 50
241.2430074182194915
 51
308.7212985339342026
  0
ARC
  5
7DEC
  8
0
 10
4148.2841023283599498
 20
150.7397961489483862
 30
0.0
 40
0.0434277584956983
 50
313.6454971796603104
 51
351.3391927370701069
  0
ARC
  5
7DED
  8
0
 10
4148.3033757340399461
 20
150.7574412315219092
 30
0.0
 40
0.0338327062025688
 50
314.370727789938428
 51
30.2758385766700187
  0
ARC
  5
7DEE
  8
0
 10
4148.2474809061113774
 20
150.6891776822774034
 30
0.0
 40
0.1205149823503475
 50
45.0698348229233972
 51
138.9144476288315104
  0
ARC
  5
7DEF
  8
0
 10
4148.1892454400949646
 20
150.7534886750817975
 30
0.0
 40
0.0358395659310882
 50
155.4521251642730135
 51
228.2467987507941984
  0
LINE
  5
7DF0
  8
0
 10
4148.1573414000804405
 20
150.7691697470291956
 30
0.0
 11
4148.1653790363252483
 21
150.7267516360298885
 31
0.0
  0
LINE
  5
7DF1
  8
0
 10
4148.3347615942484481
 20
150.7700737209067086
 30
0.0
 11
4148.3270348855248812
 21
150.7332565967300013
 31
0.0
  0
ARC
  5
7DF2
  8
0
 10
4148.2468196341660587
 20
150.7119622781210069
 30
0.0
 40
0.0237188866283004
 50
53.6383053060023229
 51
130.1068032154406922
  0
ARC
  5
7DF3
  8
0
 10
4148.2347606568955598
 20
150.7262793233402931
 30
0.0
 40
0.005
 50
130.1068032154406922
 51
225.7950731803265967
  0
ARC
  5
7DF4
  8
0
 10
4148.2579176996368915
 20
150.727036416882612
 30
0.0
 40
0.005
 50
317.9500353411117999
 51
53.6383053060042485
  0
ARC
  5
7DF5
  8
0
 10
4148.2459746079020988
 20
150.7378088984374074
 30
0.0
 40
0.0210836500539991
 50
225.7950731803265967
 51
317.9500353411117999
  0
ARC
  5
7DF6
  8
0
 10
4148.0862212183001247
 20
150.8433876557701012
 30
0.0
 40
0.0262823379935567
 50
317.4609214232938257
 51
45.9648499753966178
  0
ARC
  5
7DF7
  8
0
 10
4148.0396614053970552
 20
150.9005280379936949
 30
0.0
 40
0.0997876530691234
 50
239.1384821228579085
 51
311.3497374130549815
  0
ARC
  5
7DF8
  8
0
 10
4148.0018366802196397
 20
150.8399751055077047
 30
0.0
 40
0.0284405328727562
 50
144.007095247556606
 51
241.9753336716188983
  0
ARC
  5
7DF9
  8
0
 10
4148.0449200477796694
 20
150.786193968432201
 30
0.0
 40
0.0966334993067387
 50
51.9424252890696394
 51
133.1545738693000942
  0
ARC
  5
7DFA
  8
0
 10
4148.0079494228457406
 20
150.8544541949273139
 30
0.0
 40
0.0476957477653339
 50
195.1715824891496993
 51
241.2430074182194915
  0
ARC
  5
7DFB
  8
0
 10
4148.0396107850247063
 20
150.9121485390282942
 30
0.0
 40
0.1135066829985698
 50
241.2430074182194915
 51
308.7212985339342026
  0
ARC
  5
7DFC
  8
0
 10
4148.0806393348611891
 20
150.8550162289739944
 30
0.0
 40
0.0434277584956983
 50
313.6454971796603104
 51
351.3391927370701069
  0
ARC
  5
7DFD
  8
0
 10
4148.0999127405411855
 20
150.872661311547489
 30
0.0
 40
0.0338327062025688
 50
314.370727789938428
 51
30.2758385766700187
  0
ARC
  5
7DFE
  8
0
 10
4148.0440179126126168
 20
150.8043977623030116
 30
0.0
 40
0.1205149823503475
 50
45.0698348229233972
 51
138.9144476288315104
  0
ARC
  5
7DFF
  8
0
 10
4147.9857824465952945
 20
150.8687087551074058
 30
0.0
 40
0.0358395659310882
 50
155.4521251642730135
 51
228.2467987507941984
  0
LINE
  5
7E00
  8
0
 10
4147.9538784065807704
 20
150.8843898270548038
 30
0.0
 11
4147.9619160428255782
 21
150.8419717160554967
 31
0.0
  0
LINE
  5
7E01
  8
0
 10
4148.1312986007478685
 20
150.8852938009322884
 30
0.0
 11
4148.1235718920261206
 21
150.8484766767556096
 31
0.0
  0
ARC
  5
7E02
  8
0
 10
4148.0433566406663886
 20
150.8271823581465867
 30
0.0
 40
0.0237188866283004
 50
53.6383053060023229
 51
130.1068032154406922
  0
ARC
  5
7E03
  8
0
 10
4148.0312976633958897
 20
150.8414994033659013
 30
0.0
 40
0.005
 50
130.1068032154406922
 51
225.7950731803265967
  0
ARC
  5
7E04
  8
0
 10
4148.0544547061363119
 20
150.8422564969081918
 30
0.0
 40
0.005
 50
317.9500353411117999
 51
53.6383053060042485
  0
ARC
  5
7E05
  8
0
 10
4148.0425116144006097
 20
150.8530289784629872
 30
0.0
 40
0.0210836500539991
 50
225.7950731803265967
 51
317.9500353411117999
  0
ARC
  5
7E06
  8
0
 10
4148.1049137272193548
 20
151.0362824366386008
 30
0.0
 40
0.0262823379935567
 50
317.4609214232938257
 51
45.9648499753966178
  0
ARC
  5
7E07
  8
0
 10
4148.0583539143153757
 20
151.0934228188621944
 30
0.0
 40
0.0997876530691234
 50
239.1384821228579085
 51
311.3497374130549815
  0
ARC
  5
7E08
  8
0
 10
4148.0205291891379602
 20
151.0328698863762042
 30
0.0
 40
0.0284405328727562
 50
144.007095247556606
 51
241.9753336716188983
  0
ARC
  5
7E09
  8
0
 10
4148.0636125566979899
 20
150.9790887493007858
 30
0.0
 40
0.0966334993067387
 50
51.9424252890696394
 51
133.1545738693000942
  0
ARC
  5
7E0A
  8
0
 10
4148.0266419317649706
 20
151.0473489757958134
 30
0.0
 40
0.0476957477653339
 50
195.1715824891496993
 51
241.2430074182194915
  0
ARC
  5
7E0B
  8
0
 10
4148.0583032939439363
 20
151.1050433198967937
 30
0.0
 40
0.1135066829985698
 50
241.2430074182194915
 51
308.7212985339342026
  0
ARC
  5
7E0C
  8
0
 10
4148.0993318437804191
 20
151.047911009842494
 30
0.0
 40
0.0434277584956983
 50
313.6454971796603104
 51
351.3391927370701069
  0
ARC
  5
7E0D
  8
0
 10
4148.1186052494585965
 20
151.0655560924159886
 30
0.0
 40
0.0338327062025688
 50
314.370727789938428
 51
30.2758385766700187
  0
ARC
  5
7E0E
  8
0
 10
4148.0627104215291183
 20
150.9972925431715112
 30
0.0
 40
0.1205149823503475
 50
45.0698348229233972
 51
138.9144476288315104
  0
ARC
  5
7E0F
  8
0
 10
4148.0044749555127055
 20
151.0616035359759053
 30
0.0
 40
0.0358395659310882
 50
155.4521251642730135
 51
228.2467987507941984
  0
LINE
  5
7E10
  8
0
 10
4147.9725709154990909
 20
151.0772846079233034
 30
0.0
 11
4147.9806085517438987
 21
151.0348664969241099
 31
0.0
  0
LINE
  5
7E11
  8
0
 10
4148.1499911096670985
 20
151.0781885818009016
 30
0.0
 11
4148.1422644009444411
 21
151.0413714576241091
 31
0.0
  0
ARC
  5
7E12
  8
0
 10
4148.0620491495847091
 20
151.0200771390150862
 30
0.0
 40
0.0237188866283004
 50
53.6383053060023229
 51
130.1068032154406922
  0
ARC
  5
7E13
  8
0
 10
4148.0499901723151197
 20
151.0343941842344009
 30
0.0
 40
0.005
 50
130.1068032154406922
 51
225.7950731803265967
  0
ARC
  5
7E14
  8
0
 10
4148.0731472150564514
 20
151.0351512777766914
 30
0.0
 40
0.005
 50
317.9500353411117999
 51
53.6383053060042485
  0
ARC
  5
7E15
  8
0
 10
4148.0612041233198397
 20
151.0459237593314867
 30
0.0
 40
0.0210836500539991
 50
225.7950731803265967
 51
317.9500353411117999
  0
ARC
  5
7E16
  8
0
 10
4147.8354245134260054
 20
151.0186146229505084
 30
0.0
 40
0.0262823379935567
 50
317.4609214232938257
 51
45.9648499753966178
  0
ARC
  5
7E17
  8
0
 10
4147.7888647005220264
 20
151.0757550051741873
 30
0.0
 40
0.0997876530691234
 50
239.1384821228579085
 51
311.3497374130549815
  0
ARC
  5
7E18
  8
0
 10
4147.7510399753464299
 20
151.0152020726881972
 30
0.0
 40
0.0284405328727562
 50
144.007095247556606
 51
241.9753336716188983
  0
ARC
  5
7E19
  8
0
 10
4147.7941233429055501
 20
150.9614209356128072
 30
0.0
 40
0.0966334993067387
 50
51.9424252890696394
 51
133.1545738693000942
  0
ARC
  5
7E1A
  8
0
 10
4147.7571527179716213
 20
151.0296811621078064
 30
0.0
 40
0.0476957477653339
 50
195.1715824891496993
 51
241.2430074182194915
  0
ARC
  5
7E1B
  8
0
 10
4147.788814080150587
 20
151.0873755062087866
 30
0.0
 40
0.1135066829985698
 50
241.2430074182194915
 51
308.7212985339342026
  0
ARC
  5
7E1C
  8
0
 10
4147.8298426299870698
 20
151.0302431961544869
 30
0.0
 40
0.0434277584956983
 50
313.6454971796603104
 51
351.3391927370701069
  0
ARC
  5
7E1D
  8
0
 10
4147.8491160356670662
 20
151.0478882787280099
 30
0.0
 40
0.0338327062025688
 50
314.370727789938428
 51
30.2758385766700187
  0
ARC
  5
7E1E
  8
0
 10
4147.793221207737588
 20
150.9796247294835041
 30
0.0
 40
0.1205149823503475
 50
45.0698348229233972
 51
138.9144476288315104
  0
ARC
  5
7E1F
  8
0
 10
4147.7349857417202657
 20
151.0439357222878982
 30
0.0
 40
0.0358395659310882
 50
155.4521251642730135
 51
228.2467987507941984
  0
LINE
  5
7E20
  8
0
 10
4147.7030817017057416
 20
151.0596167942352963
 30
0.0
 11
4147.7111193379523684
 21
151.0171986832361029
 31
0.0
  0
LINE
  5
7E21
  8
0
 10
4147.8805018958737492
 20
151.0605207681128093
 30
0.0
 11
4147.8727751871520013
 21
151.0237036439359883
 31
0.0
  0
ARC
  5
7E22
  8
0
 10
4147.7925599357922692
 20
151.0024093253271076
 30
0.0
 40
0.0237188866283004
 50
53.6383053060023229
 51
130.1068032154406922
  0
ARC
  5
7E23
  8
0
 10
4147.7805009585217704
 20
151.0167263705463938
 30
0.0
 40
0.005
 50
130.1068032154406922
 51
225.7950731803265967
  0
ARC
  5
7E24
  8
0
 10
4147.8036580012631021
 20
151.0174834640887127
 30
0.0
 40
0.005
 50
317.9500353411117999
 51
53.6383053060042485
  0
ARC
  5
7E25
  8
0
 10
4147.7917149095273999
 20
151.0282559456435081
 30
0.0
 40
0.0210836500539991
 50
225.7950731803265967
 51
317.9500353411117999
  0
ARC
  5
7E26
  8
0
 10
4147.9796829495562633
 20
150.052522646836195
 30
0.0
 40
0.1927421565859276
 50
54.8700725613074667
 51
115.5524379854450956
  0
ARC
  5
7E27
  8
0
 10
4147.95732909607068
 20
150.0992783024055086
 30
0.0
 40
0.1409175862223613
 50
115.5524379854450956
 51
145.374335289534713
  0
ARC
  5
7E28
  8
0
 10
4147.898821559040698
 20
150.1494184733211057
 30
0.0
 40
0.0647802353497898
 50
152.4812873721485005
 51
226.4138231943776987
  0
ARC
  5
7E29
  8
0
 10
4147.9655434683209023
 20
150.225339670542013
 30
0.0
 40
0.1658225298535404
 50
227.8009800110714025
 51
274.4597643447021937
  0
ARC
  5
7E2A
  8
0
 10
4147.9747387009329032
 20
150.250768208170399
 30
0.0
 40
0.1907848489371033
 50
271.1109274673535765
 51
304.0604701099632052
  0
ARC
  5
7E2B
  8
0
 10
4148.048571498061392
 20
150.1543108006214027
 30
0.0
 40
0.0698897212901058
 50
298.1936435480831733
 51
53.0401543885661226
  0
ARC
  5
7E2C
  8
0
 10
4147.9803802064943739
 20
150.0765128203343011
 30
0.0
 40
0.0794943820092316
 50
57.0312957822691473
 51
136.4072510697909877
  0
ARC
  5
7E2D
  8
0
 10
4147.9473589318058657
 20
150.1167994035509139
 30
0.0
 40
0.0285288708713396
 50
149.3891881710783025
 51
227.3472045268837007
  0
ARC
  5
7E2E
  8
0
 10
4147.9750262638308413
 20
150.1583307957700129
 30
0.0
 40
0.0782092468540521
 50
233.064476211466598
 51
319.0459308395728044
  0
ARC
  5
7E2F
  8
0
 10
4148.0094813840059942
 20
150.1195299900545876
 30
0.0
 40
0.0275863953504439
 50
333.1449391902381194
 51
59.1208344035198365
  0
ARC
  5
7E30
  8
0
 10
4147.9509791363261684
 20
150.1293663154822013
 30
0.0
 40
0.0456316546509115
 50
196.390567711992901
 51
241.2364687975995139
  0
ARC
  5
7E31
  8
0
 10
4147.9742721653574336
 20
150.1718001334976123
 30
0.0
 40
0.0940382049602132
 50
241.2364687975999118
 51
314.0115017368369195
  0
ARC
  5
7E32
  8
0
 10
4148.0066767889793482
 20
150.1304022889246994
 30
0.0
 40
0.0421052808182292
 50
321.459456816737486
 51
349.2894509046665803
  0
ARC
  5
7E33
  8
0
 10
4147.9319274893787224
 20
150.1433560652720018
 30
0.0
 40
0.0365123079731247
 50
151.0319501878379072
 51
227.3760049472583944
  0
ARC
  5
7E34
  8
0
 10
4147.9779165091085815
 20
150.0953216980616958
 30
0.0
 40
0.1019434152692049
 50
41.6911502351109604
 51
139.8603758370572052
  0
ARC
  5
7E35
  8
0
 10
4148.0259434083418455
 20
150.1465616264576113
 30
0.0
 40
0.0326173716327942
 50
312.6649749599417873
 51
30.5195758843085585
  0
LINE
  5
7E36
  8
0
 10
4147.8971409562518602
 20
150.1544486639980107
 30
0.0
 11
4147.9072019319573883
 21
150.1164898142550044
 31
0.0
  0
LINE
  5
7E37
  8
0
 10
4148.0480485366706489
 20
150.122577126592887
 30
0.0
 11
4148.0544237416197575
 21
150.162460165654295
 31
0.0
  0
ARC
  5
7E38
  8
0
 10
4147.9786593614953745
 20
150.103704986396707
 30
0.0
 40
0.0237188866283004
 50
53.6383053060023229
 51
130.1068032154406922
  0
ARC
  5
7E39
  8
0
 10
4147.9666003842257851
 20
150.1180220316159932
 30
0.0
 40
0.005
 50
130.1068032154406922
 51
225.7950731803265967
  0
ARC
  5
7E3A
  8
0
 10
4147.9897574269662073
 20
150.1187791251583121
 30
0.0
 40
0.005
 50
317.9500353411117999
 51
53.6383053060042485
  0
ARC
  5
7E3B
  8
0
 10
4147.9778143352295956
 20
150.1295516067131075
 30
0.0
 40
0.0210836500539991
 50
225.7950731803265967
 51
317.9500353411117999
  0
ARC
  5
7E3C
  8
0
 10
4148.4929599777842668
 20
150.4095503533256988
 30
0.0
 40
0.1927421565859276
 50
54.8700725613074667
 51
115.5524379854450956
  0
ARC
  5
7E3D
  8
0
 10
4148.4706061242977739
 20
150.4563060088950124
 30
0.0
 40
0.1409175862223613
 50
115.5524379854450956
 51
145.374335289534713
  0
ARC
  5
7E3E
  8
0
 10
4148.412098587269611
 20
150.5064461798106095
 30
0.0
 40
0.0647802353497898
 50
152.4812873721485005
 51
226.4138231943776987
  0
ARC
  5
7E3F
  8
0
 10
4148.4788204965479963
 20
150.5823673770314883
 30
0.0
 40
0.1658225298535404
 50
227.8009800110714025
 51
274.4597643447021937
  0
ARC
  5
7E40
  8
0
 10
4148.4880157291618161
 20
150.6077959146597891
 30
0.0
 40
0.1907848489371033
 50
271.1109274673535765
 51
304.0604701099632052
  0
ARC
  5
7E41
  8
0
 10
4148.561848526290305
 20
150.5113385071109064
 30
0.0
 40
0.0698897212901058
 50
298.1936435480831733
 51
53.0401543885661226
  0
ARC
  5
7E42
  8
0
 10
4148.4936572347223773
 20
150.4335405268238048
 30
0.0
 40
0.0794943820092316
 50
57.0312957822691473
 51
136.4072510697909877
  0
ARC
  5
7E43
  8
0
 10
4148.4606359600338692
 20
150.4738271100403892
 30
0.0
 40
0.0285288708713396
 50
149.3891881710783025
 51
227.3472045268837007
  0
ARC
  5
7E44
  8
0
 10
4148.4883032920597543
 20
150.5153585022594882
 30
0.0
 40
0.0782092468540521
 50
233.064476211466598
 51
319.0459308395728044
  0
ARC
  5
7E45
  8
0
 10
4148.5227584122339977
 20
150.4765576965440914
 30
0.0
 40
0.0275863953504439
 50
333.1449391902386878
 51
59.1208344035198365
  0
ARC
  5
7E46
  8
0
 10
4148.4642561645541718
 20
150.4863940219717051
 30
0.0
 40
0.0456316546509115
 50
196.390567711992901
 51
241.2364687975995139
  0
ARC
  5
7E47
  8
0
 10
4148.4875491935863465
 20
150.5288278399870876
 30
0.0
 40
0.0940382049602132
 50
241.2364687975999118
 51
314.0115017368369195
  0
ARC
  5
7E48
  8
0
 10
4148.5199538172064422
 20
150.4874299954142884
 30
0.0
 40
0.0421052808182292
 50
321.459456816737486
 51
349.2894509046665803
  0
ARC
  5
7E49
  8
0
 10
4148.4452045176067259
 20
150.5003837717615056
 30
0.0
 40
0.0365123079731247
 50
151.0319501878379072
 51
227.3760049472583944
  0
ARC
  5
7E4A
  8
0
 10
4148.491193537338404
 20
150.4523494045511995
 30
0.0
 40
0.1019434152692049
 50
41.6911502351109604
 51
139.8603758370572052
  0
ARC
  5
7E4B
  8
0
 10
4148.539220436569849
 20
150.5035893329472003
 30
0.0
 40
0.0326173716327942
 50
312.6649749599417873
 51
30.5195758843085585
  0
LINE
  5
7E4C
  8
0
 10
4148.4104179844798637
 20
150.5114763704874861
 30
0.0
 11
4148.4204789601853918
 21
150.4735175207445081
 31
0.0
  0
LINE
  5
7E4D
  8
0
 10
4148.5613255649013809
 20
150.4796048330823908
 30
0.0
 11
4148.567700769847761
 21
150.5194878721439125
 31
0.0
  0
ARC
  5
7E4E
  8
0
 10
4148.4919363897233779
 20
150.4607326928862108
 30
0.0
 40
0.0237188866283004
 50
53.6383053060023229
 51
130.1068032154406922
  0
ARC
  5
7E4F
  8
0
 10
4148.4798774124537886
 20
150.475049738105497
 30
0.0
 40
0.005
 50
130.1068032154406922
 51
225.7950731803265967
  0
ARC
  5
7E50
  8
0
 10
4148.5030344551942108
 20
150.4758068316477875
 30
0.0
 40
0.005
 50
317.9500353411117999
 51
53.6383053060042485
  0
ARC
  5
7E51
  8
0
 10
4148.4910913634575991
 20
150.4865793132026113
 30
0.0
 40
0.0210836500539991
 50
225.7950731803265967
 51
317.9500353411117999
  0
ARC
  5
7E52
  8
0
 10
4148.4933485305346039
 20
150.9154871419895017
 30
0.0
 40
0.1927421565859276
 50
54.8700725613074667
 51
115.5524379854450956
  0
ARC
  5
7E53
  8
0
 10
4148.47099467704993
 20
150.9622427975587868
 30
0.0
 40
0.1409175862223613
 50
115.5524379854450956
 51
145.374335289534713
  0
ARC
  5
7E54
  8
0
 10
4148.4124871400208576
 20
151.0123829684744976
 30
0.0
 40
0.0647802353497898
 50
152.4812873721485005
 51
226.4138231943776987
  0
ARC
  5
7E55
  8
0
 10
4148.4792090493001524
 20
151.0883041656952912
 30
0.0
 40
0.1658225298535404
 50
227.8009800110714025
 51
274.4597643447021937
  0
ARC
  5
7E56
  8
0
 10
4148.4884042819130627
 20
151.1137327033237057
 30
0.0
 40
0.1907848489371033
 50
271.1109274673535765
 51
304.0604701099632052
  0
ARC
  5
7E57
  8
0
 10
4148.5622370790397326
 20
151.0172752957747093
 30
0.0
 40
0.0698897212901058
 50
298.1936435480831733
 51
53.0401543885661226
  0
ARC
  5
7E58
  8
0
 10
4148.4940457874727144
 20
150.9394773154876077
 30
0.0
 40
0.0794943820092316
 50
57.0312957822691473
 51
136.4072510697909877
  0
ARC
  5
7E59
  8
0
 10
4148.4610245127860253
 20
150.9797638987041921
 30
0.0
 40
0.0285288708713396
 50
149.3891881710783025
 51
227.3472045268837007
  0
ARC
  5
7E5A
  8
0
 10
4148.4886918448110009
 20
151.0212952909234048
 30
0.0
 40
0.0782092468540521
 50
233.064476211466598
 51
319.0459308395728044
  0
ARC
  5
7E5B
  8
0
 10
4148.5231469649852443
 20
150.982494485208008
 30
0.0
 40
0.0275863953504439
 50
333.1449391902386878
 51
59.1208344035198365
  0
ARC
  5
7E5C
  8
0
 10
4148.4646447173054185
 20
150.9923308106355933
 30
0.0
 40
0.0456316546509115
 50
196.390567711992901
 51
241.2364687975995139
  0
ARC
  5
7E5D
  8
0
 10
4148.4879377463366836
 20
151.0347646286508905
 30
0.0
 40
0.0940382049602132
 50
241.2364687975999118
 51
314.0115017368369195
  0
ARC
  5
7E5E
  8
0
 10
4148.5203423699576888
 20
150.9933667840780913
 30
0.0
 40
0.0421052808182292
 50
321.459456816737486
 51
349.2894509046665803
  0
ARC
  5
7E5F
  8
0
 10
4148.4455930703579725
 20
151.0063205604253938
 30
0.0
 40
0.0365123079731247
 50
151.0319501878379072
 51
227.3760049472583944
  0
ARC
  5
7E60
  8
0
 10
4148.4915820900887411
 20
150.9582861932150877
 30
0.0
 40
0.1019434152692049
 50
41.6911502351109604
 51
139.8603758370572052
  0
ARC
  5
7E61
  8
0
 10
4148.5396089893220051
 20
151.0095261216110032
 30
0.0
 40
0.0326173716327942
 50
312.6649749599417873
 51
30.5195758843085585
  0
LINE
  5
7E62
  8
0
 10
4148.4108065372302008
 20
151.0174131591512889
 30
0.0
 11
4148.4208675129357289
 21
150.979454309408311
 31
0.0
  0
LINE
  5
7E63
  8
0
 10
4148.561714117651718
 20
150.9855416217463073
 30
0.0
 11
4148.5680893225999171
 21
151.0254246608076869
 31
0.0
  0
ARC
  5
7E64
  8
0
 10
4148.4923249424737151
 20
150.9666694815500136
 30
0.0
 40
0.0237188866283004
 50
53.6383053060023229
 51
130.1068032154406922
  0
ARC
  5
7E65
  8
0
 10
4148.4802659652050352
 20
150.9809865267692999
 30
0.0
 40
0.005
 50
130.1068032154406922
 51
225.7950731803265967
  0
ARC
  5
7E66
  8
0
 10
4148.5034230079445479
 20
150.9817436203115903
 30
0.0
 40
0.005
 50
317.9500353411117999
 51
53.6383053060042485
  0
ARC
  5
7E67
  8
0
 10
4148.4914799162088457
 20
150.9925161018664994
 30
0.0
 40
0.0210836500539991
 50
225.7950731803265967
 51
317.9500353411117999
  0
ARC
  5
7E68
  8
0
 10
4147.9794900516581038
 20
151.272140569105801
 30
0.0
 40
0.1927421565859276
 50
54.8700725613074667
 51
115.5524379854450956
  0
ARC
  5
7E69
  8
0
 10
4147.9571361981716109
 20
151.3188962246750862
 30
0.0
 40
0.1409175862223613
 50
115.5524379854450956
 51
145.374335289534713
  0
ARC
  5
7E6A
  8
0
 10
4147.8986286611443575
 20
151.369036395590598
 30
0.0
 40
0.0647802353497898
 50
152.4812873721485005
 51
226.4138231943776987
  0
ARC
  5
7E6B
  8
0
 10
4147.9653505704218333
 20
151.4449575928115053
 30
0.0
 40
0.1658225298535404
 50
227.8009800110714025
 51
274.4597643447021937
  0
ARC
  5
7E6C
  8
0
 10
4147.9745458030347436
 20
151.4703861304398913
 30
0.0
 40
0.1907848489371033
 50
271.1109274673535765
 51
304.0604701099632052
  0
ARC
  5
7E6D
  8
0
 10
4148.0483786001632325
 20
151.373928722890895
 30
0.0
 40
0.0698897212901058
 50
298.1936435480831733
 51
53.0401543885661226
  0
ARC
  5
7E6E
  8
0
 10
4147.9801873085962143
 20
151.2961307426037934
 30
0.0
 40
0.0794943820092316
 50
57.0312957822691473
 51
136.4072510697909877
  0
ARC
  5
7E6F
  8
0
 10
4147.9471660339067967
 20
151.3364173258204062
 30
0.0
 40
0.0285288708713396
 50
149.3891881710783025
 51
227.3472045268837007
  0
ARC
  5
7E70
  8
0
 10
4147.9748333659335913
 20
151.3779487180395051
 30
0.0
 40
0.0782092468540521
 50
233.064476211466598
 51
319.0459308395728044
  0
ARC
  5
7E71
  8
0
 10
4148.0092884861069251
 20
151.3391479123241936
 30
0.0
 40
0.0275863953504439
 50
333.1449391902386878
 51
59.1208344035198365
  0
ARC
  5
7E72
  8
0
 10
4147.9507862384270993
 20
151.3489842377518073
 30
0.0
 40
0.0456316546509115
 50
196.390567711992901
 51
241.2364687975995139
  0
ARC
  5
7E73
  8
0
 10
4147.9740792674583645
 20
151.3914180557671045
 30
0.0
 40
0.0940382049602132
 50
241.2364687975999118
 51
314.0115017368369195
  0
ARC
  5
7E74
  8
0
 10
4148.0064838910802791
 20
151.3500202111943054
 30
0.0
 40
0.0421052808182292
 50
321.459456816737486
 51
349.2894509046665803
  0
ARC
  5
7E75
  8
0
 10
4147.9317345914796533
 20
151.3629739875416078
 30
0.0
 40
0.0365123079731247
 50
151.0319501878379072
 51
227.3760049472583944
  0
ARC
  5
7E76
  8
0
 10
4147.9777236112113314
 20
151.3149396203311881
 30
0.0
 40
0.1019434152692049
 50
41.6911502351109604
 51
139.8603758370572052
  0
ARC
  5
7E77
  8
0
 10
4148.0257505104436859
 20
151.3661795487271888
 30
0.0
 40
0.0326173716327942
 50
312.6649749599417873
 51
30.5195758843085585
  0
LINE
  5
7E78
  8
0
 10
4147.8969480583518816
 20
151.374066586267503
 30
0.0
 11
4147.9070090340592287
 21
151.3361077365244967
 31
0.0
  0
LINE
  5
7E79
  8
0
 10
4148.0478556387743083
 20
151.342195048862493
 30
0.0
 11
4148.0542308437215979
 21
151.382078087923901
 31
0.0
  0
ARC
  5
7E7A
  8
0
 10
4147.9784664635972149
 20
151.3233229086661993
 30
0.0
 40
0.0237188866283004
 50
53.6383053060023229
 51
130.1068032154406922
  0
ARC
  5
7E7B
  8
0
 10
4147.9664074863276255
 20
151.3376399538855139
 30
0.0
 40
0.005
 50
130.1068032154406922
 51
225.7950731803265967
  0
ARC
  5
7E7C
  8
0
 10
4147.9895645290680477
 20
151.3383970474278044
 30
0.0
 40
0.005
 50
317.9500353411117999
 51
53.6383053060042485
  0
ARC
  5
7E7D
  8
0
 10
4147.9776214373323455
 20
151.3491695289825998
 30
0.0
 40
0.0210836500539991
 50
225.7950731803265967
 51
317.9500353411117999
  0
ARC
  5
7E7E
  8
0
 10
4148.234695848436786
 20
143.9403188289711011
 30
0.0
 40
0.0788
 50
269.9832711377529222
 51
356.9228278187225101
  0
LINE
  5
7E7F
  8
0
 10
4149.878015220276211
 20
151.1120850753194986
 30
0.0
 11
4149.878015220276211
 21
151.5942532297790137
 31
0.0
  0
LINE
  5
7E80
  8
0
 10
4148.0267671684387096
 20
143.5780034328766988
 30
0.0
 11
4148.0014278535063568
 21
143.5631438343716013
 31
0.0
  0
ARC
  5
7E81
  8
0
 10
4148.004260665478796
 20
143.5583131846925085
 30
0.0
 40
0.0056
 50
120.3884099774273011
 51
239.9376004851081063
  0
LINE
  5
7E82
  8
0
 10
4148.0014553853980033
 20
143.553466494722386
 30
0.0
 11
4148.0087087011779658
 21
143.5492682517144942
 31
0.0
  0
LINE
  5
7E83
  8
0
 10
4147.9666293731388578
 20
143.5071889236766935
 30
0.0
 11
4148.0087087011779658
 21
143.5492682517144942
 31
0.0
  0
LINE
  5
7E84
  8
0
 10
4147.2017671684388915
 20
143.8039022379824985
 30
0.0
 11
4147.4075308734391001
 21
143.8119316867673092
 31
0.0
  0
LINE
  5
7E85
  8
0
 10
4147.821003476403348
 20
143.8280664909561892
 30
0.0
 11
4148.0267671684387096
 21
143.8360959392350935
 31
0.0
  0
LINE
  5
7E86
  8
0
 10
4147.2272900068901436
 20
143.7891425638484009
 30
0.0
 11
4147.4714511332422262
 21
143.7992987838275951
 31
0.0
  0
LINE
  5
7E87
  8
0
 10
4147.7453381777304458
 20
143.8106914945134918
 30
0.0
 11
4148.0012443299901861
 21
143.8213362651009106
 31
0.0
  0
LINE
  5
7E88
  8
0
 10
4148.0012443325949789
 20
143.8116407385766991
 30
0.0
 11
4147.7630812714369313
 21
143.8017340164875009
 31
0.0
  0
LINE
  5
7E89
  8
0
 10
4147.4724110592587749
 20
143.7896431867943079
 30
0.0
 11
4147.2272900042853507
 21
143.779447037324104
 31
0.0
  0
LINE
  5
7E8A
  8
0
 10
4147.2017671684388915
 20
143.7646873829970957
 30
0.0
 11
4147.4075308734391001
 21
143.7727168317817927
 31
0.0
  0
LINE
  5
7E8B
  8
0
 10
4147.821003476403348
 20
143.7888516359707864
 30
0.0
 11
4148.0267671684387096
 21
143.7968810842496907
 31
0.0
  0
LINE
  5
7E8C
  8
0
 10
4148.0267671684387096
 20
143.7714587014874041
 30
0.0
 11
4147.821003476403348
 21
143.7634292532086135
 31
0.0
  0
LINE
  5
7E8D
  8
0
 10
4147.4075308734391001
 20
143.7472944490195914
 30
0.0
 11
4147.2017671684388915
 21
143.7392650002348944
 31
0.0
  0
LINE
  5
7E8E
  8
0
 10
4147.2272225371780223
 20
143.7245472520781959
 30
0.0
 11
4147.4748964761438401
 21
143.7348477964534936
 31
0.0
  0
LINE
  5
7E8F
  8
0
 10
4147.7500321595625792
 20
143.7462904509698944
 30
0.0
 11
4148.0013117997023073
 21
143.7567409533307057
 31
0.0
  0
LINE
  5
7E90
  8
0
 10
4148.0013117830358169
 20
143.7470449578410125
 30
0.0
 11
4147.7619817124586916
 21
143.7370914272887887
 31
0.0
  0
LINE
  5
7E91
  8
0
 10
4147.4668000317160477
 20
143.724815076596002
 30
0.0
 11
4147.2272225538436032
 21
143.7148512565883891
 31
0.0
  0
LINE
  5
7E92
  8
0
 10
4147.2017671684388915
 20
143.7001333820346076
 30
0.0
 11
4147.4075308734391001
 21
143.7081628308193046
 31
0.0
  0
LINE
  5
7E93
  8
0
 10
4147.821003476403348
 20
143.7242976350082131
 30
0.0
 11
4148.0267671684387096
 21
143.732327083287089
 31
0.0
  0
LINE
  5
7E94
  8
0
 10
4148.0267671684387096
 20
143.7068261391970907
 30
0.0
 11
4147.821003476403348
 21
143.6987966909181864
 31
0.0
  0
LINE
  5
7E95
  8
0
 10
4147.4075308734391001
 20
143.6826618867291927
 30
0.0
 11
4147.2017671684388915
 21
143.6746324379444957
 31
0.0
  0
LINE
  5
7E96
  8
0
 10
4147.2270736128102726
 20
143.660006820720497
 30
0.0
 11
4147.4771300446245732
 21
143.6704024509486999
 31
0.0
  0
LINE
  5
7E97
  8
0
 10
4147.7515000258290456
 20
143.6818088716898956
 30
0.0
 11
4148.0014607240691475
 21
143.692200521973092
 31
0.0
  0
LINE
  5
7E98
  8
0
 10
4148.0014606747554353
 20
143.6825035449236907
 30
0.0
 11
4147.7609776923181926
 21
143.6725059117420926
 31
0.0
  0
LINE
  5
7E99
  8
0
 10
4147.4743226063337715
 20
143.6605887591423993
 30
0.0
 11
4147.2270736621248943
 21
143.6503098436710957
 31
0.0
  0
LINE
  5
7E9A
  8
0
 10
4147.2017671684388915
 20
143.6356838545781045
 30
0.0
 11
4147.4075308734391001
 21
143.6437133033628015
 31
0.0
  0
LINE
  5
7E9B
  8
0
 10
4147.821003476403348
 20
143.6598481075517952
 30
0.0
 11
4148.0267671684387096
 21
143.6678775558306995
 31
0.0
  0
LINE
  5
7E9C
  8
0
 10
4148.0267671684387096
 20
143.6422594041648892
 30
0.0
 11
4147.821003476403348
 21
143.6342299558860987
 31
0.0
  0
LINE
  5
7E9D
  8
0
 10
4147.4075308734391001
 20
143.6180951516971049
 30
0.0
 11
4147.2017671684388915
 21
143.6100657029124079
 31
0.0
  0
LINE
  5
7E9E
  8
0
 10
4147.2270801177874091
 20
143.5954356949511066
 30
0.0
 11
4147.4739904636990104
 21
143.6057007049753906
 31
0.0
  0
LINE
  5
7E9F
  8
0
 10
4147.756669940377833
 20
143.6174527749465994
 30
0.0
 11
4148.0014542190929205
 21
143.6276293962037016
 31
0.0
  0
LINE
  5
7EA0
  8
0
 10
4148.0014567039679605
 20
143.6179310600965948
 30
0.0
 11
4147.7592934881413385
 21
143.6078634710875122
 31
0.0
  0
LINE
  5
7EA1
  8
0
 10
4147.473645141221823
 20
143.5959880500078043
 30
0.0
 11
4147.2270776329105502
 21
143.5857373588439998
 31
0.0
  0
LINE
  5
7EA2
  8
0
 10
4147.2017671684388915
 20
143.571126084383593
 30
0.0
 11
4147.4075308734391001
 21
143.5791555331684037
 31
0.0
  0
LINE
  5
7EA3
  8
0
 10
4147.821003476403348
 20
143.5952903373573974
 30
0.0
 11
4148.0267671684387096
 21
143.603319785636188
 31
0.0
  0
LINE
  5
7EA4
  8
0
 10
4148.0267671684387096
 20
143.5780034328766988
 30
0.0
 11
4147.821003476403348
 21
143.5703211933297894
 31
0.0
  0
LINE
  5
7EA5
  8
0
 10
4147.4075308734391001
 20
143.5548840889962037
 30
0.0
 11
4147.2211677141640394
 21
143.5479261732525913
 31
0.0
  0
LINE
  5
7EA6
  8
0
 10
4148.0014278535063568
 20
143.5631438343716013
 30
0.0
 11
4147.769628290194305
 21
143.553315564350612
 31
0.0
  0
LINE
  5
7EA7
  8
0
 10
4147.4633893905001969
 20
143.5403310765709932
 30
0.0
 11
4147.2383063031948041
 21
143.5307875842210876
 31
0.0
  0
LINE
  5
7EA8
  8
0
 10
4148.0014553853980033
 20
143.553466494722386
 30
0.0
 11
4147.821003476403348
 21
143.5461181764974015
 31
0.0
  0
LINE
  5
7EA9
  8
0
 10
4147.4075308734391001
 20
143.5292808469239105
 30
0.0
 11
4147.2463755672088155
 21
143.5227183202073036
 31
0.0
  0
LINE
  5
7EAA
  8
0
 10
4147.2017671684388915
 20
143.8293437900657068
 30
0.0
 11
4147.4075308734391001
 21
143.8349665052512023
 31
0.0
  0
LINE
  5
7EAB
  8
0
 10
4147.821003476403348
 20
143.8462650901182087
 30
0.0
 11
4148.0267671684387096
 21
143.8518878049495129
 31
0.0
  0
LINE
  5
7EAC
  8
0
 10
4147.2271815409758347
 20
143.844036065253988
 30
0.0
 11
4147.4075308734391001
 21
143.848128690571599
 31
0.0
  0
LINE
  5
7EAD
  8
0
 10
4147.821003476403348
 20
143.857511527868013
 30
0.0
 11
4147.9975928347839726
 21
143.8615188289711
 31
0.0
  0
LINE
  5
7EAE
  8
0
 10
4147.227181623055003
 20
143.8537323155146908
 30
0.0
 11
4147.4075308734391001
 21
143.8613612040946919
 31
0.0
  0
ARC
  5
7EAF
  8
0
 10
4147.7119755490220996
 20
143.8135993784557058
 30
0.0
 40
0.2665923900821872
 50
278.8936015505748856
 51
294.1402256340488179
  0
ARC
  5
7EB0
  8
0
 10
4147.7536545475977618
 20
143.5472482608159908
 30
0.0
 40
0.003
 50
98.8936015505750419
 51
269.6403700761787263
  0
ARC
  5
7EB1
  8
0
 10
4147.7598529657716426
 20
144.5347593481295974
 30
0.0
 40
0.9905305402645525
 50
269.6403700761266009
 51
273.539411860541918
  0
ARC
  5
7EB2
  8
0
 10
4147.9293849621453774
 20
143.0868970589272919
 30
0.0
 40
0.5579604345693389
 50
101.2006702480014013
 51
108.8094385799299033
  0
ARC
  5
7EB3
  8
0
 10
4147.7504537106624412
 20
143.6122204747200897
 30
0.0
 40
0.003
 50
108.8094385799299033
 51
261.8724031327741955
  0
ARC
  5
7EB4
  8
0
 10
4147.6523359284810795
 20
142.9251814041606963
 30
0.0
 40
0.6910099305161632
 50
75.8720292018510065
 51
81.8724031327740818
  0
ARC
  5
7EB5
  8
0
 10
4148.0878526484748363
 20
142.456341977921511
 30
0.0
 40
1.2707880210654261
 50
102.121599999904106
 51
105.5527779910817969
  0
ARC
  5
7EB6
  8
0
 10
4147.7479258310140722
 20
143.6777085179608093
 30
0.0
 40
0.003
 50
105.5527779910809016
 51
261.052185877697525
  0
ARC
  5
7EB7
  8
0
 10
4147.613833656895622
 20
142.826064197240612
 30
0.0
 40
0.8591361610411796
 50
76.0463224447167647
 51
81.0521858776975535
  0
ARC
  5
7EB8
  8
0
 10
4147.8613310369883038
 20
143.4409193612800095
 30
0.0
 40
0.3250214493452492
 50
97.1274344841670256
 51
110.337019308317096
  0
ARC
  5
7EB9
  8
0
 10
4147.7494152009576283
 20
143.742867468550287
 30
0.0
 40
0.003
 50
110.3370193083164992
 51
257.8558548686842187
  0
ARC
  5
7EBA
  8
0
 10
4141.6459303352648931
 20
115.3792943356703944
 30
0.0
 40
29.00983868169358
 50
77.7099129902667016
 51
77.8558548686313827
  0
ARC
  5
7EBB
  8
0
 10
4147.9928216611579046
 20
142.9063835264738884
 30
0.0
 40
0.9375611850057723
 50
100.5597483671849943
 51
105.3290985602703955
  0
ARC
  5
7EBC
  8
0
 10
4147.6301620721369545
 20
143.0674410128424938
 30
0.0
 40
0.7462263254166281
 50
75.1824441118298097
 51
81.1245206171180087
  0
ARC
  5
7EBD
  8
0
 10
4147.7457583733257707
 20
143.8076960917501879
 30
0.0
 40
0.003
 50
105.3290985602707934
 51
261.1245206171179802
  0
ARC
  5
7EBE
  8
0
 10
4147.8401392155983558
 20
144.0625569744354948
 30
0.0
 40
0.2171367212980304
 50
247.7983535529070025
 51
264.9441013007057109
  0
ARC
  5
7EBF
  8
0
 10
4147.8845796609248282
 20
144.7094260015437044
 30
0.0
 40
0.854283443417125
 50
262.9952843383680943
 51
265.7320747610493754
  0
ARC
  5
7EC0
  8
0
 10
4147.3766513390619366
 20
144.0623900816557068
 30
0.0
 40
0.2295104109796631
 50
277.7323244165440883
 51
298.9294094646155031
  0
ARC
  5
7EC1
  8
0
 10
4147.3734002652327035
 20
144.1021770342013895
 30
0.0
 40
0.2563307615516446
 50
277.6516946645616031
 51
290.1393309626059249
  0
ARC
  5
7EC2
  8
0
 10
4147.6685775536116125
 20
144.9647527574124126
 30
0.0
 40
1.182007525421189
 50
257.2410217081470023
 51
260.7884827379978105
  0
ARC
  5
7EC3
  8
0
 10
4147.3129609658499248
 20
144.2680203495266085
 30
0.0
 40
0.5042509713543823
 50
280.8095661615187737
 51
289.3303270062514798
  0
ARC
  5
7EC4
  8
0
 10
4147.478882007764696
 20
143.7950269625395947
 30
0.0
 40
0.003
 50
289.3303270062514798
 51
80.7884827380496517
  0
ARC
  5
7EC5
  8
0
 10
4147.4942918802871645
 20
144.0283487891398977
 30
0.0
 40
0.2941411470872295
 50
252.8446299888219073
 51
266.7850205940596879
  0
ARC
  5
7EC6
  8
0
 10
4147.4776274513897079
 20
143.7316753017807969
 30
0.0
 40
0.003
 50
289.3509535766253862
 51
86.7850205940597164
  0
ARC
  5
7EC7
  8
0
 10
4147.2539685586598353
 20
144.368528675367088
 30
0.0
 40
0.677985570027739
 50
283.0909763159934869
 51
289.3509535766257272
  0
ARC
  5
7EC8
  8
0
 10
4147.5377119147933627
 20
144.2180310099093106
 30
0.0
 40
0.55096932907596
 50
256.3331267536995028
 51
264.3965825212644063
  0
ARC
  5
7EC9
  8
0
 10
4147.2831528688011531
 20
144.2766076618
 30
0.0
 40
0.6450001216893009
 50
281.1182242318488989
 51
288.1952250319876043
  0
ARC
  5
7ECA
  8
0
 10
4147.4836210968796877
 20
143.6667087801974105
 30
0.0
 40
0.003
 50
288.1952250319876043
 51
84.3965825212641505
  0
ARC
  5
7ECB
  8
0
 10
4147.5117586352289436
 20
143.9925922731104038
 30
0.0
 40
0.3887306526049954
 50
254.4473747544737989
 51
265.6386793976005833
  0
ARC
  5
7ECC
  8
0
 10
4147.3193882921732438
 20
144.0636164912374113
 30
0.0
 40
0.4924139869314498
 50
280.3115745444296749
 51
289.4020507163434104
  0
ARC
  5
7ECD
  8
0
 10
4147.4819691183420218
 20
143.601995948404209
 30
0.0
 40
0.003
 50
289.402050716343922
 51
85.6386793976005833
  0
ARC
  5
7ECE
  8
0
 10
4147.4764840296984403
 20
143.9465253390081898
 30
0.0
 40
0.3976649424691958
 50
260.0147230841496935
 51
269.6726206735172013
  0
ARC
  5
7ECF
  8
0
 10
4147.2013320772975931
 20
144.7183149343111097
 30
0.0
 40
1.206780843608072
 50
279.8382211803178734
 51
283.1011789277022217
  0
ARC
  5
7ED0
  8
0
 10
4147.4741947039146908
 20
143.5458669369855897
 30
0.0
 40
0.003
 50
283.1011789277023922
 51
89.672620673517244
  0
ARC
  5
7ED1
  8
0
 10
4147.5697903445552583
 20
149.7220537050893938
 30
0.0
 40
0.0262823379935567
 50
134.035150024603297
 51
222.5390785767062027
  0
ARC
  5
7ED2
  8
0
 10
4147.6163501574583279
 20
149.7791940873129874
 30
0.0
 40
0.0997876530691234
 50
228.6502625869449048
 51
300.8615178771420915
  0
ARC
  5
7ED3
  8
0
 10
4147.6541748826339244
 20
149.7186411548269973
 30
0.0
 40
0.0284405328727562
 50
298.0246663283811017
 51
35.9929047524434012
  0
ARC
  5
7ED4
  8
0
 10
4147.6110915150748042
 20
149.6648600177516073
 30
0.0
 40
0.0966334993067387
 50
46.8454261306998774
 51
128.0575747109303109
  0
ARC
  5
7ED5
  8
0
 10
4147.6480621400078235
 20
149.7331202442466918
 30
0.0
 40
0.0476957477653339
 50
298.7569925817804801
 51
344.8284175108502723
  0
ARC
  5
7ED6
  8
0
 10
4147.6164007778297673
 20
149.7908145883475868
 30
0.0
 40
0.1135066829985698
 50
231.2787014660657121
 51
298.7569925817804801
  0
ARC
  5
7ED7
  8
0
 10
4147.5753722279932845
 20
149.7336822782934007
 30
0.0
 40
0.0434277584956983
 50
188.6608072629298931
 51
226.3545028203396896
  0
ARC
  5
7ED8
  8
0
 10
4147.5560988223141976
 20
149.7513273608668101
 30
0.0
 40
0.0338327062025688
 50
149.7241614233300027
 51
225.6292722100616004
  0
ARC
  5
7ED9
  8
0
 10
4147.6119936502427663
 20
149.6830638116223042
 30
0.0
 40
0.1205149823503475
 50
41.0855523711684683
 51
134.9301651770776971
  0
ARC
  5
7EDA
  8
0
 10
4147.6702291162600886
 20
149.7473748044266983
 30
0.0
 40
0.0358395659310882
 50
311.7532012492059152
 51
24.5478748357270113
  0
LINE
  5
7EDB
  8
0
 10
4147.7021331562746127
 20
149.7630558763740964
 30
0.0
 11
4147.6940955200288954
 21
149.720637765374903
 31
0.0
  0
LINE
  5
7EDC
  8
0
 10
4147.5247129621056956
 20
149.7639598502516947
 30
0.0
 11
4147.5324396708292625
 21
149.7271427260749022
 31
0.0
  0
ARC
  5
7EDD
  8
0
 10
4147.6126549221889945
 20
149.7058484074659077
 30
0.0
 40
0.0237188866283004
 50
49.8931967845592581
 51
126.361694693997606
  0
ARC
  5
7EDE
  8
0
 10
4147.6247138994585839
 20
149.7201654526851939
 30
0.0
 40
0.005
 50
314.2049268196734033
 51
49.8931967845592581
  0
ARC
  5
7EDF
  8
0
 10
4147.6134999484529544
 20
149.7316950277823082
 30
0.0
 40
0.0210836500539991
 50
222.0499646588883138
 51
314.2049268196734033
  0
ARC
  5
7EE0
  8
0
 10
4147.6015568567181617
 20
149.7209225462275128
 30
0.0
 40
0.005
 50
126.3616946939957018
 51
222.0499646588883138
  0
ARC
  5
7EE1
  8
0
 10
4147.5697903445552583
 20
150.2884894141614041
 30
0.0
 40
0.0262823379935567
 50
134.035150024603297
 51
222.5390785767062027
  0
ARC
  5
7EE2
  8
0
 10
4147.6163501574583279
 20
150.3456297963849977
 30
0.0
 40
0.0997876530691234
 50
228.6502625869449048
 51
300.8615178771420915
  0
ARC
  5
7EE3
  8
0
 10
4147.6541748826339244
 20
150.2850768638990075
 30
0.0
 40
0.0284405328727562
 50
298.0246663283811017
 51
35.9929047524434012
  0
ARC
  5
7EE4
  8
0
 10
4147.6110915150748042
 20
150.2312957268235891
 30
0.0
 40
0.0966334993067387
 50
46.8454261306998774
 51
128.0575747109303109
  0
ARC
  5
7EE5
  8
0
 10
4147.6480621400078235
 20
150.299555953318702
 30
0.0
 40
0.0476957477653339
 50
298.7569925817804801
 51
344.8284175108502723
  0
ARC
  5
7EE6
  8
0
 10
4147.6164007778297673
 20
150.357250297419597
 30
0.0
 40
0.1135066829985698
 50
231.2787014660657121
 51
298.7569925817804801
  0
ARC
  5
7EE7
  8
0
 10
4147.5753722279932845
 20
150.300117987365411
 30
0.0
 40
0.0434277584956983
 50
188.6608072629298931
 51
226.3545028203396896
  0
ARC
  5
7EE8
  8
0
 10
4147.5560988223141976
 20
150.3177630699387919
 30
0.0
 40
0.0338327062025688
 50
149.7241614233300027
 51
225.6292722100616004
  0
ARC
  5
7EE9
  8
0
 10
4147.6119936502427663
 20
150.249499520694286
 30
0.0
 40
0.1205149823503475
 50
41.0855523711684683
 51
134.9301651770776971
  0
ARC
  5
7EEA
  8
0
 10
4147.6702291162600886
 20
150.3138105134987086
 30
0.0
 40
0.0358395659310882
 50
311.7532012492059152
 51
24.5478748357270113
  0
LINE
  5
7EEB
  8
0
 10
4147.7021331562746127
 20
150.3294915854461067
 30
0.0
 11
4147.6940955200288954
 21
150.2870734744469132
 31
0.0
  0
LINE
  5
7EEC
  8
0
 10
4147.5247129621056956
 20
150.3303955593237049
 30
0.0
 11
4147.5324396708292625
 21
150.2935784351469124
 31
0.0
  0
ARC
  5
7EED
  8
0
 10
4147.6126549221889945
 20
150.2722841165378895
 30
0.0
 40
0.0237188866283004
 50
49.8931967845592581
 51
126.361694693997606
  0
ARC
  5
7EEE
  8
0
 10
4147.6247138994585839
 20
150.2866011617572042
 30
0.0
 40
0.005
 50
314.2049268196734033
 51
49.8931967845592581
  0
ARC
  5
7EEF
  8
0
 10
4147.6134999484529544
 20
150.2981307368544037
 30
0.0
 40
0.0210836500539991
 50
222.0499646588883138
 51
314.2049268196734033
  0
ARC
  5
7EF0
  8
0
 10
4147.6015568567181617
 20
150.2873582552996083
 30
0.0
 40
0.005
 50
126.3616946939957018
 51
222.0499646588883138
  0
ARC
  5
7EF1
  8
0
 10
4147.5697903445552583
 20
151.166565724186114
 30
0.0
 40
0.0262823379935567
 50
134.035150024603297
 51
222.5390785767062027
  0
ARC
  5
7EF2
  8
0
 10
4147.6163501574583279
 20
151.2237061064097077
 30
0.0
 40
0.0997876530691234
 50
228.6502625869449048
 51
300.8615178771420915
  0
ARC
  5
7EF3
  8
0
 10
4147.6541748826339244
 20
151.1631531739236891
 30
0.0
 40
0.0284405328727562
 50
298.0246663283811017
 51
35.9929047524434012
  0
ARC
  5
7EF4
  8
0
 10
4147.6110915150748042
 20
151.1093720368482991
 30
0.0
 40
0.0966334993067387
 50
46.8454261306998774
 51
128.0575747109303109
  0
ARC
  5
7EF5
  8
0
 10
4147.6480621400078235
 20
151.177632263343412
 30
0.0
 40
0.0476957477653339
 50
298.7569925817804801
 51
344.8284175108502723
  0
ARC
  5
7EF6
  8
0
 10
4147.6164007778297673
 20
151.235326607444307
 30
0.0
 40
0.1135066829985698
 50
231.2787014660657121
 51
298.7569925817804801
  0
ARC
  5
7EF7
  8
0
 10
4147.5753722279932845
 20
151.1781942973900925
 30
0.0
 40
0.0434277584956983
 50
188.6608072629298931
 51
226.3545028203396896
  0
ARC
  5
7EF8
  8
0
 10
4147.5560988223141976
 20
151.1958393799635871
 30
0.0
 40
0.0338327062025688
 50
149.7241614233300027
 51
225.6292722100616004
  0
ARC
  5
7EF9
  8
0
 10
4147.6119936502427663
 20
151.127575830718996
 30
0.0
 40
0.1205149823503475
 50
41.0855523711684683
 51
134.9301651770776971
  0
ARC
  5
7EFA
  8
0
 10
4147.6702291162600886
 20
151.1918868235235038
 30
0.0
 40
0.0358395659310882
 50
311.7532012492059152
 51
24.5478748357270113
  0
LINE
  5
7EFB
  8
0
 10
4147.7021331562746127
 20
151.2075678954709019
 30
0.0
 11
4147.6940955200288954
 21
151.1651497844715948
 31
0.0
  0
LINE
  5
7EFC
  8
0
 10
4147.5247129621056956
 20
151.2084718693483865
 30
0.0
 11
4147.5324396708292625
 21
151.1716547451717076
 31
0.0
  0
ARC
  5
7EFD
  8
0
 10
4147.6126549221889945
 20
151.1503604265627132
 30
0.0
 40
0.0237188866283004
 50
49.8931967845592581
 51
126.361694693997606
  0
ARC
  5
7EFE
  8
0
 10
4147.6247138994585839
 20
151.1646774717819994
 30
0.0
 40
0.005
 50
314.2049268196734033
 51
49.8931967845592581
  0
ARC
  5
7EFF
  8
0
 10
4147.6134999484529544
 20
151.1762070468791137
 30
0.0
 40
0.0210836500539991
 50
222.0499646588883138
 51
314.2049268196734033
  0
ARC
  5
7F00
  8
0
 10
4147.6015568567181617
 20
151.1654345653242899
 30
0.0
 40
0.005
 50
126.3616946939957018
 51
222.0499646588883138
  0
ARC
  5
7F01
  8
0
 10
4147.5697903445552583
 20
151.8626048140536113
 30
0.0
 40
0.0262823379935567
 50
134.035150024603297
 51
222.5390785767062027
  0
ARC
  5
7F02
  8
0
 10
4147.6163501574583279
 20
151.919745196277205
 30
0.0
 40
0.0997876530691234
 50
228.6502625869449048
 51
300.8615178771420915
  0
ARC
  5
7F03
  8
0
 10
4147.6541748826339244
 20
151.8591922637911864
 30
0.0
 40
0.0284405328727562
 50
298.0246663283811017
 51
35.9929047524434012
  0
ARC
  5
7F04
  8
0
 10
4147.6110915150748042
 20
151.8054111267157964
 30
0.0
 40
0.0966334993067387
 50
46.8454261306998774
 51
128.0575747109303109
  0
ARC
  5
7F05
  8
0
 10
4147.6480621400078235
 20
151.8736713532107956
 30
0.0
 40
0.0476957477653339
 50
298.7569925817804801
 51
344.8284175108502723
  0
ARC
  5
7F06
  8
0
 10
4147.6164007778297673
 20
151.9313656973118043
 30
0.0
 40
0.1135066829985698
 50
231.2787014660657121
 51
298.7569925817804801
  0
ARC
  5
7F07
  8
0
 10
4147.5753722279932845
 20
151.8742333872575045
 30
0.0
 40
0.0434277584956983
 50
188.6608072629298931
 51
226.3545028203396896
  0
ARC
  5
7F08
  8
0
 10
4147.5560988223141976
 20
151.8918784698309992
 30
0.0
 40
0.0338327062025688
 50
149.7241614233300027
 51
225.6292722100616004
  0
ARC
  5
7F09
  8
0
 10
4147.6119936502427663
 20
151.8236149205864933
 30
0.0
 40
0.1205149823503475
 50
41.0855523711684683
 51
134.9301651770776971
  0
ARC
  5
7F0A
  8
0
 10
4147.6702291162600886
 20
151.8879259133908874
 30
0.0
 40
0.0358395659310882
 50
311.7532012492059152
 51
24.5478748357270113
  0
LINE
  5
7F0B
  8
0
 10
4147.7021331562746127
 20
151.903606985338314
 30
0.0
 11
4147.6940955200288954
 21
151.8611888743390921
 31
0.0
  0
LINE
  5
7F0C
  8
0
 10
4147.5247129621056956
 20
151.9045109592159122
 30
0.0
 11
4147.5324396708292625
 21
151.8676938350390913
 31
0.0
  0
ARC
  5
7F0D
  8
0
 10
4147.6126549221889945
 20
151.8463995164300968
 30
0.0
 40
0.0237188866283004
 50
49.8931967845592581
 51
126.361694693997606
  0
ARC
  5
7F0E
  8
0
 10
4147.6247138994585839
 20
151.8607165616494115
 30
0.0
 40
0.005
 50
314.2049268196734033
 51
49.8931967845592581
  0
ARC
  5
7F0F
  8
0
 10
4147.6134999484529544
 20
151.8722461367464973
 30
0.0
 40
0.0210836500539991
 50
222.0499646588883138
 51
314.2049268196734033
  0
ARC
  5
7F10
  8
0
 10
4147.6015568567181617
 20
151.8614736551917019
 30
0.0
 40
0.005
 50
126.3616946939957018
 51
222.0499646588883138
  0
ARC
  5
7F11
  8
0
 10
4147.6113637589596692
 20
150.7231238682240075
 30
0.0
 40
0.0679228858656763
 50
87.5514561736677734
 51
128.6839006178661862
  0
ARC
  5
7F12
  8
0
 10
4147.5874043039202661
 20
150.7500786236684007
 30
0.0
 40
0.031960531232513
 50
125.3555865084170051
 51
226.1744550311886996
  0
ARC
  5
7F13
  8
0
 10
4147.6124586549976812
 20
150.7806859691582986
 30
0.0
 40
0.0714596077969561
 50
228.6760498364205887
 51
271.4493500911070782
  0
ARC
  5
7F14
  8
0
 10
4147.6171705908827789
 20
150.7231238682240075
 30
0.0
 40
0.0679228858656763
 50
51.3160993821337215
 51
92.4485438263322408
  0
ARC
  5
7F15
  8
0
 10
4147.641130045922182
 20
150.7500786236684007
 30
0.0
 40
0.031960531232513
 50
313.8255449688111867
 51
54.644413491582938
  0
ARC
  5
7F16
  8
0
 10
4147.6160756948438575
 20
150.7806859691582986
 30
0.0
 40
0.0714596077969561
 50
268.5506499088929218
 51
311.3239501635792976
  0
ENDSEC
  0
EOF
