  0
SECTION
  2
HEADER
  9
$ACADVER
  1
AC1009
  9
$INSBASE
 10
302.7952109626639867
 20
40.0622697912489585
 30
0.0
  9
$EXTMIN
 10
293.1066065425491729
 20
36.7845981535096485
 30
-0.0000000000000058
  9
$EXTMAX
 10
302.8121229590435064
 20
41.4610886607504767
 30
0.0000000000000104
  9
$LIMMIN
 10
0.0
 20
0.0
  9
$LIMMAX
 10
11.6929133858000007
 20
8.2677165353999982
  9
$ORTHOMODE
 70
     0
  9
$REGENMODE
 70
     1
  9
$FILLMODE
 70
     1
  9
$QTEXTMODE
 70
     0
  9
$MIRRTEXT
 70
     0
  9
$DRAGMODE
 70
     2
  9
$LTSCALE
 40
0.6431102362
  9
$OSMODE
 70
  4095
  9
$ATTMODE
 70
     1
  9
$TEXTSIZE
 40
0.2
  9
$TRACEWID
 40
0.05
  9
$TEXTSTYLE
  7
STANDARD
  9
$CLAYER
  8
0
  9
$CELTYPE
  6
BYLAYER
  9
$CECOLOR
 62
   256
  9
$DIMSCALE
 40
1.0
  9
$DIMASZ
 40
0.1875
  9
$DIMEXO
 40
0.0625
  9
$DIMDLI
 40
0.4443307087
  9
$DIMRND
 40
0.0
  9
$DIMDLE
 40
0.0
  9
$DIMEXE
 40
0.125
  9
$DIMTP
 40
0.01
  9
$DIMTM
 40
0.01
  9
$DIMTXT
 40
1.0
  9
$DIMCEN
 40
0.1052362205
  9
$DIMTSZ
 40
0.0
  9
$DIMTOL
 70
     1
  9
$DIMLIM
 70
     0
  9
$DIMTIH
 70
     1
  9
$DIMTOH
 70
     1
  9
$DIMSE1
 70
     0
  9
$DIMSE2
 70
     0
  9
$DIMTAD
 70
     0
  9
$DIMZIN
 70
     0
  9
$DIMBLK
  1

  9
$DIMASO
 70
     1
  9
$DIMSHO
 70
     1
  9
$DIMPOST
  1
\X
  9
$DIMAPOST
  1

  9
$DIMALT
 70
     1
  9
$DIMALTD
 70
     2
  9
$DIMALTF
 40
25.3999999999999986
  9
$DIMLFAC
 40
1.0
  9
$DIMTOFL
 70
     0
  9
$DIMTVP
 40
0.0
  9
$DIMTIX
 70
     0
  9
$DIMSOXD
 70
     0
  9
$DIMSAH
 70
     0
  9
$DIMBLK1
  1

  9
$DIMBLK2
  1

  9
$DIMSTYLE
  2
STANDARD
  9
$DIMCLRD
 70
     0
  9
$DIMCLRE
 70
     0
  9
$DIMCLRT
 70
     0
  9
$DIMTFAC
 40
1.0
  9
$DIMGAP
 40
0.09
  9
$LUNITS
 70
     2
  9
$LUPREC
 70
     4
  9
$SKETCHINC
 40
0.1
  9
$FILLETRAD
 40
0.0
  9
$AUNITS
 70
     0
  9
$AUPREC
 70
     0
  9
$MENU
  1
.
  9
$ELEVATION
 40
0.0
  9
$PELEVATION
 40
0.0
  9
$THICKNESS
 40
0.0
  9
$LIMCHECK
 70
     0
  9
$BLIPMODE
 70
     0
  9
$CHAMFERA
 40
0.0
  9
$CHAMFERB
 40
0.0
  9
$SKPOLY
 70
     0
  9
$TDCREATE
 40
2458172.4620254631154239
  9
$TDUPDATE
 40
2460537.7015162040479481
  9
$TDINDWG
 40
0.0931301157
  9
$TDUSRTIMER
 40
0.0931301157
  9
$USRTIMER
 70
     1
  9
$ANGBASE
 50
0.0
  9
$ANGDIR
 70
     0
  9
$PDMODE
 70
     0
  9
$PDSIZE
 40
0.3125
  9
$PLINEWID
 40
0.0
  9
$COORDS
 70
     1
  9
$SPLFRAME
 70
     0
  9
$SPLINETYPE
 70
     6
  9
$SPLINESEGS
 70
     8
  9
$ATTDIA
 70
     1
  9
$ATTREQ
 70
     1
  9
$HANDLING
 70
     1
  9
$HANDSEED
  5
490C
  9
$SURFTAB1
 70
     6
  9
$SURFTAB2
 70
     6
  9
$SURFTYPE
 70
     6
  9
$SURFU
 70
     6
  9
$SURFV
 70
     6
  9
$UCSNAME
  2

  9
$UCSORG
 10
0.0
 20
0.0
 30
0.0
  9
$UCSXDIR
 10
1.0
 20
0.0
 30
0.0
  9
$UCSYDIR
 10
0.0
 20
1.0
 30
0.0
  9
$PUCSNAME
  2

  9
$PUCSORG
 10
0.0
 20
0.0
 30
0.0
  9
$PUCSXDIR
 10
1.0
 20
0.0
 30
0.0
  9
$PUCSYDIR
 10
0.0
 20
1.0
 30
0.0
  9
$USERI1
 70
     0
  9
$USERI2
 70
     0
  9
$USERI3
 70
     0
  9
$USERI4
 70
     0
  9
$USERI5
 70
     0
  9
$USERR1
 40
0.0
  9
$USERR2
 40
0.0
  9
$USERR3
 40
0.0
  9
$USERR4
 40
0.0
  9
$USERR5
 40
0.0
  9
$WORLDVIEW
 70
     1
  9
$SHADEDGE
 70
     3
  9
$SHADEDIF
 70
    70
  9
$TILEMODE
 70
     1
  9
$MAXACTVP
 70
    64
  9
$PLIMCHECK
 70
     0
  9
$PEXTMIN
 10
1.0000000000000000E+20
 20
1.0000000000000000E+20
 30
1.0000000000000000E+20
  9
$PEXTMAX
 10
-1.0000000000000000E+20
 20
-1.0000000000000000E+20
 30
-1.0000000000000000E+20
  9
$PLIMMIN
 10
0.0
 20
0.0
  9
$PLIMMAX
 10
12.0
 20
9.0
  9
$UNITMODE
 70
     0
  9
$VISRETAIN
 70
     1
  9
$PLINEGEN
 70
     0
  9
$PSLTSCALE
 70
     1
  0
ENDSEC
  0
SECTION
  2
TABLES
  0
TABLE
  2
VPORT
 70
     1
  0
VPORT
  2
*ACTIVE
 70
     0
 10
0.0
 20
0.0
 11
1.0
 21
1.0
 12
131.2594298033604048
 22
25.9545526513578508
 13
0.0
 23
0.0
 14
1.0
 24
1.0
 15
0.0
 25
0.0
 16
0.0
 26
0.0
 36
16.5150948445327401
 17
166.6999349474359065
 27
13.1682907557722206
 37
0.0
 40
4.7154329678511084
 41
2.558981233243967
 42
50.0
 43
0.0
 44
0.0
 50
0.0
 51
0.0
 71
     0
 72
   100
 73
     1
 74
     1
 75
     0
 76
     0
 77
     0
 78
     0
  0
ENDTAB
  0
TABLE
  2
LTYPE
 70
     2
  0
LTYPE
  2
CONTINUOUS
 70
     0
  3
Solid line
 72
    65
 73
     0
 40
0.0
  0
LTYPE
  2
PHANTOM2
 70
     0
  3
___ _ _ ___ _ _ ___ _ _ ___ _ _
 72
    65
 73
     6
 40
1.25
 49
0.625
 49
-0.125
 49
0.125
 49
-0.125
 49
0.125
 49
-0.125
  0
ENDTAB
  0
TABLE
  2
LAYER
 70
     2
  0
LAYER
  2
0
 70
     0
 62
   255
  6
CONTINUOUS
  0
LAYER
  2
DEFPOINTS
 70
     0
 62
     7
  6
CONTINUOUS
  0
ENDTAB
  0
TABLE
  2
STYLE
 70
     1
  0
STYLE
  2
STANDARD
 70
     0
 40
0.0
 41
0.8
 50
0.0
 71
     0
 42
0.2
  3
txt
  4

  0
ENDTAB
  0
TABLE
  2
VIEW
 70
     2
  0
ENDTAB
  0
TABLE
  2
UCS
 70
     0
  0
ENDTAB
  0
TABLE
  2
APPID
 70
     9
  0
APPID
  2
ACAD
 70
     0
  0
APPID
  2
ACAD_MLEADERVER
 70
     0
  0
APPID
  2
ACAD_EXEMPT_FROM_CAD_STANDARDS
 70
     0
  0
APPID
  2
ACAD_DSTYLE_DIMJAG
 70
     0
  0
APPID
  2
ACAD_DSTYLE_DIMTALN
 70
     0
  0
APPID
  2
ACAD_NAV_VCDISPLAY
 70
     0
  0
APPID
  2
ACAECLAYERSTANDARD
 70
     0
  0
APPID
  2
ACCMTRANSPARENCY
 70
     0
  0
APPID
  2
ACDBATTR
 70
     0
  0
ENDTAB
  0
TABLE
  2
DIMSTYLE
 70
     1
  0
DIMSTYLE
  2
STANDARD
 70
     0
  3

  4

  5

  6

  7

 40
1.0
 41
0.1875
 42
0.0625
 43
0.38
 44
0.125
 45
0.0
 46
0.0
 47
0.01
 48
0.01
140
0.15625
141
0.09
142
0.0
143
25.3999999999999986
144
1.0
145
0.0
146
1.0
147
0.09
 71
     1
 72
     0
 73
     1
 74
     1
 75
     0
 76
     0
 77
     0
 78
     4
170
     0
171
     2
172
     0
173
     0
174
     0
175
     0
176
     0
177
     0
178
     0
  0
ENDTAB
  0
ENDSEC
  0
SECTION
  2
BLOCKS
  0
BLOCK
  8
0
  2
$MODEL_SPACE
 70
     0
 10
0.0
 20
0.0
 30
0.0
  3
$MODEL_SPACE
  1

  0
ENDBLK
  5
21
  8
0
  0
BLOCK
 67
     1
  8
0
  2
$PAPER_SPACE
 70
     0
 10
0.0
 20
0.0
 30
0.0
  3
$PAPER_SPACE
  1

  0
ENDBLK
  5
1D
 67
     1
  8
0
  0
BLOCK
  8
0
  2
_FILLED
 70
     0
 10
0.0
 20
0.0
 30
0.0
  3
_FILLED
  1

  0
SOLID
  5
252B
  8
0
  6
BYBLOCK
 62
     0
 10
0.0
 20
0.0
 30
0.0
 11
-1.0
 21
0.1666666667
 31
0.0
 12
-1.0
 22
-0.1666666667
 32
0.0
 13
-1.0
 23
-0.1666666667
 33
0.0
  0
ENDBLK
  5
252C
  8
0
  6
BYBLOCK
 62
     0
  0
ENDSEC
  0
SECTION
  2
ENTITIES
  0
ATTDEF
  5
157D
  8
DEFPOINTS
 10
302.7958662618423205
 20
40.0626928145878409
 30
0.0
 40
0.001
  1
K-17529T
  3

  2
MODELNUMBER
 70
     0
1001
ACDBATTR
1070
     0
1070
     1
  0
ATTDEF
  5
157E
  8
DEFPOINTS
 10
302.7958662618423205
 20
40.0610261479211829
 30
0.0
 40
0.001
  1
EOLIA
  3

  2
TRADENAME
 70
     0
1001
ACDBATTR
1070
     0
1070
     1
  0
ATTDEF
  5
157F
  8
DEFPOINTS
 10
302.7958662618423205
 20
40.0593594812545106
 30
0.0
 40
0.001
  1
TOWEL SHELF
  3

  2
PRODUCT
 70
     0
1001
ACDBATTR
1070
     0
1070
     1
  0
LINE
  5
489B
  8
0
 10
302.3227700177640145
 20
40.4362855392489706
 30
0.0
 11
293.4841873405640058
 21
40.4362855392489706
 31
0.0
  0
LINE
  5
489C
  8
0
 10
302.7952109626639867
 20
41.4599075865489581
 30
0.0
 11
302.7952109626639867
 21
38.6646319959489588
 31
0.0
  0
LINE
  5
489D
  8
0
 10
302.4802503327640011
 20
41.4205075865489576
 30
0.0
 11
302.4802503327641148
 21
38.7040319959489594
 31
0.0
  0
LINE
  5
489E
  8
0
 10
302.3227700177640145
 20
40.6168159185407092
 30
0.0
 11
302.3227700177640145
 21
39.5077236639572078
 31
0.0
  0
LINE
  5
489F
  8
0
 10
302.5196503327640016
 20
41.4599075865489581
 30
0.0
 11
302.7952109626639867
 21
41.4599075865489581
 31
0.0
  0
ARC
  5
48A0
  8
0
 10
302.5196503327640016
 20
41.4205075865489576
 30
0.0
 40
0.0394
 50
90.0
 51
180.0
  0
LINE
  5
48A1
  8
0
 10
302.3343100105644226
 20
40.6446759256985715
 30
0.0
 11
302.468710339963593
 21
40.7790762552993584
 31
0.0
  0
ARC
  5
48A2
  8
0
 10
302.362170017764015
 20
40.6168159185407021
 30
0.0
 40
0.0394
 50
135.0000000429498073
 51
179.999999999997101
  0
ARC
  5
48A3
  8
0
 10
302.4408503327640005
 20
40.8069362624572065
 30
0.0
 40
0.0394
 50
315.0000000429598117
 51
0.0000000000024427
  0
LINE
  5
48A4
  8
0
 10
302.5196503327640016
 20
38.6646319959489588
 30
0.0
 11
302.7952109626639867
 21
38.6646319959489588
 31
0.0
  0
ARC
  5
48A5
  8
0
 10
302.5196503327640016
 20
38.7040319959489594
 30
0.0
 40
0.0394
 50
180.0
 51
270.0
  0
LINE
  5
48A6
  8
0
 10
302.3343100105644226
 20
39.4798636567993384
 30
0.0
 11
302.468710339963593
 21
39.3454633271985728
 31
0.0
  0
ARC
  5
48A7
  8
0
 10
302.362170017764015
 20
39.5077236639572078
 30
0.0
 40
0.0394
 50
180.0000000000023874
 51
224.9999999570501927
  0
ARC
  5
48A8
  8
0
 10
302.4408503327640005
 20
39.3176033200407105
 30
0.0
 40
0.0394
 50
359.9999999999972147
 51
44.9999999570401528
  0
LINE
  5
48A9
  8
0
 10
302.3227700177640145
 20
39.6882540432489606
 30
0.0
 11
299.3975744996196227
 21
39.6882540432489606
 31
0.0
  0
LINE
  5
48AA
  8
0
 10
298.8857699383473232
 20
39.6882540432489606
 30
0.0
 11
293.4841873405640058
 21
39.6882540432489606
 31
0.0
  0
ARC
  5
48AB
  8
0
 10
293.4841873405640058
 20
40.0622697912489585
 30
0.0
 40
0.3740157479999997
 50
90.0
 51
270.0
  0
LINE
  5
48AC
  8
0
 10
299.3877306476640001
 20
39.6950269436449688
 30
0.0
 11
299.3877306476640001
 21
37.0307667130173002
 31
0.0
  0
LINE
  5
48AD
  8
0
 10
298.8956046633639971
 20
39.6952137648204868
 30
0.0
 11
298.8956046633639971
 21
37.0307737282489597
 31
0.0
  0
ARC
  5
48AE
  8
0
 10
299.1416676555639924
 20
37.0307737282489597
 30
0.0
 40
0.2460629922000024
 50
180.0
 51
359.9983665029707254
  0
ARC
  5
48AF
  8
0
 10
299.266752797975073
 20
39.1603188589895765
 30
0.0
 40
0.6510479998503311
 50
108.764049718532803
 51
125.8159884074096055
  0
ARC
  5
48B0
  8
0
 10
299.142307485003812
 20
39.5266278004995399
 30
0.0
 40
0.2641773799388943
 50
69.3242816455002782
 51
108.7640497185327035
  0
ARC
  5
48B1
  8
0
 10
298.9761063735924154
 20
39.0862249570895273
 30
0.0
 40
0.734897545130483
 50
55.0049302831958329
 51
69.3242816455002782
  0
ENDSEC
  0
EOF
