  0
SECTION
  2
HEADER
  9
$ACADVER
  1
AC1009
  9
$INSBASE
 10
6909.8348886595940712
 20
287.796840395889717
 30
0.0
  9
$EXTMIN
 10
6902.2366373191216553
 20
287.7844229693059788
 30
-0.0000000000112498
  9
$EXTMAX
 10
6917.5413913979527933
 20
315.2792899176824903
 30
0.0000000000002956
  9
$LIMMIN
 10
0.0
 20
0.0
  9
$LIMMAX
 10
11.6929133858000007
 20
8.2677165353999982
  9
$ORTHOMODE
 70
     0
  9
$REGENMODE
 70
     1
  9
$FILLMODE
 70
     1
  9
$QTEXTMODE
 70
     0
  9
$MIRRTEXT
 70
     0
  9
$DRAGMODE
 70
     2
  9
$LTSCALE
 40
0.6431102362
  9
$OSMODE
 70
  4095
  9
$ATTMODE
 70
     1
  9
$TEXTSIZE
 40
0.2
  9
$TRACEWID
 40
0.05
  9
$TEXTSTYLE
  7
STANDARD
  9
$CLAYER
  8
0
  9
$CELTYPE
  6
BYLAYER
  9
$CECOLOR
 62
   256
  9
$DIMSCALE
 40
1.0
  9
$DIMASZ
 40
0.1875
  9
$DIMEXO
 40
0.0625
  9
$DIMDLI
 40
0.4443307087
  9
$DIMRND
 40
0.0
  9
$DIMDLE
 40
0.0
  9
$DIMEXE
 40
0.125
  9
$DIMTP
 40
0.01
  9
$DIMTM
 40
0.01
  9
$DIMTXT
 40
2.0
  9
$DIMCEN
 40
0.1052362205
  9
$DIMTSZ
 40
0.0
  9
$DIMTOL
 70
     1
  9
$DIMLIM
 70
     0
  9
$DIMTIH
 70
     1
  9
$DIMTOH
 70
     1
  9
$DIMSE1
 70
     0
  9
$DIMSE2
 70
     0
  9
$DIMTAD
 70
     0
  9
$DIMZIN
 70
     0
  9
$DIMBLK
  1

  9
$DIMASO
 70
     1
  9
$DIMSHO
 70
     1
  9
$DIMPOST
  1
\X
  9
$DIMAPOST
  1

  9
$DIMALT
 70
     1
  9
$DIMALTD
 70
     2
  9
$DIMALTF
 40
25.3999999999999986
  9
$DIMLFAC
 40
1.0
  9
$DIMTOFL
 70
     0
  9
$DIMTVP
 40
0.0
  9
$DIMTIX
 70
     0
  9
$DIMSOXD
 70
     0
  9
$DIMSAH
 70
     0
  9
$DIMBLK1
  1

  9
$DIMBLK2
  1

  9
$DIMSTYLE
  2
STANDARD
  9
$DIMCLRD
 70
     0
  9
$DIMCLRE
 70
     0
  9
$DIMCLRT
 70
     0
  9
$DIMTFAC
 40
1.0
  9
$DIMGAP
 40
0.09
  9
$LUNITS
 70
     2
  9
$LUPREC
 70
     4
  9
$SKETCHINC
 40
0.1
  9
$FILLETRAD
 40
0.0197
  9
$AUNITS
 70
     0
  9
$AUPREC
 70
     0
  9
$MENU
  1
.
  9
$ELEVATION
 40
0.0
  9
$PELEVATION
 40
0.0
  9
$THICKNESS
 40
0.0
  9
$LIMCHECK
 70
     0
  9
$BLIPMODE
 70
     0
  9
$CHAMFERA
 40
0.0
  9
$CHAMFERB
 40
0.0
  9
$SKPOLY
 70
     0
  9
$TDCREATE
 40
2458060.468368056230247
  9
$TDUPDATE
 40
2460462.5312731480225921
  9
$TDINDWG
 40
1.2688265046
  9
$TDUSRTIMER
 40
1.2688265046
  9
$USRTIMER
 70
     1
  9
$ANGBASE
 50
0.0
  9
$ANGDIR
 70
     0
  9
$PDMODE
 70
     0
  9
$PDSIZE
 40
0.3125
  9
$PLINEWID
 40
0.0
  9
$COORDS
 70
     1
  9
$SPLFRAME
 70
     0
  9
$SPLINETYPE
 70
     6
  9
$SPLINESEGS
 70
     8
  9
$ATTDIA
 70
     1
  9
$ATTREQ
 70
     1
  9
$HANDLING
 70
     1
  9
$HANDSEED
  5
32D3E
  9
$SURFTAB1
 70
     6
  9
$SURFTAB2
 70
     6
  9
$SURFTYPE
 70
     6
  9
$SURFU
 70
     6
  9
$SURFV
 70
     6
  9
$UCSNAME
  2

  9
$UCSORG
 10
0.0
 20
0.0
 30
0.0
  9
$UCSXDIR
 10
1.0
 20
0.0
 30
0.0
  9
$UCSYDIR
 10
0.0
 20
1.0
 30
0.0
  9
$PUCSNAME
  2

  9
$PUCSORG
 10
0.0
 20
0.0
 30
0.0
  9
$PUCSXDIR
 10
1.0
 20
0.0
 30
0.0
  9
$PUCSYDIR
 10
0.0
 20
1.0
 30
0.0
  9
$USERI1
 70
     0
  9
$USERI2
 70
     0
  9
$USERI3
 70
     0
  9
$USERI4
 70
     0
  9
$USERI5
 70
     0
  9
$USERR1
 40
0.0
  9
$USERR2
 40
0.0
  9
$USERR3
 40
0.0
  9
$USERR4
 40
0.0
  9
$USERR5
 40
0.0
  9
$WORLDVIEW
 70
     1
  9
$SHADEDGE
 70
     3
  9
$SHADEDIF
 70
    70
  9
$TILEMODE
 70
     1
  9
$MAXACTVP
 70
    64
  9
$PLIMCHECK
 70
     0
  9
$PEXTMIN
 10
1.0000000000000000E+20
 20
1.0000000000000000E+20
 30
1.0000000000000000E+20
  9
$PEXTMAX
 10
-1.0000000000000000E+20
 20
-1.0000000000000000E+20
 30
-1.0000000000000000E+20
  9
$PLIMMIN
 10
0.0
 20
0.0
  9
$PLIMMAX
 10
12.0
 20
9.0
  9
$UNITMODE
 70
     0
  9
$VISRETAIN
 70
     1
  9
$PLINEGEN
 70
     0
  9
$PSLTSCALE
 70
     1
  0
ENDSEC
  0
SECTION
  2
TABLES
  0
TABLE
  2
VPORT
 70
     1
  0
VPORT
  2
*ACTIVE
 70
     0
 10
0.0
 20
0.0
 11
1.0
 21
1.0
 12
2998.5236579132251791
 22
168.9522513409550868
 13
0.0
 23
0.0
 14
1.0
 24
1.0
 15
0.0
 25
0.0
 16
0.0
 26
0.0
 36
60.4960186965801583
 17
3911.3653564453120453
 27
132.5796051025390057
 37
0.0
 40
27.7414576833395508
 41
2.8398203592814362
 42
50.0
 43
0.0
 44
0.0
 50
0.0
 51
0.0
 71
     0
 72
   100
 73
     1
 74
     1
 75
     0
 76
     0
 77
     0
 78
     0
  0
ENDTAB
  0
TABLE
  2
LTYPE
 70
     2
  0
LTYPE
  2
CONTINUOUS
 70
     0
  3
Solid line
 72
    65
 73
     0
 40
0.0
  0
LTYPE
  2
PHANTOM2
 70
     0
  3
___ _ _ ___ _ _ ___ _ _ ___ _ _
 72
    65
 73
     6
 40
1.25
 49
0.625
 49
-0.125
 49
0.125
 49
-0.125
 49
0.125
 49
-0.125
  0
ENDTAB
  0
TABLE
  2
LAYER
 70
     2
  0
LAYER
  2
0
 70
     0
 62
   255
  6
CONTINUOUS
  0
LAYER
  2
DEFPOINTS
 70
     0
 62
     7
  6
CONTINUOUS
  0
ENDTAB
  0
TABLE
  2
STYLE
 70
     1
  0
STYLE
  2
STANDARD
 70
     0
 40
0.0
 41
0.8
 50
0.0
 71
     0
 42
0.2
  3
txt
  4

  0
ENDTAB
  0
TABLE
  2
VIEW
 70
     0
  0
ENDTAB
  0
TABLE
  2
UCS
 70
     0
  0
ENDTAB
  0
TABLE
  2
APPID
 70
    11
  0
APPID
  2
ACAD
 70
     0
  0
APPID
  2
ACAD_MLEADERVER
 70
     0
  0
APPID
  2
ACAD_EXEMPT_FROM_CAD_STANDARDS
 70
     0
  0
APPID
  2
ACAD_NAV_VCDISPLAY
 70
     0
  0
APPID
  2
ACAECLAYERSTANDARD
 70
     0
  0
APPID
  2
ACCMTRANSPARENCY
 70
     0
  0
APPID
  2
ACAD_DSTYLE_DIMJAG
 70
     0
  0
APPID
  2
ACAD_DSTYLE_DIMTALN
 70
     0
  0
APPID
  2
ACDBATTR
 70
     0
  0
APPID
  2
ACADANNOTATIVE
 70
     0
  0
APPID
  2
DCO15
 70
     0
  0
ENDTAB
  0
TABLE
  2
DIMSTYLE
 70
     1
  0
DIMSTYLE
  2
STANDARD
 70
     0
  3

  4

  5

  6

  7

 40
1.0
 41
0.1875
 42
0.0625
 43
0.38
 44
0.125
 45
0.0
 46
0.0
 47
0.01
 48
0.01
140
0.15625
141
0.09
142
0.0
143
25.3999999999999986
144
1.0
145
0.0
146
1.0
147
0.09
 71
     1
 72
     0
 73
     1
 74
     1
 75
     0
 76
     0
 77
     0
 78
     4
170
     0
171
     2
172
     0
173
     0
174
     0
175
     0
176
     0
177
     0
178
     0
  0
ENDTAB
  0
ENDSEC
  0
SECTION
  2
BLOCKS
  0
BLOCK
  8
0
  2
$MODEL_SPACE
 70
     0
 10
0.0
 20
0.0
 30
0.0
  3
$MODEL_SPACE
  1

  0
ENDBLK
  5
21
  8
0
  0
BLOCK
 67
     1
  8
0
  2
$PAPER_SPACE
 70
     0
 10
0.0
 20
0.0
 30
0.0
  3
$PAPER_SPACE
  1

  0
ENDBLK
  5
1D
 67
     1
  8
0
  0
BLOCK
  8
0
  2
_FILLED
 70
     0
 10
0.0
 20
0.0
 30
0.0
  3
_FILLED
  1

  0
SOLID
  5
2EA64
  8
0
  6
BYBLOCK
 62
     0
 10
0.0
 20
0.0
 30
0.0
 11
-1.0
 21
0.1666666667
 31
0.0
 12
-1.0
 22
-0.1666666667
 32
0.0
 13
-1.0
 23
-0.1666666667
 33
0.0
  0
ENDBLK
  5
2EA65
  8
0
  6
BYBLOCK
 62
     0
  0
ENDSEC
  0
SECTION
  2
ENTITIES
  0
ATTDEF
  5
26A5B
  8
DEFPOINTS
 10
6909.834595034083577
 20
287.7941186173134156
 30
0.0
 40
0.001
  1
K-17629T-NS
  3

  2
MODELNUMBER
 70
     0
1001
ACDBATTR
1070
     0
1070
     1
  0
ATTDEF
  5
26A5C
  8
DEFPOINTS
 10
6909.8344692244272665
 20
287.7924517769342856
 30
0.0
 40
0.001
  1
OVE/QUIET-CLOSE
  3

  2
TRADENAME
 70
     0
1001
ACDBATTR
1070
     0
1070
     1
  0
ATTDEF
  5
26A5D
  8
DEFPOINTS
 10
6909.834595034083577
 20
287.7907852839800853
 30
0.0
 40
0.001
  1
TOILET
  3

  2
PRODUCT
 70
     0
1001
ACDBATTR
1070
     0
1070
     1
  0
LINE
  5
329A2
  8
0
 10
6904.0608463600738105
 20
287.796840395889717
 30
0.0
 11
6915.6089309591134224
 21
287.796840395889717
 31
0.0
  0
LINE
  5
329A3
  8
0
 10
6915.6453175515152907
 20
315.1902255214895945
 30
0.0
 11
6904.0244597676728517
 21
315.1902255214895945
 31
0.0
  0
LINE
  5
329A4
  8
0
 10
6908.9294080626032155
 20
315.2768403958896783
 30
0.0
 11
6910.7403692565849269
 21
315.2768403958896783
 31
0.0
  0
LINE
  5
329A5
  8
0
 10
6908.8900080626026465
 20
315.2374403958896778
 30
0.0
 11
6908.8900080626026465
 21
315.1902255214895945
 31
0.0
  0
ARC
  5
329A6
  8
0
 10
6908.9294080626032155
 20
315.2374403958896778
 30
0.0
 40
0.0394
 50
90.0
 51
180.0000000000098055
  0
LINE
  5
329A7
  8
0
 10
6903.1072965496223333
 20
312.9491046910895875
 30
0.0
 11
6916.5624807695667187
 21
312.9491046910895875
 31
0.0
  0
LINE
  5
329A8
  8
0
 10
6903.0288027522128687
 20
313.0317892679926217
 30
0.0
 11
6903.0952170388172817
 21
314.3080804681587779
 31
0.0
  0
ARC
  5
329A9
  8
0
 10
6904.0244597676728517
 20
314.2597255214897132
 30
0.0
 40
0.9304999999999999
 50
90.0
 51
177.0211898270773077
  0
ARC
  5
329AA
  8
0
 10
6903.1072965496223333
 20
313.027704691089582
 30
0.0
 40
0.0786
 50
177.0211898270773077
 51
270.0
  0
LINE
  5
329AB
  8
0
 10
6903.3700326959033191
 20
312.9491046910895875
 30
0.0
 11
6903.2814992649018677
 21
312.8605711435362196
 31
0.0
  0
LINE
  5
329AC
  8
0
 10
6903.237991265279561
 20
312.7672647163361148
 30
0.0
 11
6903.2296299454028485
 21
312.671666001389724
 31
0.0
  0
ARC
  5
329AD
  8
0
 10
6636.3099821680971218
 20
314.0483063206473275
 30
0.0
 40
266.9231977706867838
 50
358.0598678546309088
 51
359.7044991573027914
  0
ARC
  5
329AE
  8
0
 10
6903.3879189055196548
 20
312.7541516430169963
 30
0.0
 40
0.1505
 50
135.0000377142353898
 51
175.0014774040226939
  0
LINE
  5
329AF
  8
0
 10
6903.237991265279561
 20
312.7672647163361148
 30
0.0
 11
6916.4317860539104004
 21
312.7672647163361148
 31
0.0
  0
LINE
  5
329B0
  8
0
 10
6910.6572030252509649
 20
305.2991922414897203
 30
0.0
 11
6909.0125742939380871
 21
305.2991922414897203
 31
0.0
  0
LINE
  5
329B1
  8
0
 10
6902.5198549829410695
 20
303.7015176079896719
 30
0.0
 11
6917.149922336248892
 21
303.7015176079896719
 31
0.0
  0
LINE
  5
329B2
  8
0
 10
6902.4414544886312797
 20
303.7870770898986166
 30
0.0
 11
6902.5239591125300649
 21
304.7300642399893036
 31
0.0
  0
ARC
  5
329B3
  8
0
 10
6902.5198549829410695
 20
303.7802176079895844
 30
0.0
 40
0.0787
 50
174.9997625202437916
 51
270.0
  0
ARC
  5
329B4
  8
0
 10
6910.5857694486439868
 20
202.6038827463671055
 30
0.0
 40
102.707358720267905
 50
90.8776485819793152
 51
92.1201656133065825
  0
ARC
  5
329B5
  8
0
 10
6909.85202659587776
 20
224.8796725259713867
 30
0.0
 40
80.4197243691186685
 50
92.1849009484509594
 51
93.3123384742904847
  0
ARC
  5
329B6
  8
0
 10
6909.8566351554100038
 20
224.800043954670798
 30
0.0
 40
80.4994861907398018
 50
93.3123384742904847
 51
94.5027625888152585
  0
ARC
  5
329B7
  8
0
 10
6904.1908386884706488
 20
294.8328846604999853
 30
0.0
 40
10.2390949234741502
 50
93.6620797573115453
 51
98.0801832470122861
  0
ARC
  5
329B8
  8
0
 10
6902.7890464255624465
 20
304.7068709981090251
 30
0.0
 40
0.2661
 50
98.0801832470122861
 51
174.9997625202437916
  0
LINE
  5
329B9
  8
0
 10
6916.7952792057849365
 20
303.4668403958896761
 30
0.0
 11
6902.8744981134041154
 21
303.4668403958896761
 31
0.0
  0
LINE
  5
329BA
  8
0
 10
6902.8144981134037153
 20
303.541840394396786
 30
0.0
 11
6902.8144981134037153
 21
303.5268403958896783
 31
0.0
  0
LINE
  5
329BB
  8
0
 10
6902.8572824933044103
 20
303.7015176079896719
 30
0.0
 11
6902.8144981134037153
 21
303.541840394396786
 31
0.0
  0
LINE
  5
329BC
  8
0
 10
6902.8144981134037153
 20
303.541840394396786
 30
0.0
 11
6916.8552792057853367
 21
303.541840394396786
 31
0.0
  0
ARC
  5
329BD
  8
0
 10
6902.8744981134041154
 20
303.5268403958896783
 30
0.0
 40
0.06
 50
180.0
 51
270.0
  0
LINE
  5
329BE
  8
0
 10
6916.7244572752142631
 20
303.1468403958896829
 30
0.0
 11
6902.9453200439747889
 21
303.1468403958896829
 31
0.0
  0
ARC
  5
329BF
  8
0
 10
6906.566312184326307
 20
303.2468403958897056
 30
0.0
 40
0.1
 50
270.0
 51
357.000012889861523
  0
ARC
  5
329C0
  8
0
 10
6930.7721206587866618
 20
302.0411612174647189
 30
0.0
 40
28.1384617282471901
 50
178.3415583942353919
 51
180.4679577160696056
  0
ARC
  5
329C1
  8
0
 10
6929.7364667326455674
 20
302.896556505849901
 30
0.0
 40
27.123587560426401
 50
182.2930080516713929
 51
185.2691742258174941
  0
ARC
  5
329C2
  8
0
 10
6912.2262982598658709
 20
301.0459938300772933
 30
0.0
 40
9.5203598748572968
 50
183.8565585492486036
 51
199.9224153058816
  0
ARC
  5
329C3
  8
0
 10
6908.1451388924151615
 20
299.7224038427908113
 30
0.0
 40
5.2344720148200867
 50
201.5236170047228086
 51
214.2913323552544114
  0
ARC
  5
329C4
  8
0
 10
6904.6452826535823988
 20
297.3379737084604812
 30
0.0
 40
0.9995596289886792
 50
214.397137708362294
 51
257.8442531286984263
  0
ARC
  5
329C5
  8
0
 10
6905.7122207015818276
 20
307.7447452480600987
 30
0.0
 40
11.4553664673099806
 50
263.5974952366789239
 51
270.5320936752606258
  0
ARC
  5
329C6
  8
0
 10
6907.8267456876956203
 20
612.9596229946047288
 30
0.0
 40
316.6761174342274217
 50
269.6366669863850802
 51
270.3633330136149198
  0
ARC
  5
329C7
  8
0
 10
6902.9453200439747889
 20
302.8468403958897284
 30
0.0
 40
0.3
 50
90.0
 51
178.3415583942386036
  0
LINE
  5
329C8
  8
0
 10
6902.9949382649429026
 20
303.4668403958896761
 30
0.0
 11
6902.9848026766621842
 21
303.1468403958896829
 31
0.0
  0
LINE
  5
329C9
  8
0
 10
6904.8417226204173858
 20
303.2068258667200098
 30
0.0
 11
6903.4733888448008656
 21
303.2068258667200098
 31
0.0
  0
ARC
  5
329CA
  8
0
 10
6903.1418765748821897
 20
303.2359861181188876
 30
0.0
 40
0.2389965414111414
 50
12.0619364630287897
 51
75.0012468278616211
  0
ARC
  5
329CB
  8
0
 10
6905.148279311780243
 20
303.1448161966960129
 30
0.0
 40
0.246733526214093
 50
139.8514393288826057
 51
152.1443578094389011
  0
ARC
  5
329CC
  8
0
 10
6904.8417226204173858
 20
303.3068258667199757
 30
0.0
 40
0.1
 50
270.0
 51
332.1443578094360873
  0
ARC
  5
329CD
  8
0
 10
6903.4733888448008656
 20
303.3068258667199757
 30
0.0
 40
0.1
 50
192.0619364630287862
 51
270.0
  0
ARC
  5
329CE
  8
0
 10
6902.6675683067342106
 20
299.3268415774672917
 30
0.0
 40
4.5902945613540753
 50
56.3244013330282698
 51
64.4092998498649365
  0
ARC
  5
329CF
  8
0
 10
6905.0889993031378253
 20
303.2659780973830266
 30
0.0
 40
0.2010434616423603
 50
42.5046029398952072
 51
87.5674589049132948
  0
ARC
  5
329D0
  8
0
 10
6905.0750395803706851
 20
303.2531843049445115
 30
0.0
 40
0.2199790098169907
 50
13.1420993337259109
 51
42.5046029398952072
  0
ARC
  5
329D1
  8
0
 10
6905.0121101750110029
 20
303.2384914225278862
 30
0.0
 40
0.2846009167271296
 50
1.243882931151703
 51
13.1420993337259109
  0
ARC
  5
329D2
  8
0
 10
6905.396620460685881
 20
303.2468403958897056
 30
0.0
 40
0.1
 50
181.2438829311516884
 51
270.0
  0
LINE
  5
329D3
  8
0
 10
6906.6779790795580993
 20
303.4668403958896761
 30
0.0
 11
6906.6661751389792698
 21
303.2416068227316259
 31
0.0
  0
ARC
  5
329D4
  8
0
 10
6909.273093469369087
 20
230.9841284216572035
 30
0.0
 40
72.2129307298255441
 50
90.8421729275345768
 51
92.1369201274561931
  0
ARC
  5
329D5
  8
0
 10
6913.7590601009851525
 20
-406.3794583107862195
 30
0.0
 40
709.5904008877655542
 50
90.3168582994771043
 51
90.4479257014499751
  0
ARC
  5
329D6
  8
0
 10
7062.3312855472913725
 20
305.6439067815268231
 30
0.0
 40
159.4524320104254969
 50
182.5463552485518051
 51
184.0245122205124062
  0
ARC
  5
329D7
  8
0
 10
7970.478856573739904
 20
369.5382054290622023
 30
0.0
 40
1069.8449254773349821
 50
184.0245122205124062
 51
184.288858967500687
  0
ARC
  5
329D8
  8
0
 10
6950.9889514511569359
 20
293.0817297100059022
 30
0.0
 40
47.4921197755905098
 50
184.28885896749739
 51
184.7133431285593872
  0
ARC
  5
329D9
  8
0
 10
6950.9889514511569359
 20
293.0817297100059022
 30
0.0
 40
47.4921197755905098
 50
185.3261453289862004
 51
186.0634473027668889
  0
ARC
  5
329DA
  8
0
 10
6904.0608463600738105
 20
288.0968403958897284
 30
0.0
 40
0.3
 50
186.0634473027637057
 51
270.0
  0
ARC
  5
329DB
  8
0
 10
6446.7371105598904251
 20
285.9489759568321006
 30
0.0
 40
457.1752735860666803
 50
0.2690069312109901
 51
1.3637014838288271
  0
ARC
  5
329DC
  8
0
 10
6904.2073419640737484
 20
288.0968403958897284
 30
0.0
 40
0.3
 50
180.2690069312239984
 51
270.0
  0
ARC
  5
329DD
  8
0
 10
6905.8192014751639363
 20
258.6546040248849749
 30
0.0
 40
46.4609254208473033
 50
91.5020957542026565
 51
92.4804686409715941
  0
ARC
  5
329DE
  8
0
 10
6905.1938459887087447
 20
279.3720125675022246
 30
0.0
 40
25.7343741512557784
 50
89.6299114631527232
 51
91.3193845371168607
  0
ARC
  5
329DF
  8
0
 10
6905.1277834158436235
 20
269.1445842873960146
 30
0.0
 40
35.9620157898863084
 50
88.4560155647062345
 51
89.6299114631527232
  0
ARC
  5
329E0
  8
0
 10
6894.0691145337095804
 20
-141.1326571914696046
 30
0.0
 40
446.3882686453194992
 50
88.2437316179245812
 51
88.4560155647062345
  0
ARC
  5
329E1
  8
0
 10
6909.3444815415623452
 20
357.0485655017239992
 30
0.0
 40
52.0270877406066603
 50
268.2437316179245954
 51
269.6958768145400995
  0
ARC
  5
329E2
  8
0
 10
6909.4450269699391356
 20
190.4646112324111868
 30
0.0
 40
114.5582187959978029
 50
89.8050120474953815
 51
90.1884058356972247
  0
ARC
  5
329E3
  8
0
 10
6904.7645616650643206
 20
303.1738377119957022
 30
0.0
 40
0.0686924475584954
 50
336.8576283925957
 51
28.7004063361087596
  0
LINE
  5
329E4
  8
0
 10
6904.023529747093562
 20
303.2068258667200098
 30
0.0
 11
6904.0152298596558467
 21
303.1468403958896829
 31
0.0
  0
LINE
  5
329E5
  8
0
 10
6904.0996833402414268
 20
303.2068258667200098
 30
0.0
 11
6904.1038081965907622
 21
303.1468403958896829
 31
0.0
  0
ARC
  5
329E6
  8
0
 10
6905.0525629019803091
 20
296.391613548363523
 30
0.0
 40
0.5915881094013289
 50
183.2753766091340992
 51
228.2053989989566105
  0
ARC
  5
329E7
  8
0
 10
6904.9238434124090418
 20
296.3583850496102059
 30
0.0
 40
0.486659625274937
 50
236.9300900350843904
 51
265.1074347344235207
  0
ARC
  5
329E8
  8
0
 10
6906.4103952134119027
 20
318.2716507926587042
 30
0.0
 40
22.4502156123563594
 50
266.097186371711814
 51
271.4753475467064732
  0
ARC
  5
329E9
  8
0
 10
6906.7847036689718152
 20
512.8122479423697087
 30
0.0
 40
216.9834660421215062
 50
270.0537917363918723
 51
270.8054460834143811
  0
ARC
  5
329EA
  8
0
 10
6903.9270749031365995
 20
289.0964568103656802
 30
0.0
 40
0.4943432632925926
 50
115.5063697214472
 51
116.8070272689251965
  0
ARC
  5
329EB
  8
0
 10
6903.7132159280663473
 20
289.514430764202416
 30
0.0
 40
0.0249543961582098
 50
111.346093298046199
 51
152.0920914651611895
  0
ARC
  5
329EC
  8
0
 10
6903.8592985867198877
 20
289.459729331164624
 30
0.0
 40
0.1807645632653643
 50
158.4553830800772971
 51
175.3428535496935012
  0
ARC
  5
329ED
  8
0
 10
6906.157186428604291
 20
289.1438906761896988
 30
0.0
 40
2.4999999999998721
 50
172.4029015362964969
 51
192.935917171625988
  0
ARC
  5
329EE
  8
0
 10
6904.6721522214402285
 20
288.7845508869460787
 30
0.0
 40
0.9723747498586819
 50
191.8882190468499971
 51
198.1942915925451985
  0
ARC
  5
329EF
  8
0
 10
6903.79066197555494
 20
288.4986285372324915
 30
0.0
 40
0.0458221486046677
 50
202.7124178612089054
 51
223.6817353165664031
  0
ARC
  5
329F0
  8
0
 10
6903.7748050250529559
 20
288.484160274494684
 30
0.0
 40
0.0243669638330654
 50
224.8301480810453938
 51
252.8638000829328121
  0
ARC
  5
329F1
  8
0
 10
6903.82294371444641
 20
288.6016591544781136
 30
0.0
 40
0.1512622900304768
 50
248.5486589730446951
 51
252.7998520741539892
  0
ARC
  5
329F2
  8
0
 10
6903.7787986898283634
 20
288.460791946724612
 30
0.0
 40
0.0036770744854983
 50
260.8484527075925143
 51
320.9206411402730055
  0
ARC
  5
329F3
  8
0
 10
6903.6484385877301975
 20
288.5162051443875271
 30
0.0
 40
0.1451860892958259
 50
336.569525520915704
 51
357.7639780768773221
  0
ARC
  5
329F4
  8
0
 10
6900.4064009111871201
 20
288.7011880275421163
 30
0.0
 40
3.3924743794409751
 50
356.7784419726809233
 51
3.185767818542355
  0
ARC
  5
329F5
  8
0
 10
6897.6106543896012226
 20
288.6336437470394003
 30
0.0
 40
6.1882787525079319
 50
2.3716224027138488
 51
6.6980360390238536
  0
ARC
  5
329F6
  8
0
 10
6902.6955000643820313
 20
289.2496255810582966
 30
0.0
 40
1.0664567803632561
 50
5.6934301343570146
 51
14.9593643370912499
  0
ARC
  5
329F7
  8
0
 10
6903.6776590346999001
 20
289.5105950245604163
 30
0.0
 40
0.0502385628359063
 50
16.5603187097001694
 51
36.6646904526647504
  0
ARC
  5
329F8
  8
0
 10
6903.7137364867930955
 20
289.5372641581458879
 30
0.0
 40
0.0053764006783187
 50
38.268576990962373
 51
85.0003293219420755
  0
ARC
  5
329F9
  8
0
 10
6903.6947407024781569
 20
289.5159395209064996
 30
0.0
 40
0.007002268500684
 50
108.2860474117331933
 51
149.8199032731511977
  0
ARC
  5
329FA
  8
0
 10
6903.6935051785940232
 20
289.5190190076592103
 30
0.0
 40
0.0036964258646006
 50
31.5563684383605292
 51
105.0772194912593989
  0
ARC
  5
329FB
  8
0
 10
6903.2536456244397414
 20
289.3474070236305238
 30
0.0
 40
0.4757895325545311
 50
5.6755770520318514
 51
21.3924863749405603
  0
ARC
  5
329FC
  8
0
 10
6898.0313154112927805
 20
288.6542690021479984
 30
0.0
 40
5.743681472999385
 50
1.744589124753539
 51
7.4043317754439064
  0
ARC
  5
329FD
  8
0
 10
6900.9506034913038093
 20
288.7015934376544806
 30
0.0
 40
2.8246117686531971
 50
356.4125895674807794
 51
2.587899261789782
  0
ARC
  5
329FE
  8
0
 10
6903.4950478218979697
 20
288.5492535651516164
 30
0.0
 40
0.2757143641530693
 50
347.5520660590015041
 51
354.9229277738621136
  0
ARC
  5
329FF
  8
0
 10
6903.7186586367615746
 20
288.4995789148737231
 30
0.0
 40
0.0466536514145869
 50
331.72570171228449
 51
347.9291944736718847
  0
ARC
  5
32A00
  8
0
 10
6903.7530089860620137
 20
288.4812880218627242
 30
0.0
 40
0.0077390881451301
 50
301.2253025426530826
 51
330.5194352021990767
  0
ARC
  5
32A01
  8
0
 10
6903.7554959115532256
 20
288.4776269359028902
 30
0.0
 40
0.003327002170836
 50
236.3182156791528996
 51
297.2830651411309191
  0
ARC
  5
32A02
  8
0
 10
6903.7699010851401908
 20
288.4942287799356109
 30
0.0
 40
0.0252840116169802
 50
211.7170924717989067
 51
230.0058784139486932
  0
LINE
  5
32A03
  8
0
 10
6910.7797692565845864
 20
315.2374403958896778
 30
0.0
 11
6910.7797692565845864
 21
315.1902255214895945
 31
0.0
  0
ARC
  5
32A04
  8
0
 10
6910.7403692565849269
 20
315.2374403958896778
 30
0.0
 40
0.0394
 50
359.9999999999902229
 51
90.0
  0
LINE
  5
32A05
  8
0
 10
6916.6409745669725453
 20
313.0317892679926217
 30
0.0
 11
6916.5745602803717702
 21
314.3080804681587779
 31
0.0
  0
ARC
  5
32A06
  8
0
 10
6915.6453175515152907
 20
314.2597255214897132
 30
0.0
 40
0.9304999999999999
 50
2.9788101729194651
 51
90.0
  0
ARC
  5
32A07
  8
0
 10
6916.5624807695667187
 20
313.027704691089582
 30
0.0
 40
0.0786
 50
270.0
 51
2.9788101729227181
  0
LINE
  5
32A08
  8
0
 10
6916.2997446232866423
 20
312.9491046910895875
 30
0.0
 11
6916.3882780542862747
 21
312.8605711435362196
 31
0.0
  0
LINE
  5
32A09
  8
0
 10
6916.4317860539104004
 20
312.7672647163361148
 30
0.0
 11
6916.4401473737852939
 21
312.671666001389724
 31
0.0
  0
ARC
  5
32A0A
  8
0
 10
7183.3597951510901112
 20
314.0483063206473275
 30
0.0
 40
266.9231977706867838
 50
180.2955008426972086
 51
181.9401321453690912
  0
ARC
  5
32A0B
  8
0
 10
6916.2818584136675781
 20
312.7541516430169963
 30
0.0
 40
0.1505
 50
4.9985225959772661
 51
44.9999622857645321
  0
LINE
  5
32A0C
  8
0
 10
6917.2283228305568628
 20
303.7870770898986166
 30
0.0
 11
6917.145818206658987
 21
304.7300642399893036
 31
0.0
  0
ARC
  5
32A0D
  8
0
 10
6917.149922336248892
 20
303.7802176079895844
 30
0.0
 40
0.0787
 50
270.0
 51
5.0002374797561711
  0
ARC
  5
32A0E
  8
0
 10
6909.0840078705441556
 20
202.6038827463671055
 30
0.0
 40
102.707358720267905
 50
87.8798343866934317
 51
89.1223514180207133
  0
ARC
  5
32A0F
  8
0
 10
6909.8177507233103825
 20
224.8796725259713867
 30
0.0
 40
80.4197243691186685
 50
86.6876615257095153
 51
87.8150990515490548
  0
ARC
  5
32A10
  8
0
 10
6909.8131421637799576
 20
224.800043954670798
 30
0.0
 40
80.4994861907398018
 50
85.4972374112366964
 51
86.6876615257095153
  0
ARC
  5
32A11
  8
0
 10
6915.4789386307165842
 20
294.8328846604999853
 30
0.0
 40
10.2390949234741502
 50
81.9198167529877281
 51
86.3379202426884262
  0
ARC
  5
32A12
  8
0
 10
6916.8807308936247864
 20
304.7068709981090251
 30
0.0
 40
0.2661
 50
5.0002374797561711
 51
81.9198167529877281
  0
LINE
  5
32A13
  8
0
 10
6916.8552792057853367
 20
303.541840394396786
 30
0.0
 11
6916.8552792057853367
 21
303.5268403958896783
 31
0.0
  0
LINE
  5
32A14
  8
0
 10
6916.8124948258873701
 20
303.7015176079896719
 30
0.0
 11
6916.8552792057853367
 21
303.541840394396786
 31
0.0
  0
ARC
  5
32A15
  8
0
 10
6916.7952792057849365
 20
303.5268403958896783
 30
0.0
 40
0.06
 50
270.0
 51
0.0
  0
ARC
  5
32A16
  8
0
 10
6913.1034651348609259
 20
303.2468403958897056
 30
0.0
 40
0.1
 50
182.9999871101385054
 51
270.0
  0
ARC
  5
32A17
  8
0
 10
6888.8976566603996616
 20
302.0411612174647189
 30
0.0
 40
28.1384617282471901
 50
359.5320422839303092
 51
1.658441605764633
  0
ARC
  5
32A18
  8
0
 10
6889.933310586544394
 20
302.896556505849901
 30
0.0
 40
27.123587560426401
 50
354.7308257741825059
 51
357.7069919483284934
  0
ARC
  5
32A19
  8
0
 10
6907.4434790593240905
 20
301.0459938300772933
 30
0.0
 40
9.5203598748572968
 50
340.0775846941184
 51
356.1434414507514248
  0
ARC
  5
32A1A
  8
0
 10
6911.5246384267729809
 20
299.7224038427908113
 30
0.0
 40
5.2344720148200867
 50
325.7086676447456171
 51
338.4763829952772198
  0
ARC
  5
32A1B
  8
0
 10
6915.0244946656057436
 20
297.3379737084604812
 30
0.0
 40
0.9995596289886792
 50
282.1557468713015737
 51
325.6028622916376207
  0
ARC
  5
32A1C
  8
0
 10
6913.9575566176072243
 20
307.7447452480600987
 30
0.0
 40
11.4553664673099806
 50
269.4679063247393742
 51
276.4025047633210761
  0
ARC
  5
32A1D
  8
0
 10
6911.8430316314934316
 20
612.9596229946047288
 30
0.0
 40
316.6761174342274217
 50
269.6366669863850802
 51
270.3633330136149198
  0
ARC
  5
32A1E
  8
0
 10
6916.7244572752142631
 20
302.8468403958897284
 30
0.0
 40
0.3
 50
1.6584416057613769
 51
90.0
  0
LINE
  5
32A1F
  8
0
 10
6916.6748390542461493
 20
303.4668403958896761
 30
0.0
 11
6916.6849746425250487
 21
303.1468403958896829
 31
0.0
  0
LINE
  5
32A20
  8
0
 10
6914.8280546987716662
 20
303.2068258667200098
 30
0.0
 11
6916.1963884743872768
 21
303.2068258667200098
 31
0.0
  0
ARC
  5
32A21
  8
0
 10
6916.5279007443059527
 20
303.2359861181188876
 30
0.0
 40
0.2389965414111414
 50
104.9987531721383931
 51
167.9380635369712138
  0
ARC
  5
32A22
  8
0
 10
6914.5214980074088089
 20
303.1448161966960129
 30
0.0
 40
0.246733526214093
 50
27.8556421905610314
 51
40.1485606711173517
  0
ARC
  5
32A23
  8
0
 10
6914.8280546987716662
 20
303.3068258667199757
 30
0.0
 40
0.1
 50
207.8556421905639127
 51
270.0
  0
ARC
  5
32A24
  8
0
 10
6916.1963884743872768
 20
303.3068258667199757
 30
0.0
 40
0.1
 50
270.0
 51
347.9380635369711854
  0
ARC
  5
32A25
  8
0
 10
6917.0022090124548413
 20
299.3268415774672917
 30
0.0
 40
4.5902945613540753
 50
115.5907001501350067
 51
123.6755986669716947
  0
ARC
  5
32A26
  8
0
 10
6914.5807780160521361
 20
303.2659780973830266
 30
0.0
 40
0.2010434616423603
 50
92.4325410950867052
 51
137.495397060104807
  0
ARC
  5
32A27
  8
0
 10
6914.5947377388183668
 20
303.2531843049445115
 30
0.0
 40
0.2199790098169907
 50
137.495397060104807
 51
166.8579006662741051
  0
ARC
  5
32A28
  8
0
 10
6914.6576671441780491
 20
303.2384914225278862
 30
0.0
 40
0.2846009167271296
 50
166.8579006662741051
 51
178.7561170688483116
  0
ARC
  5
32A29
  8
0
 10
6914.2731568585022615
 20
303.2468403958897056
 30
0.0
 40
0.1
 50
270.0
 51
358.7561170688483116
  0
LINE
  5
32A2A
  8
0
 10
6912.9917982396300431
 20
303.4668403958896761
 30
0.0
 11
6913.0036021802079631
 21
303.2416068227316259
 31
0.0
  0
ARC
  5
32A2B
  8
0
 10
6910.3966838498190555
 20
230.9841284216572035
 30
0.0
 40
72.2129307298255441
 50
87.8630798725438211
 51
89.1578270724654374
  0
ARC
  5
32A2C
  8
0
 10
6905.9107172182038994
 20
-406.3794583107862195
 30
0.0
 40
709.5904008877655542
 50
89.5520742985500249
 51
89.6831417005229099
  0
ARC
  5
32A2D
  8
0
 10
6757.3384917718958604
 20
305.6439067815268231
 30
0.0
 40
159.4524320104254969
 50
355.9754877794875938
 51
357.4536447514482234
  0
ARC
  5
32A2E
  8
0
 10
5849.1909207454482384
 20
369.5382054290622023
 30
0.0
 40
1069.8449254773349821
 50
355.711141032499313
 51
355.9754877794875938
  0
ARC
  5
32A2F
  8
0
 10
6868.680825868032116
 20
293.0817297100059022
 30
0.0
 40
47.4921197755905098
 50
355.2866568714405844
 51
355.7111410325024963
  0
ARC
  5
32A30
  8
0
 10
6868.680825868032116
 20
293.0817297100059022
 30
0.0
 40
47.4921197755905098
 50
353.9365526972330258
 51
354.673854671013828
  0
ARC
  5
32A31
  8
0
 10
6915.6089309591134224
 20
288.0968403958897284
 30
0.0
 40
0.3
 50
270.0
 51
353.9365526972363227
  0
ARC
  5
32A32
  8
0
 10
7372.9326667593004458
 20
285.9489759568321006
 30
0.0
 40
457.1752735860666803
 50
178.6362985161711094
 51
179.7309930687889903
  0
ARC
  5
32A33
  8
0
 10
6915.462435355114394
 20
288.0968403958897284
 30
0.0
 40
0.3
 50
270.0
 51
359.7309930687758879
  0
ARC
  5
32A34
  8
0
 10
6913.8505758440242062
 20
258.6546040248849749
 30
0.0
 40
46.4609254208473033
 50
87.5195313590283632
 51
88.4979042457973435
  0
ARC
  5
32A35
  8
0
 10
6914.4759313304803072
 20
279.3720125675022246
 30
0.0
 40
25.7343741512557784
 50
88.6806154628831536
 51
90.3700885368472768
  0
ARC
  5
32A36
  8
0
 10
6914.5419939033454284
 20
269.1445842873960146
 30
0.0
 40
35.9620157898863084
 50
90.3700885368472768
 51
91.5439844352937655
  0
ARC
  5
32A37
  8
0
 10
6925.600662785478562
 20
-141.1326571914696046
 30
0.0
 40
446.3882686453194992
 50
91.5439844352937655
 51
91.7562683820754046
  0
ARC
  5
32A38
  8
0
 10
6910.3252957776257972
 20
357.0485655017239992
 30
0.0
 40
52.0270877406066603
 50
270.3041231854600142
 51
271.7562683820754046
  0
ARC
  5
32A39
  8
0
 10
6910.2247503492490068
 20
190.4646112324111868
 30
0.0
 40
114.5582187959978029
 50
89.8115941643027753
 51
90.194987952504647
  0
ARC
  5
32A3A
  8
0
 10
6914.9052156541238219
 20
303.1738377119957022
 30
0.0
 40
0.0686924475584954
 50
151.2995936638911871
 51
203.1423716074041863
  0
LINE
  5
32A3B
  8
0
 10
6915.6462475720945804
 20
303.2068258667200098
 30
0.0
 11
6915.6545474595313863
 21
303.1468403958896829
 31
0.0
  0
LINE
  5
32A3C
  8
0
 10
6915.5700939789467157
 20
303.2068258667200098
 30
0.0
 11
6915.5659691225982897
 21
303.1468403958896829
 31
0.0
  0
ARC
  5
32A3D
  8
0
 10
6914.6172144172087428
 20
296.391613548363523
 30
0.0
 40
0.5915881094013289
 50
311.7946010010434179
 51
356.7246233908658724
  0
ARC
  5
32A3E
  8
0
 10
6914.7459339067809196
 20
296.3583850496102059
 30
0.0
 40
0.486659625274937
 50
274.8925652655764793
 51
303.0699099649154959
  0
ARC
  5
32A3F
  8
0
 10
6913.2593821057780588
 20
318.2716507926587042
 30
0.0
 40
22.4502156123563594
 50
268.5246524532935268
 51
273.902813628288186
  0
ARC
  5
32A40
  8
0
 10
6912.8850736502172367
 20
512.8122479423697087
 30
0.0
 40
216.9834660421215062
 50
269.1945539165856189
 51
269.9462082636081277
  0
ARC
  5
32A41
  8
0
 10
6915.7427024160506335
 20
289.0964568103656802
 30
0.0
 40
0.4943432632925926
 50
63.1929727310748319
 51
64.4936302785527289
  0
ARC
  5
32A42
  8
0
 10
6915.9565613911227047
 20
289.514430764202416
 30
0.0
 40
0.0249543961582098
 50
27.9079085348387608
 51
68.6539067019538152
  0
ARC
  5
32A43
  8
0
 10
6915.8104787324691642
 20
289.459729331164624
 30
0.0
 40
0.1807645632653643
 50
4.6571464503065272
 51
21.5446169199227207
  0
ARC
  5
32A44
  8
0
 10
6913.5125908905865799
 20
289.1438906761895851
 30
0.0
 40
2.4999999999995479
 50
347.0641044598082203
 51
7.597058988666169
  0
ARC
  5
32A45
  8
0
 10
6914.9976250977470045
 20
288.7845508869460787
 30
0.0
 40
0.9723747498586819
 50
341.8057084074546879
 51
348.1117809531498892
  0
ARC
  5
32A46
  8
0
 10
6915.8791153436341119
 20
288.4986285372324915
 30
0.0
 40
0.0458221486046677
 50
316.3182646834335969
 51
337.2875821387910946
  0
ARC
  5
32A47
  8
0
 10
6915.894972294136096
 20
288.484160274494684
 30
0.0
 40
0.0243669638330654
 50
287.1361999170673016
 51
315.1698519189545777
  0
ARC
  5
32A48
  8
0
 10
6915.8468336047426419
 20
288.6016591544781136
 30
0.0
 40
0.1512622900304768
 50
287.2001479258458971
 51
291.4513410269552764
  0
ARC
  5
32A49
  8
0
 10
6915.890978629359779
 20
288.460791946724612
 30
0.0
 40
0.0036770744854983
 50
219.0793588597269945
 51
279.1515472924074857
  0
ARC
  5
32A4A
  8
0
 10
6916.021338731457945
 20
288.5162051443875271
 30
0.0
 40
0.1451860892958259
 50
182.2360219231227063
 51
203.430474479084296
  0
ARC
  5
32A4B
  8
0
 10
6919.2633764080010224
 20
288.7011880275421163
 30
0.0
 40
3.3924743794409751
 50
176.8142321814576121
 51
183.2215580273189914
  0
ARC
  5
32A4C
  8
0
 10
6922.0591229295878293
 20
288.6336437470394003
 30
0.0
 40
6.1882787525079319
 50
173.30196396097611
 51
177.6283775972860894
  0
ARC
  5
32A4D
  8
0
 10
6916.9742772548079301
 20
289.2496255810582966
 30
0.0
 40
1.0664567803632561
 50
165.0406356629086986
 51
174.3065698656430129
  0
ARC
  5
32A4E
  8
0
 10
6915.9921182844891518
 20
289.5105950245604163
 30
0.0
 40
0.0502385628359063
 50
143.3353095473352141
 51
163.4396812902998022
  0
ARC
  5
32A4F
  8
0
 10
6915.9560408323950469
 20
289.5372641581458879
 30
0.0
 40
0.0053764006783187
 50
94.999670678057953
 51
141.7314230090375986
  0
ARC
  5
32A50
  8
0
 10
6915.9750366167099855
 20
289.5159395209064996
 30
0.0
 40
0.007002268500684
 50
30.1800967268488485
 51
71.7139525882667499
  0
ARC
  5
32A51
  8
0
 10
6915.9762721405941193
 20
289.5190190076592103
 30
0.0
 40
0.0036964258646006
 50
74.9227805087405443
 51
148.4436315616395063
  0
ARC
  5
32A52
  8
0
 10
6916.4161316947493106
 20
289.3474070236305238
 30
0.0
 40
0.4757895325545311
 50
158.6075136250593971
 51
174.3244229479680882
  0
ARC
  5
32A53
  8
0
 10
6921.6384619078962714
 20
288.6542690021479984
 30
0.0
 40
5.743681472999385
 50
172.5956682245559932
 51
178.255410875246497
  0
ARC
  5
32A54
  8
0
 10
6918.7191738278852426
 20
288.7015934376544806
 30
0.0
 40
2.8246117686531971
 50
177.4121007382101993
 51
183.587410432519107
  0
ARC
  5
32A55
  8
0
 10
6916.1747294972892632
 20
288.5492535651516164
 30
0.0
 40
0.2757143641530693
 50
185.0770722261345895
 51
192.4479339409984959
  0
ARC
  5
32A56
  8
0
 10
6915.9511186824256583
 20
288.4995789148737231
 30
0.0
 40
0.0466536514145869
 50
192.0708055263280869
 51
208.2742982877153963
  0
ARC
  5
32A57
  8
0
 10
6915.9167683331261287
 20
288.4812880218627242
 30
0.0
 40
0.0077390881451301
 50
209.4805647978008949
 51
238.7746974573468037
  0
ARC
  5
32A58
  8
0
 10
6915.9142814076358263
 20
288.4776269359028902
 30
0.0
 40
0.003327002170836
 50
242.7169348588689957
 51
303.6817843208471004
  0
ARC
  5
32A59
  8
0
 10
6915.8998762340488611
 20
288.4942287799356109
 30
0.0
 40
0.0252840116169802
 50
309.9941215860512216
 51
328.2829075282010081
  0
ARC
  5
32A5A
  8
0
 10
6908.2778509069539723
 20
294.5848223194042248
 30
0.0
 40
5.0719271211998498
 50
174.4650977568473138
 51
176.0944709924617086
  0
ARC
  5
32A5B
  8
0
 10
6908.2778509069539723
 20
294.5848223194042248
 30
0.0
 40
5.0719271211998498
 50
192.242806895204609
 51
193.5367550539945967
  0
ARC
  5
32A5C
  8
0
 10
6907.4568278358983662
 20
294.5249819492385086
 30
0.0
 40
4.258456464681954
 50
174.5386256774617948
 51
193.7986522102042102
  0
LINE
  5
32A5D
  8
0
 10
6904.5144794135103439
 20
312.9491046910895875
 30
0.0
 11
6904.461724929103184
 21
312.8604456282895967
 31
0.0
  0
ARC
  5
32A5E
  8
0
 10
6904.6256018971052981
 20
312.764440800153011
 30
0.0
 40
0.1899278485819523
 50
149.6367442877914868
 51
179.148074164988202
  0
ARC
  5
32A5F
  8
0
 10
6950.0616744273947916
 20
311.2866255932484023
 30
0.0
 40
45.6499976668226495
 50
178.1413086867192135
 51
179.8713814349947029
  0
ARC
  5
32A60
  8
0
 10
7079.4949455975202
 20
310.9960710409441731
 30
0.0
 40
175.0835949580466888
 50
179.8713814349947029
 51
180.3282995018415988
  0
ARC
  5
32A61
  8
0
 10
6824.8461181913044129
 20
309.5369409125030984
 30
0.0
 40
79.5694127997497986
 50
356.808452415349393
 51
0.3282995018416129
  0
LINE
  5
32A62
  8
0
 10
6915.155297905678708
 20
312.9491046910895875
 30
0.0
 11
6915.208052390084049
 21
312.8604456282895967
 31
0.0
  0
ARC
  5
32A63
  8
0
 10
6915.0441754220828443
 20
312.764440800153011
 30
0.0
 40
0.1899278485819523
 50
0.851925835011816
 51
30.3632557122084883
  0
ARC
  5
32A64
  8
0
 10
6869.6081028917933509
 20
311.2866255932484023
 30
0.0
 40
45.6499976668226495
 50
0.1286185650052323
 51
1.858691313280771
  0
ARC
  5
32A65
  8
0
 10
6994.8236591278837295
 20
309.5369409125030984
 30
0.0
 40
79.5694127997497986
 50
179.6717004981584012
 51
183.191547584650607
  0
ARC
  5
32A66
  8
0
 10
6740.1748317216679425
 20
310.9960710409441731
 30
0.0
 40
175.0835949580466888
 50
359.6717004981583727
 51
0.1286185650052323
  0
ENDSEC
  0
EOF
