  0
SECTION
  2
HEADER
  9
$ACADVER
  1
AC1009
  9
$INSBASE
 10
6940.2376223516403115
 20
282.8734685414082151
 30
0.0
  9
$EXTMIN
 10
6911.3287613544407577
 20
282.8496479097536849
 30
-0.0000000000112498
  9
$EXTMAX
 10
6940.4511565498205528
 20
310.3636518706707079
 30
0.0000000000002956
  9
$LIMMIN
 10
0.0
 20
0.0
  9
$LIMMAX
 10
11.6929133858000007
 20
8.2677165353999982
  9
$ORTHOMODE
 70
     0
  9
$REGENMODE
 70
     1
  9
$FILLMODE
 70
     1
  9
$QTEXTMODE
 70
     0
  9
$MIRRTEXT
 70
     0
  9
$DRAGMODE
 70
     2
  9
$LTSCALE
 40
0.6431102362
  9
$OSMODE
 70
  4095
  9
$ATTMODE
 70
     1
  9
$TEXTSIZE
 40
0.2
  9
$TRACEWID
 40
0.05
  9
$TEXTSTYLE
  7
STANDARD
  9
$CLAYER
  8
0
  9
$CELTYPE
  6
BYLAYER
  9
$CECOLOR
 62
   256
  9
$DIMSCALE
 40
1.0
  9
$DIMASZ
 40
0.1875
  9
$DIMEXO
 40
0.0625
  9
$DIMDLI
 40
0.4443307087
  9
$DIMRND
 40
0.0
  9
$DIMDLE
 40
0.0
  9
$DIMEXE
 40
0.125
  9
$DIMTP
 40
0.01
  9
$DIMTM
 40
0.01
  9
$DIMTXT
 40
2.0
  9
$DIMCEN
 40
0.1052362205
  9
$DIMTSZ
 40
0.0
  9
$DIMTOL
 70
     1
  9
$DIMLIM
 70
     0
  9
$DIMTIH
 70
     1
  9
$DIMTOH
 70
     1
  9
$DIMSE1
 70
     0
  9
$DIMSE2
 70
     0
  9
$DIMTAD
 70
     0
  9
$DIMZIN
 70
     0
  9
$DIMBLK
  1

  9
$DIMASO
 70
     1
  9
$DIMSHO
 70
     1
  9
$DIMPOST
  1
\X
  9
$DIMAPOST
  1

  9
$DIMALT
 70
     1
  9
$DIMALTD
 70
     2
  9
$DIMALTF
 40
25.3999999999999986
  9
$DIMLFAC
 40
1.0
  9
$DIMTOFL
 70
     0
  9
$DIMTVP
 40
0.0
  9
$DIMTIX
 70
     0
  9
$DIMSOXD
 70
     0
  9
$DIMSAH
 70
     0
  9
$DIMBLK1
  1

  9
$DIMBLK2
  1

  9
$DIMSTYLE
  2
STANDARD
  9
$DIMCLRD
 70
     0
  9
$DIMCLRE
 70
     0
  9
$DIMCLRT
 70
     0
  9
$DIMTFAC
 40
1.0
  9
$DIMGAP
 40
0.09
  9
$LUNITS
 70
     2
  9
$LUPREC
 70
     4
  9
$SKETCHINC
 40
0.1
  9
$FILLETRAD
 40
0.0787
  9
$AUNITS
 70
     0
  9
$AUPREC
 70
     0
  9
$MENU
  1
.
  9
$ELEVATION
 40
0.0
  9
$PELEVATION
 40
0.0
  9
$THICKNESS
 40
0.0
  9
$LIMCHECK
 70
     0
  9
$BLIPMODE
 70
     0
  9
$CHAMFERA
 40
0.0
  9
$CHAMFERB
 40
0.0
  9
$SKPOLY
 70
     0
  9
$TDCREATE
 40
2458060.468368056230247
  9
$TDUPDATE
 40
2460462.531539352145046
  9
$TDINDWG
 40
1.2494052083
  9
$TDUSRTIMER
 40
1.2494052083
  9
$USRTIMER
 70
     1
  9
$ANGBASE
 50
0.0
  9
$ANGDIR
 70
     0
  9
$PDMODE
 70
     0
  9
$PDSIZE
 40
0.3125
  9
$PLINEWID
 40
0.0
  9
$COORDS
 70
     1
  9
$SPLFRAME
 70
     0
  9
$SPLINETYPE
 70
     6
  9
$SPLINESEGS
 70
     8
  9
$ATTDIA
 70
     1
  9
$ATTREQ
 70
     1
  9
$HANDLING
 70
     1
  9
$HANDSEED
  5
317D8
  9
$SURFTAB1
 70
     6
  9
$SURFTAB2
 70
     6
  9
$SURFTYPE
 70
     6
  9
$SURFU
 70
     6
  9
$SURFV
 70
     6
  9
$UCSNAME
  2

  9
$UCSORG
 10
0.0
 20
0.0
 30
0.0
  9
$UCSXDIR
 10
1.0
 20
0.0
 30
0.0
  9
$UCSYDIR
 10
0.0
 20
1.0
 30
0.0
  9
$PUCSNAME
  2

  9
$PUCSORG
 10
0.0
 20
0.0
 30
0.0
  9
$PUCSXDIR
 10
1.0
 20
0.0
 30
0.0
  9
$PUCSYDIR
 10
0.0
 20
1.0
 30
0.0
  9
$USERI1
 70
     0
  9
$USERI2
 70
     0
  9
$USERI3
 70
     0
  9
$USERI4
 70
     0
  9
$USERI5
 70
     0
  9
$USERR1
 40
0.0
  9
$USERR2
 40
0.0
  9
$USERR3
 40
0.0
  9
$USERR4
 40
0.0
  9
$USERR5
 40
0.0
  9
$WORLDVIEW
 70
     1
  9
$SHADEDGE
 70
     3
  9
$SHADEDIF
 70
    70
  9
$TILEMODE
 70
     1
  9
$MAXACTVP
 70
    64
  9
$PLIMCHECK
 70
     0
  9
$PEXTMIN
 10
1.0000000000000000E+20
 20
1.0000000000000000E+20
 30
1.0000000000000000E+20
  9
$PEXTMAX
 10
-1.0000000000000000E+20
 20
-1.0000000000000000E+20
 30
-1.0000000000000000E+20
  9
$PLIMMIN
 10
0.0
 20
0.0
  9
$PLIMMAX
 10
12.0
 20
9.0
  9
$UNITMODE
 70
     0
  9
$VISRETAIN
 70
     1
  9
$PLINEGEN
 70
     0
  9
$PSLTSCALE
 70
     1
  0
ENDSEC
  0
SECTION
  2
TABLES
  0
TABLE
  2
VPORT
 70
     1
  0
VPORT
  2
*ACTIVE
 70
     0
 10
0.0
 20
0.0
 11
1.0
 21
1.0
 12
3014.5246025068190647
 22
164.0270447876731055
 13
0.0
 23
0.0
 14
1.0
 24
1.0
 15
0.0
 25
0.0
 16
0.0
 26
0.0
 36
60.4960186965801583
 17
3911.3653564453120453
 27
132.5796051025390057
 37
0.0
 40
27.7607663282794306
 41
2.8398203592814371
 42
50.0
 43
0.0
 44
0.0
 50
0.0
 51
0.0
 71
     0
 72
   100
 73
     1
 74
     1
 75
     0
 76
     0
 77
     0
 78
     0
  0
ENDTAB
  0
TABLE
  2
LTYPE
 70
     2
  0
LTYPE
  2
CONTINUOUS
 70
     0
  3
Solid line
 72
    65
 73
     0
 40
0.0
  0
LTYPE
  2
PHANTOM2
 70
     0
  3
___ _ _ ___ _ _ ___ _ _ ___ _ _
 72
    65
 73
     6
 40
1.25
 49
0.625
 49
-0.125
 49
0.125
 49
-0.125
 49
0.125
 49
-0.125
  0
ENDTAB
  0
TABLE
  2
LAYER
 70
     2
  0
LAYER
  2
0
 70
     0
 62
   255
  6
CONTINUOUS
  0
LAYER
  2
DEFPOINTS
 70
     0
 62
     7
  6
CONTINUOUS
  0
ENDTAB
  0
TABLE
  2
STYLE
 70
     1
  0
STYLE
  2
STANDARD
 70
     0
 40
0.0
 41
0.8
 50
0.0
 71
     0
 42
0.2
  3
txt
  4

  0
ENDTAB
  0
TABLE
  2
VIEW
 70
     0
  0
ENDTAB
  0
TABLE
  2
UCS
 70
     0
  0
ENDTAB
  0
TABLE
  2
APPID
 70
    11
  0
APPID
  2
ACAD
 70
     0
  0
APPID
  2
ACAD_MLEADERVER
 70
     0
  0
APPID
  2
ACAD_EXEMPT_FROM_CAD_STANDARDS
 70
     0
  0
APPID
  2
ACAD_NAV_VCDISPLAY
 70
     0
  0
APPID
  2
ACAECLAYERSTANDARD
 70
     0
  0
APPID
  2
ACCMTRANSPARENCY
 70
     0
  0
APPID
  2
ACAD_DSTYLE_DIMJAG
 70
     0
  0
APPID
  2
ACAD_DSTYLE_DIMTALN
 70
     0
  0
APPID
  2
ACDBATTR
 70
     0
  0
APPID
  2
ACADANNOTATIVE
 70
     0
  0
APPID
  2
DCO15
 70
     0
  0
ENDTAB
  0
TABLE
  2
DIMSTYLE
 70
     1
  0
DIMSTYLE
  2
STANDARD
 70
     0
  3

  4

  5

  6

  7

 40
1.0
 41
0.1875
 42
0.0625
 43
0.38
 44
0.125
 45
0.0
 46
0.0
 47
0.01
 48
0.01
140
0.15625
141
0.09
142
0.0
143
25.3999999999999986
144
1.0
145
0.0
146
1.0
147
0.09
 71
     1
 72
     0
 73
     1
 74
     1
 75
     0
 76
     0
 77
     0
 78
     4
170
     0
171
     2
172
     0
173
     0
174
     0
175
     0
176
     0
177
     0
178
     0
  0
ENDTAB
  0
ENDSEC
  0
SECTION
  2
BLOCKS
  0
BLOCK
  8
0
  2
$MODEL_SPACE
 70
     0
 10
0.0
 20
0.0
 30
0.0
  3
$MODEL_SPACE
  1

  0
ENDBLK
  5
21
  8
0
  0
BLOCK
 67
     1
  8
0
  2
$PAPER_SPACE
 70
     0
 10
0.0
 20
0.0
 30
0.0
  3
$PAPER_SPACE
  1

  0
ENDBLK
  5
1D
 67
     1
  8
0
  0
BLOCK
  8
0
  2
_FILLED
 70
     0
 10
0.0
 20
0.0
 30
0.0
  3
_FILLED
  1

  0
SOLID
  5
2E9D1
  8
0
  6
BYBLOCK
 62
     0
 10
0.0
 20
0.0
 30
0.0
 11
-1.0
 21
0.1666666667
 31
0.0
 12
-1.0
 22
-0.1666666667
 32
0.0
 13
-1.0
 23
-0.1666666667
 33
0.0
  0
ENDBLK
  5
2E9D2
  8
0
  6
BYBLOCK
 62
     0
  0
ENDSEC
  0
SECTION
  2
ENTITIES
  0
ATTDEF
  5
26A5B
  8
DEFPOINTS
 10
6940.2279903155931606
 20
282.870709294979406
 30
0.0
 40
0.001
  1
K-17629T-NS
  3

  2
MODELNUMBER
 70
     0
1001
ACDBATTR
1070
     0
1070
     1
  0
ATTDEF
  5
26A5C
  8
DEFPOINTS
 10
6940.227864505935031
 20
282.869042454600276
 30
0.0
 40
0.001
  1
OVE/QUIET-CLOSE
  3

  2
TRADENAME
 70
     0
1001
ACDBATTR
1070
     0
1070
     1
  0
ATTDEF
  5
26A5D
  8
DEFPOINTS
 10
6940.2279903155931606
 20
282.8673759616460188
 30
0.0
 40
0.001
  1
TOILET
  3

  2
PRODUCT
 70
     0
1001
ACDBATTR
1070
     0
1070
     1
  0
LINE
  5
3152B
  8
0
 10
6916.5842809641499116
 20
282.8734685414082151
 30
0.0
 11
6939.9376223516401296
 21
282.8734685414082151
 31
0.0
  0
LINE
  5
3152C
  8
0
 10
6932.7705964076731107
 20
310.2668536670082062
 30
0.0
 11
6939.0556575698346933
 21
310.2668536670082062
 31
0.0
  0
ARC
  5
3152D
  8
0
 10
6939.0556575698346933
 20
309.2825536670081874
 30
0.0
 40
0.9843
 50
8.7908562875519998
 51
90.0
  0
LINE
  5
3152E
  8
0
 10
6935.0475490623393853
 20
310.3534685414082901
 30
0.0
 11
6936.8585128418399108
 21
310.3534685414082901
 31
0.0
  0
LINE
  5
3152F
  8
0
 10
6931.7805870000138384
 20
308.0257328366081992
 30
0.0
 11
6940.1137369565285553
 21
308.0257328366081992
 31
0.0
  0
LINE
  5
31530
  8
0
 10
6931.6906035410338518
 20
307.8438928618546129
 30
0.0
 11
6939.9314154256362599
 21
307.8438928618546129
 31
0.0
  0
LINE
  5
31531
  8
0
 10
6917.2680314401150099
 20
300.3758203870082184
 30
0.0
 11
6919.9174373897876649
 21
300.3758203870082184
 31
0.0
  0
LINE
  5
31532
  8
0
 10
6911.5709433966430879
 20
298.7781457535082268
 30
0.0
 11
6928.736548463399231
 21
298.7781457535082268
 31
0.0
  0
LINE
  5
31533
  8
0
 10
6911.904713374820858
 20
298.5434685414081741
 30
0.0
 11
6928.0197670651386943
 21
298.5434685414081741
 31
0.0
  0
LINE
  5
31534
  8
0
 10
6911.8447133748195483
 20
298.6184685399153977
 30
0.0
 11
6928.2916853461383653
 21
298.6184685399153977
 31
0.0
  0
LINE
  5
31535
  8
0
 10
6912.1149843058819897
 20
298.223468541408181
 30
0.0
 11
6931.1676767092430964
 21
298.223468541408181
 31
0.0
  0
LINE
  5
31536
  8
0
 10
6924.1226846706058495
 20
298.2834540122386215
 30
0.0
 11
6924.5977208549402349
 21
298.2834540122386215
 31
0.0
  0
LINE
  5
31537
  8
0
 10
6914.221902577021865
 20
291.3665009033489923
 30
0.0
 11
6919.6578901329730797
 21
291.3665009033489923
 31
0.0
  0
LINE
  5
31538
  8
0
 10
6931.7886839832372061
 20
309.3510699478550237
 30
0.0
 11
6931.7020778993301064
 21
308.1099110762735904
 31
0.0
  0
ARC
  5
31539
  8
0
 10
6932.7705964076731107
 20
309.2825536670081874
 30
0.0
 40
0.9843
 50
90.0
 51
176.0084619180614993
  0
LINE
  5
3153A
  8
0
 10
6940.0283947846819501
 20
309.4329823905010812
 30
0.0
 11
6940.2081073703020593
 21
308.2708830523607162
 31
0.0
  0
LINE
  5
3153B
  8
0
 10
6935.0081490623397258
 20
310.3140685414082895
 30
0.0
 11
6935.0081490623397258
 21
310.2668536670082062
 31
0.0
  0
LINE
  5
3153C
  8
0
 10
6936.8979128418395703
 20
310.3140685414082895
 30
0.0
 11
6936.8979128418395703
 21
310.2668536670082062
 31
0.0
  0
ARC
  5
3153D
  8
0
 10
6936.8585128418399108
 20
310.3140685414082895
 30
0.0
 40
0.0394
 50
0.0
 51
90.0
  0
ARC
  5
3153E
  8
0
 10
6935.0475490623393853
 20
310.3140685414082895
 30
0.0
 40
0.0394
 50
90.0
 51
180.0000000000098055
  0
ARC
  5
31540
  8
0
 10
6940.4583447124950908
 20
308.16061667046921
 30
0.0
 40
0.2558615410843808
 50
169.2004861439123999
 51
184.0551821495072886
  0
ARC
  5
31541
  8
0
 10
6924.6292781135080077
 20
305.9039896637789866
 30
0.0
 40
15.7339028412934692
 50
8.1361856742989218
 51
8.1794833333026542
  0
ARC
  5
31542
  8
0
 10
6940.1137369565285553
 20
308.1177328366081838
 30
0.0
 40
0.092
 50
270.0
 51
8.1361856743053682
  0
ARC
  5
31543
  8
0
 10
6940.0270594603498466
 20
308.2428849398501143
 30
0.0
 40
0.1832
 50
349.2004861443156756
 51
8.7908562874393485
  0
LINE
  5
31544
  8
0
 10
6931.7339831266663168
 20
307.9370729697347997
 30
0.0
 11
6931.8226429916394409
 21
308.0257328366081992
 31
0.0
  0
LINE
  5
31545
  8
0
 10
6931.6906198847400447
 20
307.8440796804190995
 30
0.0
 11
6931.6822542922400316
 21
307.7484558427082106
 31
0.0
  0
ARC
  5
31546
  8
0
 10
6995.1614768180679675
 20
302.1950151878556881
 30
0.0
 40
63.7216791648694425
 50
175.0002433583553909
 51
175.4485227151868116
  0
ARC
  5
31547
  8
0
 10
6972.0475470555111315
 20
304.0350176891975025
 30
0.0
 40
40.5346276430963925
 50
175.4485227151868116
 51
177.9026727794195892
  0
ARC
  5
31548
  8
0
 10
6966.3038830453406263
 20
304.4503110417891776
 30
0.0
 40
34.7802158317186567
 50
178.2400781453650893
 51
182.6536329286570037
  0
ARC
  5
31549
  8
0
 10
6897.4294534391619891
 20
300.7959721807628171
 30
0.0
 40
34.192663291189632
 50
358.2899200516860105
 51
3.4272595359733709
  0
ARC
  5
3154A
  8
0
 10
6890.4189535405757852
 20
302.6204409667827235
 30
0.0
 40
41.2860645893351972
 50
354.6451561045985841
 51
356.048857353105177
  0
ARC
  5
3154B
  8
0
 10
6930.927456995634202
 20
298.8234685414082037
 30
0.0
 40
0.6
 50
270.0
 51
354.6451561045985841
  0
ARC
  5
3154C
  8
0
 10
6931.8400491449801848
 20
307.8310069536933042
 30
0.0
 40
0.15
 50
135.0000006139044046
 51
175.0002433583586878
  0
ARC
  5
3154D
  8
0
 10
6940.0899934640028732
 20
308.0216023423740239
 30
0.0
 40
0.1495846129081834
 50
9.2751813289077685
 51
39.3127931388598029
  0
ARC
  5
3154E
  8
0
 10
6939.9165343600197957
 20
308.2285099617071182
 30
0.0
 40
0.3849048708613178
 50
272.2157028083905743
 51
326.5327224243966953
  0
ARC
  5
3154F
  8
0
 10
6917.3998545286885928
 20
250.9029704722885015
 30
0.0
 40
49.5131550892418417
 50
95.3912463210317441
 51
96.4903130938828042
  0
ARC
  5
31550
  8
0
 10
6915.8759356218952234
 20
265.6129517910816844
 30
0.0
 40
34.7253269580766784
 50
92.4382973946090658
 51
95.1683619066821933
  0
ARC
  5
31551
  8
0
 10
6917.8084839525554344
 20
218.1798573122106859
 30
0.0
 40
82.1977398394365082
 50
90.3767241187937742
 51
92.3775357191372564
  0
ARC
  5
31552
  8
0
 10
6897.2188617711417464
 20
-1680.3408247213410505
 30
0.0
 40
1980.846701172100893
 50
89.2038338170476663
 51
89.3434317522947339
  0
ARC
  5
31553
  8
0
 10
6939.2123937171390935
 20
1341.5123191853820117
 30
0.0
 40
1041.2982126373360643
 50
269.2038338170476095
 51
269.4317981044434873
  0
LINE
  5
31554
  8
0
 10
6911.5800033309506034
 20
299.8633825086029105
 30
0.0
 11
6911.4925428739043127
 21
298.863704910464719
 31
0.0
  0
ARC
  5
31555
  8
0
 10
6911.8432323441102199
 20
299.8373391285938965
 30
0.0
 40
0.2645142170298216
 50
98.7214924018923057
 51
174.3496528218632022
  0
ARC
  5
31556
  8
0
 10
6911.5709433966430879
 20
298.8568457535081961
 30
0.0
 40
0.0787
 50
174.9999999983430996
 51
270.0
  0
LINE
  5
31557
  8
0
 10
6911.8447133748195483
 20
298.6184685399153977
 30
0.0
 11
6911.8447133748195483
 21
298.6034685414081764
 31
0.0
  0
LINE
  5
31558
  8
0
 10
6911.8447133748195483
 20
298.6184685399153977
 30
0.0
 11
6911.8874998099463483
 21
298.7781457535082268
 31
0.0
  0
ARC
  5
31559
  8
0
 10
6911.904713374820858
 20
298.6034685414081764
 30
0.0
 40
0.06
 50
180.0000000000032117
 51
270.0
  0
ARC
  5
3155A
  8
0
 10
6912.7377868690546165
 20
297.5526194792990964
 30
0.0
 40
1.6081480621005391
 50
26.7609930211212905
 51
38.0350147829839287
  0
ARC
  5
3155B
  8
0
 10
6914.2287894961473285
 20
298.3045054549573933
 30
0.0
 40
0.0617086246807145
 50
206.7609930211212941
 51
278.4615652280064069
  0
ARC
  5
3155C
  8
0
 10
6924.6429991875220367
 20
883.1938133892366523
 30
0.0
 40
585.0428810419665524
 50
268.9809269370642824
 51
269.0480136390104917
  0
ARC
  5
3155D
  8
0
 10
6914.7033077236947065
 20
298.3925214953579257
 30
0.0
 40
0.1521646299727693
 50
34.7744295513875912
 51
82.7469571296024782
  0
ARC
  5
3155E
  8
0
 10
6914.6814016710050055
 20
298.379202646884778
 30
0.0
 40
0.1777615032007504
 50
3.874640384841038
 51
34.2735730798890827
  0
ARC
  5
3155F
  8
0
 10
6912.4041511602872561
 20
298.2249678668982256
 30
0.0
 40
2.4602290836775511
 50
2.204906657792725
 51
3.8746403848377882
  0
ARC
  5
31560
  8
0
 10
6914.9624847151671929
 20
298.3234685414082037
 30
0.0
 40
0.1
 50
182.2049066577926908
 51
270.0
  0
LINE
  5
31561
  8
0
 10
6915.9221928738161296
 20
298.5434685414081741
 30
0.0
 11
6915.9103888812969672
 21
298.3182349458044769
 31
0.0
  0
ARC
  5
31562
  8
0
 10
6915.8105259278208905
 20
298.3234685414082037
 30
0.0
 40
0.1
 50
270.0
 51
357.0000000118068897
  0
ARC
  5
31563
  8
0
 10
6923.7869326053987606
 20
298.3670775698981856
 30
0.0
 40
0.23615121173933
 50
2.7924117282255971
 51
48.326069609641543
  0
ARC
  5
31564
  8
0
 10
6924.1226846706058495
 20
298.3834540122384738
 30
0.0
 40
0.1
 50
182.792411728225602
 51
270.0
  0
ARC
  5
31565
  8
0
 10
6924.9305185892526424
 20
298.2961422314476181
 30
0.0
 40
0.2483561037353753
 50
95.219459369770064
 51
145.2283349899103086
  0
ARC
  5
31566
  8
0
 10
6924.8848763556006816
 20
298.3286170010425735
 30
0.0
 40
0.1923446242991344
 50
145.4206739853823933
 51
169.1886088835541955
  0
ARC
  5
31567
  8
0
 10
6924.5977208549420538
 20
298.3834540122380758
 30
0.0
 40
0.1
 50
269.999999999895806
 51
349.1886088837588886
  0
ARC
  5
31568
  8
0
 10
6923.8754917386204397
 20
298.577269232867593
 30
0.0
 40
0.1037233200059116
 50
199.0185100376174034
 51
243.6845036433795997
  0
ARC
  5
31569
  8
0
 10
6924.0084574366201196
 20
298.8461217897977917
 30
0.0
 40
0.4036592701902537
 50
243.6845036433795997
 51
270.3220225786237734
  0
ARC
  5
3156A
  8
0
 10
6921.9366053060102786
 20
297.6983369970196804
 30
0.0
 40
10.1242008979075599
 50
178.686894057957204
 51
188.4466859771983138
  0
ARC
  5
3156B
  8
0
 10
6912.1149843058819897
 20
297.9234685414082264
 30
0.0
 40
0.3
 50
90.0
 51
178.686894057957204
  0
ARC
  5
3156C
  8
0
 10
6925.6734542150707057
 20
298.2532584797476147
 30
0.0
 40
13.9020280010375394
 50
188.4466859771983138
 51
195.5752457696023896
  0
ARC
  5
3156D
  8
0
 10
6927.5080464267757634
 20
298.7646315203546123
 30
0.0
 40
15.8065570687890204
 50
195.5752457696023896
 51
205.4698613953345898
  0
LINE
  5
3156E
  8
0
 10
6915.8780708791991856
 20
298.249727917982284
 30
0.0
 11
6917.3163767011719756
 21
298.223468541408181
 31
0.0
  0
LINE
  5
3156F
  8
0
 10
6931.974202839965983
 20
307.9370729664348119
 30
0.0
 11
6932.0628627049400166
 21
308.0257328333082114
 31
0.0
  0
LINE
  5
31570
  8
0
 10
6931.9308395980424393
 20
307.844079677118998
 30
0.0
 11
6931.9224740055396978
 21
307.7484558394082228
 31
0.0
  0
ARC
  5
31571
  8
0
 10
6995.4016965313676337
 20
302.1950151845555865
 30
0.0
 40
63.7216791648694425
 50
175.0002433583553909
 51
175.4485227151868116
  0
ARC
  5
31572
  8
0
 10
6972.2877667688107977
 20
304.0350176858975146
 30
0.0
 40
40.5346276430963925
 50
175.4485227151868116
 51
177.9026727794195892
  0
ARC
  5
31573
  8
0
 10
6966.5441027586430209
 20
304.4503110384890761
 30
0.0
 40
34.7802158317186567
 50
178.2400781453650893
 51
182.6536329286570037
  0
ARC
  5
31574
  8
0
 10
6897.6696731524607458
 20
300.7959721774627724
 30
0.0
 40
34.192663291189632
 50
358.2899200516860105
 51
3.4272595359733709
  0
ARC
  5
31575
  8
0
 10
6890.6591732538763608
 20
302.620440963482622
 30
0.0
 40
41.2860645893351972
 50
354.6451561092648035
 51
356.048857353105177
  0
ARC
  5
31576
  8
0
 10
6931.1676767092430964
 20
298.8234685414082037
 30
0.0
 40
0.6
 50
270.0
 51
354.6451561092648035
  0
ARC
  5
31577
  8
0
 10
6932.08026885828167
 20
307.8310069503933164
 30
0.0
 40
0.15
 50
135.0000006139044046
 51
175.0002433583586878
  0
ARC
  5
31578
  8
0
 10
6938.6990930204356118
 20
299.6394781424440907
 30
0.0
 40
9.8912835436605508
 50
178.3522074505233945
 51
181.2192851224679089
  0
ARC
  5
31579
  8
0
 10
6928.6419700508968162
 20
299.9287947881891228
 30
0.0
 40
0.17
 50
358.3522074505235082
 51
90.0
  0
ARC
  5
3157A
  8
0
 10
6904.2998169856336972
 20
298.9073324524866848
 30
0.0
 40
24.5157830129321184
 50
359.8823295169826793
 51
1.21928512246793
  0
ARC
  5
3157B
  8
0
 10
6928.736548463399231
 20
298.8571457535082914
 30
0.0
 40
0.079
 50
270.0
 51
359.8823295169793823
  0
ARC
  5
3157C
  8
0
 10
6928.8892533963962705
 20
300.1120199810583813
 30
0.0
 40
0.1533245081208251
 50
359.8033915178687039
 51
91.2102586027624369
  0
ARC
  5
3157D
  8
0
 10
6916.5804796488346256
 20
299.8828148886344138
 30
0.0
 40
12.4641953011296902
 50
0.9493267264995932
 51
1.051257177204675
  0
ARC
  5
3157E
  8
0
 10
6928.9640977935123374
 20
300.088016313332389
 30
0.0
 40
0.0788771389721276
 50
306.8489373090549748
 51
0.9493267264995932
  0
ARC
  5
3157F
  8
0
 10
6885.1470131612231853
 20
358.5553438535804958
 30
0.0
 40
73.142994839604313
 50
306.7297748550927849
 51
306.8489373090549748
  0
LINE
  5
31580
  8
0
 10
6928.6419700508968162
 20
300.0987947881890818
 30
0.0
 11
6928.8860149640404416
 21
300.2653102852082725
 31
0.0
  0
LINE
  5
31581
  8
0
 10
6929.0429641057526169
 20
300.0893231591542758
 30
0.0
 11
6928.88610869531567
 21
299.978233828346788
 31
0.0
  0
ARC
  5
31582
  8
0
 10
6929.2892556159731612
 20
299.9871416013498902
 30
0.0
 40
0.4032453199415525
 50
181.2657786479142032
 51
197.7988004881090092
  0
ARC
  5
31583
  8
0
 10
6929.2863948329340928
 20
299.9877601458852041
 30
0.0
 40
0.4007132120495602
 50
198.0080458062504078
 51
208.3076272085295955
  0
ARC
  5
31584
  8
0
 10
6930.0599252067586349
 20
300.4043961752104224
 30
0.0
 40
1.2793114252049509
 50
208.3076272085295955
 51
224.6908712340251952
  0
ARC
  5
31585
  8
0
 10
6928.8748162705560389
 20
299.2235658385666852
 30
0.0
 40
0.3936979868967543
 50
348.2498655654982826
 51
45.5642128134650974
  0
ARC
  5
31586
  8
0
 10
6928.8748697577393614
 20
299.2233704945252839
 30
0.0
 40
0.3936058812082485
 50
260.8550160246822998
 51
348.2761196636133718
  0
ARC
  5
31587
  8
0
 10
6929.2391756608385549
 20
299.9968315651082094
 30
0.0
 40
0.3933976358000175
 50
183.5490400294885944
 51
218.3541322641561067
  0
ARC
  5
31588
  8
0
 10
6930.4707009062576617
 20
300.9504155869934721
 30
0.0
 40
1.95093502402347
 50
217.8726381077032102
 51
224.4863538882696901
  0
LINE
  5
31589
  8
0
 10
6928.846532490591926
 20
299.9724791378991995
 30
0.0
 11
6928.8701112879125503
 21
299.9828616435578965
 31
0.0
  0
LINE
  5
3158A
  8
0
 10
6928.8701112879125503
 20
299.9828616435578965
 30
0.0
 11
6928.88610869531567
 21
299.978233828346788
 31
0.0
  0
LINE
  5
3158B
  8
0
 10
6928.811647803847336
 20
299.939257108860204
 30
0.0
 11
6928.8470167827736077
 21
299.9656367865925972
 31
0.0
  0
LINE
  5
3158C
  8
0
 10
6928.8701112879125503
 20
299.9828616435578965
 30
0.0
 11
6929.0425770018218827
 21
300.1114938543540234
 31
0.0
  0
ARC
  5
3158D
  8
0
 10
6927.8989307133242619
 20
299.9432902659502815
 30
0.0
 40
1.4109611922092
 50
280.5340095562987131
 51
286.3786217558322846
  0
ARC
  5
3158E
  8
0
 10
6928.0197670651386943
 20
299.2934685414044793
 30
0.0
 40
0.75
 50
270.0
 51
280.5340095563511227
  0
ARC
  5
3158F
  8
0
 10
6928.261036288455216
 20
298.636545826524582
 30
0.0
 40
0.0590260338296011
 50
307.2915861691806185
 51
342.1660424451404765
  0
ARC
  5
31590
  8
0
 10
6928.2562596825900982
 20
298.6380825502657785
 30
0.0
 40
0.064043750785647
 50
342.166042445137407
 51
26.5477078726115501
  0
LINE
  5
31591
  8
0
 10
6928.2355201784394012
 20
298.7781457535082268
 30
0.0
 11
6928.3135508217192182
 21
298.6667064457357128
 31
0.0
  0
ARC
  5
31592
  8
0
 10
6928.2805413445457816
 20
298.5558890801315215
 30
0.0
 40
0.0635639643062469
 50
58.4626826343500312
 51
79.902749212639165
  0
ARC
  5
31593
  8
0
 10
6914.7372383886358875
 20
250.1822716617712956
 30
0.0
 40
50.0026830325782612
 50
91.2990277728638233
 51
93.3639998344294071
  0
ARC
  5
31594
  8
0
 10
6914.726642761435869
 20
247.5486952799703886
 30
0.0
 40
52.6353893056026934
 50
88.8148184250514987
 51
91.2225065250262332
  0
ARC
  5
31595
  8
0
 10
6904.2037007603657912
 20
-261.0941844461065102
 30
0.0
 40
561.3871081276566883
 50
88.4723351849221444
 51
88.8148184250514987
  0
ARC
  5
31596
  8
0
 10
6924.1701581137485846
 20
487.57962420651819
 30
0.0
 40
187.5528969339447087
 50
268.4723351849220876
 51
269.6584574919389183
  0
ARC
  5
31597
  8
0
 10
6923.7066362472705805
 20
409.8220055682515977
 30
0.0
 40
109.7938967550921063
 50
269.6584574919389183
 51
271.6811495544245076
  0
ARC
  5
31598
  8
0
 10
6928.6591831253663258
 20
236.1067826078406995
 30
0.0
 40
63.9920144954024082
 50
90.0154118687934073
 51
91.5504851230666929
  0
ARC
  5
31599
  8
0
 10
6927.9704694212823597
 20
295.3402771177305794
 30
0.0
 40
3.1612113343096482
 50
102.0128970145340048
 51
114.2094171527686939
  0
ARC
  5
3159A
  8
0
 10
6927.8463381953970384
 20
295.3465735443668905
 30
0.0
 40
3.131521105203718
 50
94.9938701885237151
 51
99.8149087835274429
  0
ARC
  5
3159B
  8
0
 10
6927.1974856045226261
 20
302.8023324872941089
 30
0.0
 40
4.3524187708836051
 50
274.9592745346715219
 51
282.5017092784734132
  0
LINE
  5
3159C
  8
0
 10
6928.3124397436040454
 20
298.6075327696631803
 30
0.0
 11
6928.9727863474736296
 21
298.8421383720900053
 31
0.0
  0
LINE
  5
3159D
  8
0
 10
6928.3535391084988078
 20
298.6221344064464915
 30
0.0
 11
6928.3396173897399422
 21
298.223468541408181
 31
0.0
  0
ARC
  5
3159E
  8
0
 10
6928.8693389229501918
 20
299.2166215574005719
 30
0.0
 40
0.508719445504647
 50
44.2651174498418811
 51
76.9714061708373265
  0
ARC
  5
3159F
  8
0
 10
6928.8778306593976595
 20
299.2248982086981073
 30
0.0
 40
0.4968614294566997
 50
6.8783425492387158
 51
44.2651174498418811
  0
ARC
  5
315A0
  8
0
 10
7171.4936538135798401
 20
328.4915928036244281
 30
0.0
 40
243.877803904930488
 50
186.8783425492403012
 51
187.1294688696507933
  0
ARC
  5
315A1
  8
0
 10
6929.4852487955186007
 20
298.6811803528592009
 30
0.0
 40
0.0403832472169021
 50
190.7238119852069929
 51
273.2477894526770115
  0
ARC
  5
315A2
  8
0
 10
6929.4957239032382859
 20
299.0628883787309178
 30
0.0
 40
0.4221058195752871
 50
268.888613233512217
 51
270.3703283568863185
  0
ARC
  5
315A3
  8
0
 10
6929.4984521437390868
 20
298.6211063367082943
 30
0.0
 40
0.0196850394000119
 50
17.6310747850751994
 51
89.9999999999478888
  0
ARC
  5
315A4
  8
0
 10
6519.0963672906609645
 20
211.0832421581039
 30
0.0
 40
419.6536569014538145
 50
11.9845522851792694
 51
12.0408899773920801
  0
ARC
  5
315A5
  8
0
 10
6952.1966578711471811
 20
299.4412007783446938
 30
0.0
 40
22.7231951340582405
 50
181.5185208709200992
 51
182.0184463392039902
  0
ARC
  5
315A6
  8
0
 10
6929.5357818762322495
 20
298.8359165440589891
 30
0.0
 40
0.0544283638606843
 50
129.0188483088288081
 51
176.7163588910104863
  0
ARC
  5
315A7
  8
0
 10
6929.5549561655398065
 20
298.8203761812081893
 30
0.0
 40
0.0787401575000142
 50
82.4441186622017739
 51
132.7422751424307137
  0
ARC
  5
315A8
  8
0
 10
6927.1815680302079272
 20
281.103159919672521
 30
0.0
 40
17.9542183598047806
 50
80.2696200361839658
 51
82.370438163048874
  0
ARC
  5
315A9
  8
0
 10
6929.1075273716805896
 20
292.3928120710393728
 30
0.0
 40
6.5014764171600063
 50
74.0042633725688859
 51
80.1829531206271326
  0
ARC
  5
315AA
  8
0
 10
6930.8850395085346463
 20
298.6030037787726883
 30
0.0
 40
0.0419902284143063
 50
11.97041035694585
 51
70.4189658506619764
  0
ARC
  5
315AB
  8
0
 10
6928.8202764832922185
 20
298.5908149411022805
 30
0.0
 40
2.1059438599705849
 50
359.6892703320809233
 51
0.568571772415444
  0
ARC
  5
315AC
  8
0
 10
6930.8359567410770978
 20
298.5896080672815742
 30
0.0
 40
0.090808902011745
 50
295.4821726753482949
 51
353.5417306826046229
  0
ARC
  5
315AD
  8
0
 10
6931.0088337276129096
 20
298.3059231437213725
 30
0.0
 40
0.2420569477987536
 50
123.5590817859835937
 51
148.1697568146281867
  0
ARC
  5
315AE
  8
0
 10
6930.9414666134744039
 20
298.3477417696885254
 30
0.0
 40
0.1627655513862909
 50
148.1697568146281867
 51
176.1432936169472896
  0
ARC
  5
315AF
  8
0
 10
6934.3002935474560218
 20
298.1213095699087035
 30
0.0
 40
3.529216191680514
 50
176.1432936169472896
 51
178.3412476552578028
  0
ARC
  5
315B0
  8
0
 10
6927.1648995497653232
 20
284.8781910000217863
 30
0.0
 40
14.2242450020451603
 50
78.0482715798240463
 51
80.2845684081617179
  0
ARC
  5
315B1
  8
0
 10
6928.5489814259353807
 20
291.5511744277051207
 30
0.0
 40
7.4093418213825668
 50
75.1613645662905014
 51
77.8331931121925038
  0
ARC
  5
315B2
  8
0
 10
6941.9924918546876142
 20
342.2942484346472156
 30
0.0
 40
45.0843485834839086
 50
255.1613645662908993
 51
255.3983875712004021
  0
ARC
  5
315B3
  8
0
 10
6930.9934476528505911
 20
300.0731384861309152
 30
0.0
 40
1.454071267855563
 50
255.3983875712004021
 51
260.2566698041296718
  0
ARC
  5
315B4
  8
0
 10
6930.9436409923591782
 20
299.7830784919510734
 30
0.0
 40
1.1597661478645529
 50
260.2566698041296718
 51
266.4051553983084091
  0
ARC
  5
315B5
  8
0
 10
6930.8757663076466997
 20
298.7026900254920747
 30
0.0
 40
0.0772476901547201
 50
266.4051553983084091
 51
284.7796843947945149
  0
ARC
  5
315B6
  8
0
 10
6930.8941191367575811
 20
298.6331274942986056
 30
0.0
 40
0.0053048511616241
 50
284.7796843947940033
 51
343.5518357665566214
  0
ARC
  5
315B7
  8
0
 10
6936.1319343724580904
 20
298.6824352020369133
 30
0.0
 40
5.23297415421482
 50
180.4365355681829044
 51
180.5563243245503031
  0
ARC
  5
315B8
  8
0
 10
6928.8371369415299341
 20
299.3199745893419959
 30
0.0
 40
0.4238802859781154
 50
357.562060314950088
 51
64.5658679787265868
  0
LINE
  5
315B9
  8
0
 10
6913.9668665342887834
 20
291.412467323222188
 30
0.0
 11
6914.221902577021865
 21
291.3665009033489923
 31
0.0
  0
ARC
  5
315BA
  8
0
 10
6914.1405147120340189
 20
292.3972750762208079
 30
0.0
 40
1.0
 50
205.4698613953360109
 51
259.9999999954974896
  0
ARC
  5
315BB
  8
0
 10
6926.3537463343509444
 20
291.7117947412588137
 30
0.0
 40
11.7772921783637692
 50
183.8837375126805114
 51
192.4346846324469027
  0
ARC
  5
315BC
  8
0
 10
6914.1043491099399034
 20
290.880207501813004
 30
0.0
 40
0.5002999999999984
 50
3.8837375126805651
 51
76.4103840773392875
  0
ARC
  5
315BD
  8
0
 10
32371.2573150550706487
 20
6322.0139585642982638
 30
0.0
 40
26161.492131407449051
 50
193.332394411037086
 51
193.3460603990789934
  0
ARC
  5
315BE
  8
0
 10
6916.5842809641499116
 20
283.1734685414102728
 30
0.0
 40
0.3
 50
193.3460604249073924
 51
269.999999999895806
  0
ARC
  5
315BF
  8
0
 10
6926.6079894982858605
 20
43.3672820292210517
 30
0.0
 40
248.0965869240554014
 50
90.9374610229196776
 51
91.6052758644828344
  0
ARC
  5
315C0
  8
0
 10
6921.5574725656551891
 20
352.0174280630567978
 30
0.0
 40
60.5948777587163079
 50
270.937461022919706
 51
272.5191244987470895
  0
ARC
  5
315C1
  8
0
 10
6923.7219331410033192
 20
302.8199648452246038
 30
0.0
 40
11.3498244370659993
 50
272.5191244987470895
 51
279.5256261838694058
  0
ARC
  5
315C2
  8
0
 10
6925.0498033323101481
 20
294.9066694682267098
 30
0.0
 40
3.3258925474885279
 50
279.5256261838694058
 51
296.3397072122368172
  0
ARC
  5
315C3
  8
0
 10
6924.1518370892017629
 20
294.8323351127244791
 30
0.0
 40
3.752401663063988
 50
309.2396462876367877
 51
348.5298606555106176
  0
ARC
  5
315C4
  8
0
 10
6919.7854875706625535
 20
295.711169441378388
 30
0.0
 40
8.2063140450449001
 50
348.578715809791106
 51
3.7206626690591391
  0
ARC
  5
315C5
  8
0
 10
6888.2101354614551383
 20
294.359344856385917
 30
0.0
 40
39.8089922190120618
 50
2.713097400016407
 51
5.5702773309828322
  0
CIRCLE
  5
315C6
  8
0
 10
6933.2980191415399531
 20
284.0764956329829261
 30
0.0
 40
0.5427526152252762
  0
LINE
  5
315C7
  8
0
 10
6940.2376223516403115
 20
308.0457118416219942
 30
0.0
 11
6940.2376223516403115
 21
283.1734685414082264
 31
0.0
  0
ARC
  5
315C8
  8
0
 10
6939.9376223516401296
 20
283.1734685414082264
 30
0.0
 40
0.3
 50
270.0
 51
0.0
  0
ARC
  5
315CA
  8
0
 10
6931.7805870000138384
 20
308.1044328366082254
 30
0.0
 40
0.0787
 50
176.0084619180942127
 51
270.0
  0
ENDSEC
  0
EOF
