  0
SECTION
  2
HEADER
  9
$ACADVER
  1
AC1009
  9
$INSBASE
 10
3049.0679427954651146
 20
143.8498916760727013
 30
0.0
  9
$EXTMIN
 10
3041.5511618135938079
 20
143.8422946410599081
 30
-0.0000000349181948
  9
$EXTMAX
 10
3056.4760408630318125
 20
171.3333287204820863
 30
0.0000000814935746
  9
$LIMMIN
 10
0.0
 20
0.0
  9
$LIMMAX
 10
11.6929133858000007
 20
8.2677165353999982
  9
$ORTHOMODE
 70
     1
  9
$REGENMODE
 70
     1
  9
$FILLMODE
 70
     1
  9
$QTEXTMODE
 70
     0
  9
$MIRRTEXT
 70
     0
  9
$DRAGMODE
 70
     2
  9
$LTSCALE
 40
0.6431102362
  9
$OSMODE
 70
  2039
  9
$ATTMODE
 70
     1
  9
$TEXTSIZE
 40
0.2
  9
$TRACEWID
 40
0.05
  9
$TEXTSTYLE
  7
STANDARD
  9
$CLAYER
  8
0
  9
$CELTYPE
  6
BYLAYER
  9
$CECOLOR
 62
   256
  9
$DIMSCALE
 40
1.0
  9
$DIMASZ
 40
0.1875
  9
$DIMEXO
 40
0.0625
  9
$DIMDLI
 40
0.4443307087
  9
$DIMRND
 40
0.0
  9
$DIMDLE
 40
0.0
  9
$DIMEXE
 40
0.125
  9
$DIMTP
 40
0.01
  9
$DIMTM
 40
0.01
  9
$DIMTXT
 40
2.0
  9
$DIMCEN
 40
0.1052362205
  9
$DIMTSZ
 40
0.0
  9
$DIMTOL
 70
     1
  9
$DIMLIM
 70
     0
  9
$DIMTIH
 70
     1
  9
$DIMTOH
 70
     1
  9
$DIMSE1
 70
     0
  9
$DIMSE2
 70
     0
  9
$DIMTAD
 70
     0
  9
$DIMZIN
 70
     0
  9
$DIMBLK
  1

  9
$DIMASO
 70
     1
  9
$DIMSHO
 70
     1
  9
$DIMPOST
  1
\X
  9
$DIMAPOST
  1

  9
$DIMALT
 70
     1
  9
$DIMALTD
 70
     2
  9
$DIMALTF
 40
25.3999999999999986
  9
$DIMLFAC
 40
1.0
  9
$DIMTOFL
 70
     0
  9
$DIMTVP
 40
0.0
  9
$DIMTIX
 70
     0
  9
$DIMSOXD
 70
     0
  9
$DIMSAH
 70
     0
  9
$DIMBLK1
  1

  9
$DIMBLK2
  1

  9
$DIMSTYLE
  2
STANDARD
  9
$DIMCLRD
 70
     0
  9
$DIMCLRE
 70
     0
  9
$DIMCLRT
 70
     0
  9
$DIMTFAC
 40
1.0
  9
$DIMGAP
 40
0.09
  9
$LUNITS
 70
     2
  9
$LUPREC
 70
     4
  9
$SKETCHINC
 40
0.1
  9
$FILLETRAD
 40
0.0
  9
$AUNITS
 70
     0
  9
$AUPREC
 70
     0
  9
$MENU
  1
.
  9
$ELEVATION
 40
0.0
  9
$PELEVATION
 40
0.0
  9
$THICKNESS
 40
0.0
  9
$LIMCHECK
 70
     0
  9
$BLIPMODE
 70
     0
  9
$CHAMFERA
 40
0.0
  9
$CHAMFERB
 40
0.0
  9
$SKPOLY
 70
     0
  9
$TDCREATE
 40
2458060.468368056230247
  9
$TDUPDATE
 40
2459276.4523611110635102
  9
$TDINDWG
 40
0.6353079861000001
  9
$TDUSRTIMER
 40
0.6353079861000001
  9
$USRTIMER
 70
     1
  9
$ANGBASE
 50
0.0
  9
$ANGDIR
 70
     0
  9
$PDMODE
 70
     0
  9
$PDSIZE
 40
0.3125
  9
$PLINEWID
 40
0.0
  9
$COORDS
 70
     1
  9
$SPLFRAME
 70
     0
  9
$SPLINETYPE
 70
     6
  9
$SPLINESEGS
 70
     8
  9
$ATTDIA
 70
     1
  9
$ATTREQ
 70
     1
  9
$HANDLING
 70
     1
  9
$HANDSEED
  5
2AF9E
  9
$SURFTAB1
 70
     6
  9
$SURFTAB2
 70
     6
  9
$SURFTYPE
 70
     6
  9
$SURFU
 70
     6
  9
$SURFV
 70
     6
  9
$UCSNAME
  2

  9
$UCSORG
 10
0.0
 20
0.0
 30
0.0
  9
$UCSXDIR
 10
1.0
 20
0.0
 30
0.0
  9
$UCSYDIR
 10
0.0
 20
1.0
 30
0.0
  9
$PUCSNAME
  2

  9
$PUCSORG
 10
0.0
 20
0.0
 30
0.0
  9
$PUCSXDIR
 10
1.0
 20
0.0
 30
0.0
  9
$PUCSYDIR
 10
0.0
 20
1.0
 30
0.0
  9
$USERI1
 70
     0
  9
$USERI2
 70
     0
  9
$USERI3
 70
     0
  9
$USERI4
 70
     0
  9
$USERI5
 70
     0
  9
$USERR1
 40
0.0
  9
$USERR2
 40
0.0
  9
$USERR3
 40
0.0
  9
$USERR4
 40
0.0
  9
$USERR5
 40
0.0
  9
$WORLDVIEW
 70
     1
  9
$SHADEDGE
 70
     3
  9
$SHADEDIF
 70
    70
  9
$TILEMODE
 70
     1
  9
$MAXACTVP
 70
    64
  9
$PLIMCHECK
 70
     0
  9
$PEXTMIN
 10
1.0000000000000000E+20
 20
1.0000000000000000E+20
 30
1.0000000000000000E+20
  9
$PEXTMAX
 10
-1.0000000000000000E+20
 20
-1.0000000000000000E+20
 30
-1.0000000000000000E+20
  9
$PLIMMIN
 10
0.0
 20
0.0
  9
$PLIMMAX
 10
12.0
 20
9.0
  9
$UNITMODE
 70
     0
  9
$VISRETAIN
 70
     1
  9
$PLINEGEN
 70
     0
  9
$PSLTSCALE
 70
     1
  0
ENDSEC
  0
SECTION
  2
TABLES
  0
TABLE
  2
VPORT
 70
     1
  0
VPORT
  2
*ACTIVE
 70
     0
 10
0.0
 20
0.0
 11
1.0
 21
1.0
 12
-254.6795138960623888
 22
-37.6736998951167621
 13
0.0
 23
0.0
 14
1.0
 24
1.0
 15
0.0
 25
0.0
 16
0.0
 26
0.0
 36
96.5995694866707311
 17
3303.693115234375
 27
195.2615115758877096
 37
0.0
 40
27.7198082881274708
 41
2.6486111111111099
 42
50.0
 43
0.0
 44
0.0
 50
0.0
 51
0.0
 71
     0
 72
   100
 73
     1
 74
     1
 75
     0
 76
     0
 77
     0
 78
     0
  0
ENDTAB
  0
TABLE
  2
LTYPE
 70
     2
  0
LTYPE
  2
CONTINUOUS
 70
     0
  3
Solid line
 72
    65
 73
     0
 40
0.0
  0
LTYPE
  2
PHANTOM2
 70
     0
  3
___ _ _ ___ _ _ ___ _ _ ___ _ _
 72
    65
 73
     6
 40
1.25
 49
0.625
 49
-0.125
 49
0.125
 49
-0.125
 49
0.125
 49
-0.125
  0
ENDTAB
  0
TABLE
  2
LAYER
 70
     2
  0
LAYER
  2
0
 70
     0
 62
   255
  6
CONTINUOUS
  0
LAYER
  2
DEFPOINTS
 70
     0
 62
     7
  6
CONTINUOUS
  0
ENDTAB
  0
TABLE
  2
STYLE
 70
     1
  0
STYLE
  2
STANDARD
 70
     0
 40
0.0
 41
0.8
 50
0.0
 71
     0
 42
0.2
  3
txt
  4

  0
ENDTAB
  0
TABLE
  2
VIEW
 70
     0
  0
ENDTAB
  0
TABLE
  2
UCS
 70
     0
  0
ENDTAB
  0
TABLE
  2
APPID
 70
     9
  0
APPID
  2
ACAD
 70
     0
  0
APPID
  2
ACAD_MLEADERVER
 70
     0
  0
APPID
  2
ACAD_EXEMPT_FROM_CAD_STANDARDS
 70
     0
  0
APPID
  2
ACAD_NAV_VCDISPLAY
 70
     0
  0
APPID
  2
ACAECLAYERSTANDARD
 70
     0
  0
APPID
  2
ACCMTRANSPARENCY
 70
     0
  0
APPID
  2
ACAD_DSTYLE_DIMJAG
 70
     0
  0
APPID
  2
ACAD_DSTYLE_DIMTALN
 70
     0
  0
APPID
  2
ACDBATTR
 70
     0
  0
ENDTAB
  0
TABLE
  2
DIMSTYLE
 70
     1
  0
DIMSTYLE
  2
STANDARD
 70
     0
  3

  4

  5

  6

  7

 40
1.0
 41
0.1875
 42
0.0625
 43
0.38
 44
0.125
 45
0.0
 46
0.0
 47
0.01
 48
0.01
140
0.15625
141
0.09
142
0.0
143
25.3999999999999986
144
1.0
145
0.0
146
1.0
147
0.09
 71
     1
 72
     0
 73
     1
 74
     1
 75
     0
 76
     0
 77
     0
 78
     4
170
     0
171
     2
172
     0
173
     0
174
     0
175
     0
176
     0
177
     0
178
     0
  0
ENDTAB
  0
ENDSEC
  0
SECTION
  2
BLOCKS
  0
BLOCK
  8
0
  2
$MODEL_SPACE
 70
     0
 10
0.0
 20
0.0
 30
0.0
  3
$MODEL_SPACE
  1

  0
ENDBLK
  5
21
  8
0
  0
BLOCK
 67
     1
  8
0
  2
$PAPER_SPACE
 70
     0
 10
0.0
 20
0.0
 30
0.0
  3
$PAPER_SPACE
  1

  0
ENDBLK
  5
1D
 67
     1
  8
0
  0
BLOCK
  8
0
  2
_FILLED
 70
     0
 10
0.0
 20
0.0
 30
0.0
  3
_FILLED
  1

  0
SOLID
  5
27E58
  8
0
  6
BYBLOCK
 62
     0
 10
0.0
 20
0.0
 30
0.0
 11
-1.0
 21
0.1666666667
 31
0.0
 12
-1.0
 22
-0.1666666667
 32
0.0
 13
-1.0
 23
-0.1666666667
 33
0.0
  0
ENDBLK
  5
27E59
  8
0
  6
BYBLOCK
 62
     0
  0
ENDSEC
  0
SECTION
  2
ENTITIES
  0
ATTDEF
  5
2A956
  8
DEFPOINTS
 10
3049.0681900663180386
 20
143.8537618994729996
 30
0.0
 40
0.001
  1
K-17629T-S2
  3

  2
MODELNUMBER
 70
     0
1001
ACDBATTR
1070
     0
1070
     1
  0
ATTDEF
  5
2A957
  8
DEFPOINTS
 10
3049.0681900663180386
 20
143.8520952328063061
 30
0.0
 40
0.001
  1
OVE
  3

  2
TRADENAME
 70
     0
1001
ACDBATTR
1070
     0
1070
     1
  0
ATTDEF
  5
2A958
  8
DEFPOINTS
 10
3049.0681900663180386
 20
143.8504285661396978
 30
0.0
 40
0.001
  1
TOILET
  3

  2
PRODUCT
 70
     0
1001
ACDBATTR
1070
     0
1070
     1
  0
LINE
  5
2ACA0
  8
0
 10
3043.2922596611078916
 20
143.8498916760727013
 30
0.0
 11
3054.8456608108799628
 21
143.8498916760727013
 31
0.0
  0
LINE
  5
2ACA2
  8
0
 10
3043.2941273561141315
 20
171.2456599082726996
 30
0.0
 11
3054.8417582348151882
 21
171.2456599082726996
 31
0.0
  0
ARC
  5
2ACA3
  8
0
 10
3043.2754951311490004
 20
170.2809557251254944
 30
0.0
 40
0.964884097075323
 50
88.8935311361106244
 51
178.5946932735685095
  0
LINE
  5
2ACA4
  8
0
 10
3042.3109012494151102
 20
170.3046192859227119
 30
0.0
 11
3042.2618916694150357
 21
169.3605396653726984
 31
0.0
  0
ARC
  5
2ACA5
  8
0
 10
3042.3404860274767998
 20
169.3558878719177017
 30
0.0
 40
0.0787319014224863
 50
176.6127650591334941
 51
270.0
  0
LINE
  5
2ACA6
  8
0
 10
3042.3404860274767998
 20
169.2771559704951869
 30
0.0
 11
3055.7953884986150115
 21
169.2771559712726912
 31
0.0
  0
LINE
  5
2ACA7
  8
0
 10
3042.6030851859381983
 20
169.2771559704951869
 30
0.0
 11
3042.5144258911150246
 21
169.1884966096727112
 31
0.0
  0
ARC
  5
2ACA8
  8
0
 10
3042.6204921329158424
 20
169.0824304468297044
 30
0.0
 40
0.150000261833188
 50
135.0000213261270119
 51
174.9999920972944096
  0
LINE
  5
2ACA9
  8
0
 10
3042.4710626691680773
 20
169.0955038516727029
 30
0.0
 11
3042.4626753317379553
 21
168.9996362984564087
 31
0.0
  0
ARC
  5
2ACAA
  8
0
 10
2797.9473042834501939
 20
170.044304593497003
 30
0.0
 40
244.5176026602761965
 50
357.9599847346092929
 51
359.7552108079852928
  0
ARC
  5
2ACAB
  8
0
 10
3042.0193025869648409
 20
161.0353085210491884
 30
0.0
 40
0.2632786630083157
 50
101.0933661508798025
 51
174.767663209886706
  0
ARC
  5
2ACAC
  8
0
 10
3042.5679794978627797
 20
158.1658241223489938
 30
0.0
 40
3.184746030305293
 50
94.6475109882907759
 51
100.847110614660096
  0
ARC
  5
2ACAD
  8
0
 10
3048.8538867657998708
 20
84.7338609962832265
 30
0.0
 40
76.8852325866415782
 50
93.5533035636334631
 51
94.882537756572134
  0
ARC
  5
2ACAE
  8
0
 10
3049.0901129842309274
 20
81.3599708889501727
 30
0.0
 40
80.2672816781748111
 50
90.0158253554398158
 51
93.5723396299260202
  0
LINE
  5
2ACAF
  8
0
 10
3041.7571209828502106
 20
161.059318120364793
 30
0.0
 11
3041.6797983064479922
 21
160.1083090705674863
 31
0.0
  0
ARC
  5
2ACB0
  8
0
 10
3041.7585386195319188
 20
160.1083090705674863
 30
0.0
 40
0.078740313083449
 50
179.9999999999984084
 51
269.8956101962779144
  0
LINE
  5
2ACB1
  8
0
 10
3041.758395159030897
 20
160.0295688881726903
 30
0.0
 11
3056.3772129304988994
 21
160.0295688881726903
 31
0.0
  0
LINE
  5
2ACB2
  8
0
 10
3042.0903339705150756
 20
160.0295688881726903
 30
0.0
 11
3042.0475506042148481
 21
159.8698916760727116
 31
0.0
  0
LINE
  5
2ACB3
  8
0
 10
3042.0475506042148481
 20
159.8698916760727116
 30
0.0
 11
3042.0475506042148481
 21
159.8548916824726973
 31
0.0
  0
ARC
  5
2ACB4
  8
0
 10
3042.1075506168999709
 20
159.8548916824726973
 30
0.0
 40
0.0600000126850509
 50
180.0
 51
270.0262250518612177
  0
LINE
  5
2ACB5
  8
0
 10
3042.1075780797150401
 20
159.7948916760726945
 30
0.0
 11
3056.0282457607140714
 21
159.7948916760726945
 31
0.0
  0
ARC
  5
2ACB6
  8
0
 10
3042.4086859810408896
 20
159.6251643561805054
 30
0.0
 40
0.1699007638403791
 50
53.1536116233329068
 51
87.4206259912130008
  0
ARC
  5
2ACB7
  8
0
 10
3042.3735994676590053
 20
159.5635246756849881
 30
0.0
 40
0.2404323203777706
 50
11.9596281402515192
 51
55.2715903646301427
  0
ARC
  5
2ACB8
  8
0
 10
3042.7064651508671886
 20
159.6348923241475859
 30
0.0
 40
0.1000006481706126
 50
192.4416608490778913
 51
270.0025064724704862
  0
LINE
  5
2ACB9
  8
0
 10
3042.7064695255148763
 20
159.5348916760727036
 30
0.0
 11
3044.0747780452152256
 21
159.5348916760727036
 31
0.0
  0
ARC
  5
2ACBA
  8
0
 10
3044.0748328865829535
 20
159.6345119039189058
 30
0.0
 40
0.0996202429413938
 50
269.9684584272624761
 51
331.9276942842416815
  0
ARC
  5
2ACBB
  8
0
 10
3044.3794736970471604
 20
159.4720380426225006
 30
0.0
 40
0.2456387598437804
 50
139.4035937150594009
 51
151.92769428424171
  0
ARC
  5
2ACBC
  8
0
 10
3041.8970044183811297
 20
155.6258507930814119
 30
0.0
 40
4.617324221828774
 50
56.471226208826188
 51
64.5436156946258563
  0
LINE
  5
2ACBD
  8
0
 10
3042.2286475709152
 20
159.7948916760726945
 30
0.0
 11
3042.2020223785839335
 21
159.4748916760727013
 31
0.0
  0
LINE
  5
2ACBE
  8
0
 10
3042.1924919033140213
 20
159.4748916760727013
 30
0.0
 11
3055.9433929831147907
 21
159.4748916760727013
 31
0.0
  0
ARC
  5
2ACBF
  8
0
 10
3042.1924921231197914
 20
159.1749046094186042
 30
0.0
 40
0.299987066654198
 50
90.0000419814165156
 51
176.4430124070441934
  0
ARC
  5
2ACC0
  8
0
 10
3057.9479652674799581
 20
158.1955282794899915
 30
0.0
 40
16.0858703804974716
 50
176.4430124070441934
 51
193.0944975343315093
  0
ARC
  5
2ACC1
  8
0
 10
3047.7640511945551225
 20
155.9736696675172993
 30
0.0
 40
5.6651909783137198
 50
194.5425184266250938
 51
213.7490978475132977
  0
ARC
  5
2ACC2
  8
0
 10
3043.8745836364701063
 20
153.387381283132612
 30
0.0
 40
0.9944060540284828
 50
214.347106857178801
 51
258.7715730080748813
  0
ARC
  5
2ACC3
  8
0
 10
3043.2953426500707792
 20
144.1514606774105118
 30
0.0
 40
0.3016124254095209
 50
219.774947459217799
 51
269.0277375832371831
  0
ARC
  5
2ACC4
  8
0
 10
3043.2952823266409723
 20
144.1514104624924073
 30
0.0
 40
0.3015339368477606
 50
185.6965912039050863
 51
219.774947459217799
  0
ARC
  5
2ACC5
  8
0
 10
3077.1161442528650696
 20
147.5251490706544928
 30
0.0
 40
34.2902499118434889
 50
184.7576680987571933
 51
185.6965912039050863
  0
ARC
  5
2ACC6
  8
0
 10
3045.3902389194149691
 20
145.1969419564726991
 30
0.0
 40
2.5000000000001359
 50
178.4376458867683937
 51
191.9086650369150959
  0
ARC
  5
2ACC7
  8
0
 10
3194.5684082308430334
 20
158.7033345289192141
 30
0.0
 40
152.2713733730394949
 50
183.4704774316635962
 51
185.0630452839764928
  0
ARC
  5
2ACC8
  8
0
 10
3046.6418847731338246
 20
150.5878860849713874
 30
0.0
 40
4.2123544515429847
 50
172.6944716997084868
 51
195.1682550839393002
  0
ARC
  5
2ACC9
  8
0
 10
3178.6958624519229488
 20
160.4376779669266
 30
0.0
 40
136.5501684100516968
 50
182.4534763355154894
 51
183.9112074719942029
  0
LINE
  5
2ACCA
  8
0
 10
3043.2631099715940763
 20
152.6031980408671131
 30
0.0
 11
3043.1374638696152033
 21
144.150545863372713
 31
0.0
  0
ARC
  5
2ACCB
  8
0
 10
3043.4343182631459968
 20
144.1461332131632105
 30
0.0
 40
0.2968871880707321
 50
179.1483783968612045
 51
266.2206288188672261
  0
ARC
  5
2ACCC
  8
0
 10
3045.3520065693269316
 20
152.8382382005752902
 30
0.0
 40
1.724556382388525
 50
194.3090855636712888
 51
202.8362450358208946
  0
ARC
  5
2ACCD
  8
0
 10
3044.1215207820650903
 20
152.3200734147507092
 30
0.0
 40
0.3894196785555259
 50
202.8362450358208946
 51
247.2971898264557922
  0
ARC
  5
2ACCE
  8
0
 10
3044.1824658777700279
 20
152.4894449880152933
 30
0.0
 40
0.5692635172857921
 50
248.2177807568118908
 51
263.2331478676151164
  0
LINE
  5
2ACCF
  8
0
 10
3044.5296037293651352
 20
151.8931534555960923
 30
0.0
 11
3053.606281861565094
 21
151.8931534555960923
 31
0.0
  0
ARC
  5
2ACD0
  8
0
 10
3044.7350607850239612
 20
157.4223615815722042
 30
0.0
 40
5.5330240467650524
 50
263.5696696257123222
 51
267.8719541061760196
  0
ARC
  5
2ACD1
  8
0
 10
3044.3217400473031375
 20
159.5915028573770087
 30
0.0
 40
0.2034364312501635
 50
20.5754073366048402
 51
88.8986738047070162
  0
ARC
  5
2ACD2
  8
0
 10
3044.2543498781528797
 20
159.5662055648103888
 30
0.0
 40
0.2754182894448129
 50
0.7177750806525336
 51
20.5754073366048402
  0
ARC
  5
2ACD3
  8
0
 10
3044.6296093892187855
 20
159.5748916760817906
 30
0.0
 40
0.100000000009045
 50
183.0013154148496994
 51
269.9999995512268924
  0
LINE
  5
2ACD4
  8
0
 10
3045.9115671656149971
 20
159.7948916760726945
 30
0.0
 11
3045.910657529015225
 21
159.7872907872726955
 31
0.0
  0
LINE
  5
2ACD5
  8
0
 10
3045.910657529015225
 20
159.7872907872726955
 30
0.0
 11
3045.899227046445958
 21
159.5696469823672032
 31
0.0
  0
LINE
  5
2ACD6
  8
0
 10
3048.1230610791149047
 20
171.2456599082726996
 30
0.0
 11
3048.1230605534151437
 21
171.2929040027727012
 31
0.0
  0
ARC
  5
2ACD7
  8
0
 10
3048.1624301940360056
 20
171.2929044408512027
 30
0.0
 40
0.0393696406239796
 50
89.9993623061770336
 51
180.0006375482824126
  0
LINE
  5
2ACD8
  8
0
 10
3048.1624306322150915
 20
171.3322740814726899
 30
0.0
 11
3049.9734537531030583
 21
171.3322539250449097
 31
0.0
  0
ARC
  5
2ACD9
  8
0
 10
3049.9734533149089657
 20
171.292882901386605
 30
0.0
 40
0.0393710236607965
 50
0.0307083817969518
 51
89.9993623061770336
  0
LINE
  5
2ACDA
  8
0
 10
3050.0128243329149882
 20
171.2929040027727012
 30
0.0
 11
3050.0128496539741718
 21
171.2456599082726996
 31
0.0
  0
ARC
  5
2ACDB
  8
0
 10
3054.8740987906721784
 20
170.2952785805809128
 30
0.0
 40
0.9509314273796988
 50
0.5628077745000131
 51
91.9489678158230532
  0
LINE
  5
2ACDC
  8
0
 10
3055.824984341515119
 20
170.3046192859227119
 30
0.0
 11
3055.8739939215151935
 21
169.3605396653726984
 31
0.0
  0
ARC
  5
2ACDD
  8
0
 10
3055.7953995634520652
 20
169.3558878719177017
 30
0.0
 40
0.0787319014224885
 50
269.9919477558448762
 51
3.3872349408664602
  0
LINE
  5
2ACDE
  8
0
 10
3055.532800404992031
 20
169.2771559704951869
 30
0.0
 11
3055.6214596998152047
 21
169.1884966096727112
 31
0.0
  0
ARC
  5
2ACDF
  8
0
 10
3055.5153934580139321
 20
169.0824304468297044
 30
0.0
 40
0.150000261833188
 50
5.0000079027055291
 51
44.9999786738730165
  0
LINE
  5
2ACE0
  8
0
 10
3055.664822921762152
 20
169.0955038516727029
 30
0.0
 11
3055.6732102591918192
 21
168.9996362984564087
 31
0.0
  0
ARC
  5
2ACE1
  8
0
 10
3300.1885813074791258
 20
170.044304593497003
 30
0.0
 40
244.5176026602761965
 50
180.2447891920145935
 51
182.0400152653905934
  0
ARC
  5
2ACE2
  8
0
 10
3056.1165830039649336
 20
161.0353085210491884
 30
0.0
 40
0.2632786630083157
 50
5.2323367901132816
 51
78.9066338491201975
  0
ARC
  5
2ACE3
  8
0
 10
3055.5679060930669948
 20
158.1658241223489938
 30
0.0
 40
3.184746030305293
 50
79.152889385339833
 51
85.3524890117092241
  0
ARC
  5
2ACE4
  8
0
 10
3049.2819988251299037
 20
84.7338609962832265
 30
0.0
 40
76.8852325866415782
 50
85.1174622434278376
 51
86.4466964363665511
  0
ARC
  5
2ACE5
  8
0
 10
3049.0457726066979376
 20
81.3599708889575197
 30
0.0
 40
80.2672816781674641
 50
86.4276603700739656
 51
89.9841746445601842
  0
LINE
  5
2ACE6
  8
0
 10
3056.3787646080800187
 20
161.059318120364793
 30
0.0
 11
3056.4560872844817823
 21
160.1083090705674863
 31
0.0
  0
ARC
  5
2ACE7
  8
0
 10
3056.3773469996249332
 20
160.1083090588901996
 30
0.0
 40
0.0787402848557002
 50
269.9024438531591841
 51
0.0000084970172204
  0
LINE
  5
2ACE8
  8
0
 10
3056.0455516204151536
 20
160.0295688881726903
 30
0.0
 11
3056.0883349867149263
 21
159.8698916760727116
 31
0.0
  0
LINE
  5
2ACE9
  8
0
 10
3056.0883349867149263
 20
159.8698916760727116
 30
0.0
 11
3056.0883349867149263
 21
159.8548916824726973
 31
0.0
  0
ARC
  5
2ACEA
  8
0
 10
3056.0283348718080561
 20
159.8548917248060093
 30
0.0
 40
0.0600001149064646
 50
269.9149053055390937
 51
359.9999595747261765
  0
ARC
  5
2ACEB
  8
0
 10
3055.7271996098888849
 20
159.6251643561805054
 30
0.0
 40
0.1699007638403791
 50
92.5793740087869992
 51
126.8463883766670932
  0
ARC
  5
2ACEC
  8
0
 10
3055.7622861232712239
 20
159.5635246756849881
 30
0.0
 40
0.2404323203777706
 50
124.7284096353698004
 51
168.0403718597484897
  0
ARC
  5
2ACED
  8
0
 10
3055.4294204400630406
 20
159.6348923241475859
 30
0.0
 40
0.1000006481706126
 50
269.9974935275295138
 51
347.5583391509221087
  0
LINE
  5
2ACEE
  8
0
 10
3055.4294160654148982
 20
159.5348916760727036
 30
0.0
 11
3054.0611075457150037
 21
159.5348916760727036
 31
0.0
  0
ARC
  5
2ACEF
  8
0
 10
3054.0610527043459115
 20
159.6345119039189058
 30
0.0
 40
0.0996202429413938
 50
208.0723057157582048
 51
270.0315415727375239
  0
ARC
  5
2ACF0
  8
0
 10
3053.7564118938830688
 20
159.4720380426225006
 30
0.0
 40
0.2456387598437804
 50
28.0723057157582403
 51
40.5964062849405423
  0
ARC
  5
2ACF1
  8
0
 10
3056.2388811725490996
 20
155.6258507930814119
 30
0.0
 40
4.617324221828774
 50
115.456384305374101
 51
123.5287737911738049
  0
LINE
  5
2ACF2
  8
0
 10
3055.9072380200150292
 20
159.7948916760726945
 30
0.0
 11
3055.933863212345841
 21
159.4748916760727013
 31
0.0
  0
ARC
  5
2ACF3
  8
0
 10
3055.9433946863678102
 20
159.1749059060778109
 30
0.0
 40
0.2999857699997406
 50
3.556754854017468
 51
90.0003253128502649
  0
ARC
  5
2ACF4
  8
0
 10
3040.1879203234498164
 20
158.1955282794899915
 30
0.0
 40
16.0858703804974716
 50
346.9055024656684054
 51
3.5569875929558119
  0
ARC
  5
2ACF5
  8
0
 10
3050.3718343963751067
 20
155.9736696675172993
 30
0.0
 40
5.6651909783137198
 50
326.2509021524866739
 51
345.4574815733748778
  0
ARC
  5
2ACF6
  8
0
 10
3054.2613019544592134
 20
153.387381283132612
 30
0.0
 40
0.9944060540284828
 50
281.228426991925005
 51
325.652893142821199
  0
ARC
  5
2ACF7
  8
0
 10
3054.8405429408580858
 20
144.1514606774105118
 30
0.0
 40
0.3016124254095209
 50
270.9722624167628169
 51
320.225052540782201
  0
ARC
  5
2ACF8
  8
0
 10
3054.8406032642888022
 20
144.1514104624924073
 30
0.0
 40
0.3015339368477606
 50
320.225052540782201
 51
354.3034087960949137
  0
ARC
  5
2ACF9
  8
0
 10
3021.0197413380651597
 20
147.5251490706544928
 30
0.0
 40
34.2902499118434889
 50
354.3034087960949137
 51
355.2423319012427783
  0
ARC
  5
2ACFA
  8
0
 10
3052.7456466715138959
 20
145.1969419564726991
 30
0.0
 40
2.5000000000001359
 50
348.0913349630848188
 51
1.5623541132316261
  0
ARC
  5
2ACFB
  8
0
 10
2903.5674773600871958
 20
158.7033345289192141
 30
0.0
 40
152.2713733730394949
 50
354.9369547160234788
 51
356.5295225683362901
  0
ARC
  5
2ACFC
  8
0
 10
3051.4940008177959498
 20
150.5878860849713874
 30
0.0
 40
4.2123544515429847
 50
344.8317449160605861
 51
7.3055283002915017
  0
ARC
  5
2ACFD
  8
0
 10
2919.4400231390068257
 20
160.4376779669266
 30
0.0
 40
136.5501684100516968
 50
356.0887925280057971
 51
357.5465236644844254
  0
LINE
  5
2ACFE
  8
0
 10
3054.8727756193361529
 20
152.6031980408671131
 30
0.0
 11
3054.9984217213150259
 21
144.150545863372713
 31
0.0
  0
ARC
  5
2ACFF
  8
0
 10
3054.7015673277837777
 20
144.1461332131632105
 30
0.0
 40
0.2968871880707321
 50
273.7793711811327739
 51
0.8516216031387344
  0
ARC
  5
2AD00
  8
0
 10
3052.7838790216028428
 20
152.8382382005752902
 30
0.0
 40
1.724556382388525
 50
337.163754964179077
 51
345.6909144363286259
  0
ARC
  5
2AD01
  8
0
 10
3054.0143648088651389
 20
152.3200734147507092
 30
0.0
 40
0.3894196785555259
 50
292.7028101735440941
 51
337.163754964179077
  0
ARC
  5
2AD02
  8
0
 10
3053.9534197131602014
 20
152.4894449880152933
 30
0.0
 40
0.5692635172857921
 50
276.7668521323848836
 51
291.7822192431880808
  0
ARC
  5
2AD03
  8
0
 10
3053.4008248059049038
 20
157.4223615815722042
 30
0.0
 40
5.5330240467650524
 50
272.1280458938239804
 51
276.4303303742876778
  0
ARC
  5
2AD04
  8
0
 10
3053.8141455436270917
 20
159.5915028573770087
 30
0.0
 40
0.2034364312501635
 50
91.101326195292998
 51
159.4245926633950887
  0
ARC
  5
2AD05
  8
0
 10
3053.8815357127759853
 20
159.5662055648103888
 30
0.0
 40
0.2754182894448129
 50
159.4245926633950887
 51
179.2822249193474136
  0
ARC
  5
2AD06
  8
0
 10
3053.506276201710989
 20
159.5748916760817906
 30
0.0
 40
0.100000000009045
 50
270.0000004487731076
 51
356.9986845851502721
  0
LINE
  5
2AD07
  8
0
 10
3052.2243184253147774
 20
159.7948916760726945
 30
0.0
 11
3052.2252280619150042
 21
159.7872907872726955
 31
0.0
  0
LINE
  5
2AD08
  8
0
 10
3052.2252280619150042
 20
159.7872907872726955
 30
0.0
 11
3052.2366572569189884
 21
159.5696580956565072
 31
0.0
  0
ARC
  5
2AD09
  8
0
 10
3045.7988698128351643
 20
159.5750048720501866
 30
0.0
 40
0.1005001558205324
 50
275.0295213814932254
 51
356.9439841353740803
  0
ARC
  5
2AD0A
  8
0
 10
3052.3386756961499486
 20
159.5754433005812984
 30
0.0
 40
0.1021823396632486
 50
183.245621165503394
 51
259.7501377023402824
  0
LINE
  5
2AD0B
  8
0
 10
3043.6809518724498957
 20
152.4120094872257027
 30
0.0
 11
3054.4549337184798787
 21
152.4120094872257027
 31
0.0
  0
ENDSEC
  0
EOF
