  0
SECTION
  2
HEADER
  9
$ACADVER
  1
AC1009
  9
$INSBASE
 10
578.8258409936072439
 20
169.0607142518678074
 30
0.0
  9
$EXTMIN
 10
571.2345583510184497
 20
137.8979807008655882
 30
-0.0000000349181948
  9
$EXTMAX
 10
586.4287068037090194
 20
169.0623703629497925
 30
0.0000000814935746
  9
$LIMMIN
 10
0.0
 20
0.0
  9
$LIMMAX
 10
11.6929133858000007
 20
8.2677165353999982
  9
$ORTHOMODE
 70
     0
  9
$REGENMODE
 70
     1
  9
$FILLMODE
 70
     1
  9
$QTEXTMODE
 70
     0
  9
$MIRRTEXT
 70
     0
  9
$DRAGMODE
 70
     2
  9
$LTSCALE
 40
0.6431102362
  9
$OSMODE
 70
   575
  9
$ATTMODE
 70
     1
  9
$TEXTSIZE
 40
0.2
  9
$TRACEWID
 40
0.05
  9
$TEXTSTYLE
  7
STANDARD
  9
$CLAYER
  8
0
  9
$CELTYPE
  6
BYLAYER
  9
$CECOLOR
 62
   256
  9
$DIMSCALE
 40
1.0
  9
$DIMASZ
 40
0.1875
  9
$DIMEXO
 40
0.0625
  9
$DIMDLI
 40
0.4443307087
  9
$DIMRND
 40
0.0
  9
$DIMDLE
 40
0.0
  9
$DIMEXE
 40
0.125
  9
$DIMTP
 40
0.01
  9
$DIMTM
 40
0.01
  9
$DIMTXT
 40
1.0
  9
$DIMCEN
 40
0.1052362205
  9
$DIMTSZ
 40
0.0
  9
$DIMTOL
 70
     1
  9
$DIMLIM
 70
     0
  9
$DIMTIH
 70
     0
  9
$DIMTOH
 70
     1
  9
$DIMSE1
 70
     0
  9
$DIMSE2
 70
     0
  9
$DIMTAD
 70
     0
  9
$DIMZIN
 70
     0
  9
$DIMBLK
  1

  9
$DIMASO
 70
     1
  9
$DIMSHO
 70
     1
  9
$DIMPOST
  1
\X
  9
$DIMAPOST
  1

  9
$DIMALT
 70
     1
  9
$DIMALTD
 70
     2
  9
$DIMALTF
 40
25.3999999999999986
  9
$DIMLFAC
 40
1.0
  9
$DIMTOFL
 70
     0
  9
$DIMTVP
 40
0.0
  9
$DIMTIX
 70
     0
  9
$DIMSOXD
 70
     0
  9
$DIMSAH
 70
     0
  9
$DIMBLK1
  1

  9
$DIMBLK2
  1

  9
$DIMSTYLE
  2
STANDARD
  9
$DIMCLRD
 70
     0
  9
$DIMCLRE
 70
     0
  9
$DIMCLRT
 70
     0
  9
$DIMTFAC
 40
1.0
  9
$DIMGAP
 40
0.09
  9
$LUNITS
 70
     2
  9
$LUPREC
 70
     4
  9
$SKETCHINC
 40
0.1
  9
$FILLETRAD
 40
0.02
  9
$AUNITS
 70
     0
  9
$AUPREC
 70
     0
  9
$MENU
  1
.
  9
$ELEVATION
 40
0.0
  9
$PELEVATION
 40
0.0
  9
$THICKNESS
 40
0.0
  9
$LIMCHECK
 70
     0
  9
$BLIPMODE
 70
     0
  9
$CHAMFERA
 40
0.0
  9
$CHAMFERB
 40
0.0
  9
$SKPOLY
 70
     0
  9
$TDCREATE
 40
2458172.5207638889551163
  9
$TDUPDATE
 40
2459469.5531018520705402
  9
$TDINDWG
 40
0.4175007176
  9
$TDUSRTIMER
 40
0.4175007176
  9
$USRTIMER
 70
     1
  9
$ANGBASE
 50
0.0
  9
$ANGDIR
 70
     0
  9
$PDMODE
 70
     0
  9
$PDSIZE
 40
0.3125
  9
$PLINEWID
 40
0.0
  9
$COORDS
 70
     2
  9
$SPLFRAME
 70
     0
  9
$SPLINETYPE
 70
     6
  9
$SPLINESEGS
 70
     8
  9
$ATTDIA
 70
     1
  9
$ATTREQ
 70
     1
  9
$HANDLING
 70
     1
  9
$HANDSEED
  5
C28C
  9
$SURFTAB1
 70
     6
  9
$SURFTAB2
 70
     6
  9
$SURFTYPE
 70
     6
  9
$SURFU
 70
     6
  9
$SURFV
 70
     6
  9
$UCSNAME
  2

  9
$UCSORG
 10
0.0
 20
0.0
 30
0.0
  9
$UCSXDIR
 10
1.0
 20
0.0
 30
0.0
  9
$UCSYDIR
 10
0.0
 20
1.0
 30
0.0
  9
$PUCSNAME
  2

  9
$PUCSORG
 10
0.0
 20
0.0
 30
0.0
  9
$PUCSXDIR
 10
1.0
 20
0.0
 30
0.0
  9
$PUCSYDIR
 10
0.0
 20
1.0
 30
0.0
  9
$USERI1
 70
     0
  9
$USERI2
 70
     0
  9
$USERI3
 70
     0
  9
$USERI4
 70
     0
  9
$USERI5
 70
     0
  9
$USERR1
 40
0.0
  9
$USERR2
 40
0.0
  9
$USERR3
 40
0.0
  9
$USERR4
 40
0.0
  9
$USERR5
 40
0.0
  9
$WORLDVIEW
 70
     1
  9
$SHADEDGE
 70
     3
  9
$SHADEDIF
 70
    70
  9
$TILEMODE
 70
     1
  9
$MAXACTVP
 70
    64
  9
$PLIMCHECK
 70
     0
  9
$PEXTMIN
 10
1.0000000000000000E+20
 20
1.0000000000000000E+20
 30
1.0000000000000000E+20
  9
$PEXTMAX
 10
-1.0000000000000000E+20
 20
-1.0000000000000000E+20
 30
-1.0000000000000000E+20
  9
$PLIMMIN
 10
0.0
 20
0.0
  9
$PLIMMAX
 10
12.0
 20
9.0
  9
$UNITMODE
 70
     0
  9
$VISRETAIN
 70
     1
  9
$PLINEGEN
 70
     0
  9
$PSLTSCALE
 70
     1
  0
ENDSEC
  0
SECTION
  2
TABLES
  0
TABLE
  2
VPORT
 70
     1
  0
VPORT
  2
*ACTIVE
 70
     0
 10
0.0
 20
0.0
 11
1.0
 21
1.0
 12
112.0894307386981978
 22
64.3470283331699875
 13
0.0
 23
0.0
 14
1.0
 24
1.0
 15
0.0
 25
0.0
 16
0.0
 26
0.0
 36
24.1179433675886514
 17
466.74220170783002
 27
89.133147119929788
 37
0.0
 40
38.3843884507352371
 41
2.4808306709265171
 42
50.0
 43
0.0
 44
0.0
 50
0.0
 51
0.0
 71
     0
 72
   100
 73
     1
 74
     1
 75
     0
 76
     0
 77
     0
 78
     0
  0
ENDTAB
  0
TABLE
  2
LTYPE
 70
     2
  0
LTYPE
  2
CONTINUOUS
 70
     0
  3
Solid line
 72
    65
 73
     0
 40
0.0
  0
LTYPE
  2
PHANTOM2
 70
     0
  3
___ _ _ ___ _ _ ___ _ _ ___ _ _
 72
    65
 73
     6
 40
1.25
 49
0.625
 49
-0.125
 49
0.125
 49
-0.125
 49
0.125
 49
-0.125
  0
ENDTAB
  0
TABLE
  2
LAYER
 70
     2
  0
LAYER
  2
0
 70
     0
 62
   255
  6
CONTINUOUS
  0
LAYER
  2
DEFPOINTS
 70
     0
 62
     7
  6
CONTINUOUS
  0
ENDTAB
  0
TABLE
  2
STYLE
 70
     1
  0
STYLE
  2
STANDARD
 70
     0
 40
0.0
 41
0.8
 50
0.0
 71
     0
 42
0.2
  3
txt
  4

  0
ENDTAB
  0
TABLE
  2
VIEW
 70
     0
  0
ENDTAB
  0
TABLE
  2
UCS
 70
     0
  0
ENDTAB
  0
TABLE
  2
APPID
 70
    11
  0
APPID
  2
ACAD
 70
     0
  0
APPID
  2
ACAD_MLEADERVER
 70
     0
  0
APPID
  2
ACAD_EXEMPT_FROM_CAD_STANDARDS
 70
     0
  0
APPID
  2
ACAD_DSTYLE_DIMJAG
 70
     0
  0
APPID
  2
ACAD_DSTYLE_DIMTALN
 70
     0
  0
APPID
  2
ACAD_NAV_VCDISPLAY
 70
     0
  0
APPID
  2
ACAECLAYERSTANDARD
 70
     0
  0
APPID
  2
ACCMTRANSPARENCY
 70
     0
  0
APPID
  2
DCO15
 70
     0
  0
APPID
  2
ACDBATTR
 70
     0
  0
APPID
  2
ACADANNOTATIVE
 70
     0
  0
ENDTAB
  0
TABLE
  2
DIMSTYLE
 70
     1
  0
DIMSTYLE
  2
STANDARD
 70
     0
  3

  4

  5

  6

  7

 40
1.0
 41
0.1875
 42
0.0625
 43
0.38
 44
0.125
 45
0.0
 46
0.0
 47
0.01
 48
0.01
140
0.15625
141
0.09
142
0.0
143
25.3999999999999986
144
1.0
145
0.0
146
1.0
147
0.09
 71
     1
 72
     0
 73
     1
 74
     1
 75
     0
 76
     0
 77
     0
 78
     4
170
     0
171
     2
172
     0
173
     0
174
     0
175
     0
176
     0
177
     0
178
     0
  0
ENDTAB
  0
ENDSEC
  0
SECTION
  2
BLOCKS
  0
BLOCK
  8
0
  2
$MODEL_SPACE
 70
     0
 10
0.0
 20
0.0
 30
0.0
  3
$MODEL_SPACE
  1

  0
ENDBLK
  5
21
  8
0
  0
BLOCK
 67
     1
  8
0
  2
$PAPER_SPACE
 70
     0
 10
0.0
 20
0.0
 30
0.0
  3
$PAPER_SPACE
  1

  0
ENDBLK
  5
1D
 67
     1
  8
0
  0
BLOCK
  8
0
  2
_FILLED
 70
     0
 10
0.0
 20
0.0
 30
0.0
  3
_FILLED
  1

  0
SOLID
  5
BFE2
  8
0
  6
BYBLOCK
 62
     0
 10
0.0
 20
0.0
 30
0.0
 11
-1.0
 21
0.1666666667
 31
0.0
 12
-1.0
 22
-0.1666666667
 32
0.0
 13
-1.0
 23
-0.1666666667
 33
0.0
  0
ENDBLK
  5
BFE3
  8
0
  6
BYBLOCK
 62
     0
  0
ENDSEC
  0
SECTION
  2
ENTITIES
  0
ATTDEF
  5
829
  8
DEFPOINTS
 10
578.8259219732542533
 20
169.0595567542243884
 30
0.0
 40
0.001
  1
K-17644VN
  3

  2
MODELNUMBER
 70
     0
1001
ACDBATTR
1070
     0
1070
     1
  0
ATTDEF
  5
82A
  8
DEFPOINTS
 10
578.8259219732542533
 20
169.0578900875576949
 30
0.0
 40
0.001
  1
KARSTEN
  3

  2
TRADENAME
 70
     0
1001
ACDBATTR
1070
     0
1070
     1
  0
ATTDEF
  5
82B
  8
DEFPOINTS
 10
578.8259219732542533
 20
169.0562234208910866
 30
0.0
 40
0.001
  1
TOILET
  3

  2
PRODUCT
 70
     0
1001
ACDBATTR
1070
     0
1070
     1
  0
LINE
  5
C0F9
  8
0
 10
575.4561380150571495
 20
157.7080554849225962
 30
0.0
 11
575.3665342011571511
 21
156.728366910722599
 31
0.0
  0
LINE
  5
C0FA
  8
0
 10
575.4899966438572392
 20
157.6856165104225909
 30
0.0
 11
575.4016155825571559
 21
156.7204315444226097
 31
0.0
  0
LINE
  5
C0FB
  8
0
 10
575.696409083822914
 20
156.5262947754225991
 30
0.0
 11
575.696409999543107
 21
156.589066807512296
 31
0.0
  0
LINE
  5
C0FC
  8
0
 10
575.8041874512572349
 20
157.8563350392446978
 30
0.0
 11
575.8041874512572349
 21
157.9082320227225864
 31
0.0
  0
LINE
  5
C0FD
  8
0
 10
575.8140299709572218
 20
157.8578253682564991
 30
0.0
 11
575.8140299709572218
 21
157.9069492448226129
 31
0.0
  0
LINE
  5
C0FE
  8
0
 10
576.3258409946572556
 20
157.8578253440607
 30
0.0
 11
576.3258409946572556
 21
157.9069492448226129
 31
0.0
  0
LINE
  5
C0FF
  8
0
 10
576.3356835142570844
 20
157.8563350180725138
 30
0.0
 11
576.3356835142570844
 21
157.9082320227225864
 31
0.0
  0
LINE
  5
C100
  8
0
 10
576.7189687140621572
 20
156.5480931232349064
 30
0.0
 11
576.7623849882570539
 21
156.6547508983225896
 31
0.0
  0
LINE
  5
C101
  8
0
 10
576.738255034457211
 20
156.7204351575225871
 30
0.0
 11
576.6498743214572187
 21
157.6856165132226124
 31
0.0
  0
LINE
  5
C102
  8
0
 10
576.7733367636571984
 20
156.7283669162225976
 30
0.0
 11
576.6837329123570726
 21
157.7080558873225868
 31
0.0
  0
LINE
  5
C103
  8
0
 10
577.0689561682570456
 20
156.4692993811225961
 30
0.0
 11
577.0689911552137801
 21
155.8373976768920954
 31
0.0
  0
LINE
  5
C104
  8
0
 10
575.3774859773571961
 20
156.654750898222602
 30
0.0
 11
575.4036735387675208
 21
156.5904177170415039
 31
0.0
  0
LINE
  5
C105
  8
0
 10
576.9902166072572527
 20
156.5480910063226077
 30
0.0
 11
576.5118549117571547
 21
156.5480947396225986
 31
0.0
  0
LINE
  5
C106
  8
0
 10
576.3380457733570665
 20
156.6551031758226031
 30
0.0
 11
575.8018240597571094
 21
156.6551031019226059
 31
0.0
  0
LINE
  5
C107
  8
0
 10
580.582725754001558
 20
156.4681262143564027
 30
0.0
 11
577.0689562169661713
 21
156.4684196424097991
 31
0.0
  0
LINE
  5
C108
  8
0
 10
576.9902391622572395
 20
156.5080474952225984
 30
0.0
 11
575.3538738027572208
 21
156.5086649229226055
 31
0.0
  0
LINE
  5
C109
  8
0
 10
575.4407935857572056
 20
156.6775765507225913
 30
0.0
 11
576.69907717525723
 21
156.6775765331225898
 31
0.0
  0
LINE
  5
C10A
  8
0
 10
576.3258409946572556
 20
157.8788803279225874
 30
0.0
 11
575.8140299709572218
 21
157.8788803279225874
 31
0.0
  0
LINE
  5
C10B
  8
0
 10
576.3356835142570844
 20
157.8880953969226084
 30
0.0
 11
576.3258409946572556
 21
157.8880953969226084
 31
0.0
  0
LINE
  5
C10C
  8
0
 10
575.8140299709572218
 20
157.8880953969226084
 30
0.0
 11
575.8041874512572349
 21
157.8880953969226084
 31
0.0
  0
LINE
  5
C10D
  8
0
 10
575.8140299709572218
 20
157.9069492448226129
 30
0.0
 11
576.3258409946572556
 21
157.9069492448226129
 31
0.0
  0
LINE
  5
C10E
  8
0
 10
576.3257912734570709
 20
157.9096998640225991
 30
0.0
 11
575.8140798018572468
 21
157.9096998640225991
 31
0.0
  0
LINE
  5
C10F
  8
0
 10
576.3258762912083739
 20
157.9117855908588979
 30
0.0
 11
575.8139943387988069
 21
157.9117855418427894
 31
0.0
  0
ARC
  5
C110
  8
0
 10
575.1793901403686959
 20
125.8911036516335002
 30
0.0
 40
30.7001032416441184
 50
89.6769759692844133
 51
90.1422049757228052
  0
ARC
  5
C111
  8
0
 10
575.2882747984970138
 20
155.4816022216328122
 30
0.0
 40
1.0559993527204099
 50
88.294339482136067
 51
95.5532478439645701
  0
ARC
  5
C112
  8
0
 10
575.5231338125676075
 20
156.7140414207079004
 30
0.0
 40
0.1572534831349724
 50
174.7732181699668104
 51
202.1503234025547897
  0
ARC
  5
C113
  8
0
 10
575.4406933165855662
 20
156.716820632187904
 30
0.0
 40
0.0392442095596512
 50
174.7206715036359981
 51
270.1463911915187737
  0
ARC
  5
C114
  8
0
 10
576.069935482757046
 20
156.1599110589226029
 30
0.0
 40
1.7704717091999991
 50
98.3118579546977855
 51
105.9467201749983047
  0
ARC
  5
C115
  8
0
 10
576.0699473696153063
 20
156.159976992289188
 30
0.0
 40
1.770404750030488
 50
74.0559598681821143
 51
81.6882252078824109
  0
ARC
  5
C116
  8
0
 10
575.9817670434395041
 20
156.7455224451385902
 30
0.0
 40
1.176192192470674
 50
98.1964664629730066
 51
98.6836293765625356
  0
ARC
  5
C117
  8
0
 10
576.1579750607663755
 20
156.7446665521190994
 30
0.0
 40
1.177057729717111
 50
81.3164600512000249
 51
81.8032594455102213
  0
ARC
  5
C118
  8
0
 10
576.0698910276081506
 20
156.1348060835640865
 30
0.0
 40
1.7419128381559681
 50
98.4464569400898739
 51
105.8844166089178032
  0
ARC
  5
C119
  8
0
 10
576.069981272357154
 20
156.1348113970225882
 30
0.0
 40
1.7419073624000001
 50
74.1155763395985048
 51
81.5535606855913784
  0
ARC
  5
C11A
  8
0
 10
575.6234620191570457
 20
168.5815123955225943
 30
0.0
 40
12.0482084073000006
 50
268.5553248758034783
 51
270.3469055623377812
  0
ARC
  5
C11B
  8
0
 10
554.3785635115114019
 20
170.0820473052864088
 30
0.0
 40
24.2723971867550716
 50
322.6972071919702785
 51
324.0911668874301768
  0
ARC
  5
C11C
  8
0
 10
572.7705650308820395
 20
160.8785913193185024
 30
0.0
 40
0.9964069464482584
 50
182.1205093724292112
 51
247.5097528320150104
  0
ARC
  5
C11D
  8
0
 10
573.5071855563094232
 20
167.5589061489920937
 30
0.0
 40
0.7497387796347651
 50
95.3072114179805965
 51
161.2182134877375859
  0
ARC
  5
C11E
  8
0
 10
578.8099904342439004
 20
143.4813198404735886
 30
0.0
 40
4.7389834004635167
 50
234.4143793434597001
 51
248.4791546524143087
  0
ARC
  5
C11F
  8
0
 10
578.7136716757892145
 20
143.3520489278670027
 30
0.0
 40
4.5778055891695271
 50
221.2608908878090119
 51
234.4532507500611871
  0
ARC
  5
C120
  8
0
 10
578.808215847825295
 20
144.0596853395092012
 30
0.0
 40
3.8350309746827942
 50
260.3884355709566876
 51
267.4233795992701062
  0
ARC
  5
C121
  8
0
 10
585.6641742622896345
 20
149.4545940197050129
 30
0.0
 40
13.8206507953714599
 50
199.2821779652809084
 51
212.4507639435310011
  0
ARC
  5
C122
  8
0
 10
584.7929981942235145
 20
148.092981521337606
 30
0.0
 40
13.0950325171926405
 50
142.6430581920168947
 51
147.1809003990179008
  0
ARC
  5
C123
  8
0
 10
583.6194637807936942
 20
148.9896433260933861
 30
0.0
 40
11.7821267701081709
 50
142.2310833702094897
 51
144.4115802568219067
  0
ARC
  5
C124
  8
0
 10
583.1463639961770014
 20
149.3570010409059989
 30
0.0
 40
11.0191923508163292
 50
141.8257799833050967
 51
142.6721229555878949
  0
ARC
  5
C125
  8
0
 10
583.9302166904915339
 20
149.2299437038309975
 30
0.0
 40
11.3201817799835602
 50
198.3199299575518921
 51
210.5432555648409902
  0
ARC
  5
C126
  8
0
 10
582.7435400981571547
 20
149.3997157675225935
 30
0.0
 40
10.6644693574999998
 50
147.1130911265987038
 51
152.7437434079008938
  0
ARC
  5
C127
  8
0
 10
583.337509493059315
 20
148.9994278239541075
 30
0.0
 40
10.68510838567253
 50
191.6611774602056926
 51
198.1454909341325106
  0
ARC
  5
C128
  8
0
 10
576.9902156115133494
 20
156.4693504330350891
 30
0.0
 40
0.0787405732937578
 50
359.9628519427056972
 51
89.9992754444336072
  0
ARC
  5
C129
  8
0
 10
576.990257285397206
 20
156.429317016518894
 30
0.0
 40
0.0787304807896053
 50
0.0715816241837268
 51
90.0131890397370427
  0
ARC
  5
C12A
  8
0
 10
576.6991756500472093
 20
156.7168224296152061
 30
0.0
 40
0.0392460200375796
 50
269.8562352111914038
 51
5.2817462829788209
  0
ARC
  5
C12B
  8
0
 10
578.8257889820572473
 20
175.5021675908228929
 30
0.0
 40
16.8240637544002993
 50
247.5070580586007054
 51
270.0001771294035962
  0
ARC
  5
C12C
  8
0
 10
576.175319744357239
 20
292.0848716600227135
 30
0.0
 40
135.4966512027999954
 50
269.652050188599901
 51
269.7974889856387222
  0
ARC
  5
C12D
  8
0
 10
591.1432343041950617
 20
161.5500449695854002
 30
0.0
 40
19.3813416004169703
 50
161.1865427860927866
 51
182.0944323080059064
  0
ARC
  5
C12E
  8
0
 10
578.9062820511343261
 20
738.748945780717122
 30
0.0
 40
582.914443594112754
 50
269.8194088523101755
 51
269.9627958779448136
  0
LINE
  5
C12F
  8
0
 10
575.8139943387988069
 20
157.9117855418427894
 30
0.0
 11
575.8140798018572468
 21
157.9096998640225991
 31
0.0
  0
LINE
  5
C130
  8
0
 10
576.3257912734570709
 20
157.9096998640225991
 30
0.0
 11
576.3258762912083739
 21
157.9117855908588979
 31
0.0
  0
LINE
  5
C131
  8
0
 10
579.1239063246567866
 20
155.8346250752225899
 30
0.0
 11
578.5277756625572465
 21
155.8346250752225899
 31
0.0
  0
LINE
  5
C132
  8
0
 10
576.3655916698571673
 20
156.5260942507225934
 30
0.0
 11
575.696409083822914
 21
156.5262947754225991
 31
0.0
  0
ARC
  5
C133
  8
0
 10
583.7800102923124541
 20
148.7932935810376023
 30
0.0
 40
11.8238064359702406
 50
189.1264497989153881
 51
199.2724195069384905
  0
ARC
  5
C134
  8
0
 10
573.9574623278056151
 20
161.5297071833263942
 30
0.0
 40
6.7956192380014411
 50
87.8836188639144638
 51
94.3853813952020744
  0
ARC
  5
C135
  8
0
 10
578.8258409940899583
 20
1504.7419434310729685
 30
0.0
 40
1336.4292291792050946
 50
269.8020402269384022
 51
270.1979597730160094
  0
ARC
  5
C136
  8
0
 10
578.8417932812775462
 20
142.532804092389398
 30
0.0
 40
4.6295700364092278
 50
253.1586368392650002
 51
269.8025733364937082
  0
ARC
  5
C137
  8
0
 10
580.0033084596168464
 20
145.4168614526795977
 30
0.0
 40
7.7313816608587933
 50
219.6688636103887973
 51
251.1119205184429859
  0
ARC
  5
C138
  8
0
 10
582.7424628155888513
 20
147.9841242920022069
 30
0.0
 40
11.4809038412958593
 50
197.0795467089448039
 51
220.8048005908165123
  0
ARC
  5
C139
  8
0
 10
581.0617945050702247
 20
147.5293667613103139
 30
0.0
 40
9.7409727468212566
 50
181.745619179106086
 51
197.4260478533857111
  0
ARC
  5
C13A
  8
0
 10
600.8464924190842567
 20
149.5306707449622934
 30
0.0
 40
29.6104587106877304
 50
175.3268815834157124
 51
184.4511368904622941
  0
ARC
  5
C13B
  8
0
 10
621.3913056039366438
 20
147.7920966598748009
 30
0.0
 40
50.2286530362156896
 50
170.8204271094506908
 51
175.259591667669099
  0
ARC
  5
C13C
  8
0
 10
585.5791668389929328
 20
152.2436667260917034
 30
0.0
 40
14.2262313165018206
 50
160.6659510322899962
 51
165.5024747779573033
  0
ARC
  5
C13D
  8
0
 10
564.778047933742755
 20
159.1090472611259941
 30
0.0
 40
7.6856181661557681
 50
343.7129633233046775
 51
353.2016759790035962
  0
ARC
  5
C13E
  8
0
 10
266.3069296967464084
 20
205.3656205631500882
 30
0.0
 40
309.7152359740579186
 50
351.2403740491670874
 51
351.5490329611718039
  0
ARC
  5
C13F
  8
0
 10
578.9148923439491909
 20
142.6707373665489911
 30
0.0
 40
4.2029676437452297
 50
246.6295644192709062
 51
262.7438213814738788
  0
ARC
  5
C140
  8
0
 10
578.8283061236810454
 20
142.1173680680761038
 30
0.0
 40
3.6431288705697238
 50
262.9954389409004989
 51
269.9612306989462809
  0
ARC
  5
C141
  8
0
 10
578.8291816162050054
 20
143.4862208059265072
 30
0.0
 40
4.9339661730846407
 50
251.304845156230499
 51
269.961206951224824
  0
ARC
  5
C142
  8
0
 10
578.8203231905141593
 20
143.4602291763069957
 30
0.0
 40
4.9065065133500374
 50
233.5455254592403946
 51
251.3055441702730946
  0
ARC
  5
C143
  8
0
 10
581.2110148427550484
 20
145.9847522737680947
 30
0.0
 40
8.3682559949065354
 50
214.6392603166432878
 51
230.6489697953983864
  0
ARC
  5
C144
  8
0
 10
585.5131060369564011
 20
149.3654840671742932
 30
0.0
 40
13.8335074059101402
 50
202.087857388029505
 51
216.0316494146696016
  0
ARC
  5
C145
  8
0
 10
583.9526262478246963
 20
148.8362054879465006
 30
0.0
 40
12.1889111196655602
 50
182.9734758444521958
 51
202.5407694645261927
  0
ARC
  5
C146
  8
0
 10
583.696974516790533
 20
148.8569270956712103
 30
0.0
 40
11.9347267922329507
 50
173.8676341327258115
 51
183.1364873593809079
  0
ARC
  5
C147
  8
0
 10
583.6575860051582367
 20
148.8725566320993892
 30
0.0
 40
11.8938994329981096
 50
161.5160632959247948
 51
173.9222250099817018
  0
ARC
  5
C148
  8
0
 10
583.8414770528278268
 20
148.8240668214239122
 30
0.0
 40
12.0836834380546208
 50
147.1863609474129078
 51
161.5744428341606067
  0
ARC
  5
C149
  8
0
 10
677.4312797163702271
 20
143.4598648002377956
 30
0.0
 40
106.0692133393329044
 50
172.3793037357357889
 51
175.3934010562522019
  0
ARC
  5
C14A
  8
0
 10
590.9658387476157486
 20
150.4753706775327089
 30
0.0
 40
19.3197067117522892
 50
175.5371810678909981
 51
186.7519724010616073
  0
ARC
  5
C14B
  8
0
 10
575.1037913774725894
 20
155.5719808005651998
 30
0.0
 40
1.019131710591425
 50
90.0335706418060369
 51
141.5333907988741089
  0
ARC
  5
C14C
  8
0
 10
575.2300832546864058
 20
155.5901334857439906
 30
0.0
 40
0.9435383670715634
 50
92.6727410172093613
 51
142.2744853103266962
  0
ARC
  5
C14D
  8
0
 10
575.3571108625658326
 20
155.5545945491168141
 30
0.0
 40
0.954075865290663
 50
90.1943977702999149
 51
148.0666786435380118
  0
ARC
  5
C14E
  8
0
 10
584.1453231046821202
 20
148.6344575958447933
 30
0.0
 40
12.1345399418295106
 50
142.2750578072381984
 51
152.5431031735163003
  0
ARC
  5
C14F
  8
0
 10
585.7780342004075465
 20
148.1186322336506009
 30
0.0
 40
13.8243263131521701
 50
153.7662175644668139
 51
167.0401184124935128
  0
ARC
  5
C150
  8
0
 10
583.880959549489603
 20
148.7969562514815891
 30
0.0
 40
11.8257952542802691
 50
168.1816271256618052
 51
184.0645601581435074
  0
ARC
  5
C151
  8
0
 10
583.7528671748083298
 20
148.8149052045536962
 30
0.0
 40
11.6993284022993809
 50
184.1967059149096997
 51
201.1750647775266998
  0
ARC
  5
C152
  8
0
 10
585.5292809353593384
 20
149.4567432982499895
 30
0.0
 40
13.5877132095975792
 50
200.9930190311667104
 51
218.6170051879267078
  0
ARC
  5
C153
  8
0
 10
579.767677517342122
 20
144.4817095089719032
 30
0.0
 40
5.9880822336230546
 50
215.8287894845065011
 51
233.1599070368860112
  0
ARC
  5
C154
  8
0
 10
578.8209628682147923
 20
143.3722380449598859
 30
0.0
 40
4.5334668386633288
 50
234.3283580529057133
 51
251.0189403953154113
  0
ARC
  5
C155
  8
0
 10
578.8293259284497481
 20
143.4070671654035891
 30
0.0
 40
4.569123577585624
 50
251.0618268940401947
 51
269.9562996985446262
  0
ARC
  5
C156
  8
0
 10
583.8900217797746564
 20
148.8402450395136043
 30
0.0
 40
11.93990740108522
 50
152.8766873744006887
 51
189.2651688764883886
  0
ARC
  5
C157
  8
0
 10
585.9321046399726356
 20
149.6014224303463038
 30
0.0
 40
14.1255366457069904
 50
212.3701994733829963
 51
221.006443095140213
  0
ARC
  5
C158
  8
0
 10
578.8145206825130344
 20
143.4960962701617859
 30
0.0
 40
4.754391706977537
 50
248.4936902752257879
 51
261.7194686158894115
  0
ARC
  5
C159
  8
0
 10
578.8233998959219662
 20
143.5447655322709863
 30
0.0
 40
4.803832694206644
 50
261.6982705797353788
 51
270.0291152106374284
  0
ARC
  5
C15A
  8
0
 10
578.8044388707326107
 20
144.0915246642807972
 30
0.0
 40
3.8666718170621199
 50
267.5004992444597747
 51
270.3171351572565868
  0
ARC
  5
C15B
  8
0
 10
583.5424158790747242
 20
148.9913667301146063
 30
0.0
 40
10.86495110150865
 50
210.498972229736296
 51
221.5771394575112083
  0
ARC
  5
C15C
  8
0
 10
578.7160057673481788
 20
144.7302999499555938
 30
0.0
 40
4.4267570179104307
 50
221.7763825846182897
 51
243.2576249745339112
  0
ARC
  5
C15D
  8
0
 10
579.09031817561754
 20
145.2899453557714082
 30
0.0
 40
5.0956420742403301
 50
242.3305499056191081
 51
259.5706428557264189
  0
ARC
  5
C15E
  8
0
 10
582.2344169722124434
 20
148.7841703350518969
 30
0.0
 40
9.5612827702631353
 50
165.8326823088885931
 51
191.7339658372237068
  0
ARC
  5
C15F
  8
0
 10
582.4252983277601743
 20
148.7556801420705881
 30
0.0
 40
9.7533502838001827
 50
148.6782996973977902
 51
165.9448576315259913
  0
ARC
  5
C160
  8
0
 10
581.0301446559884653
 20
149.5766431946267119
 30
0.0
 40
8.1347871010189774
 50
139.9099318189786914
 51
148.5096623312601025
  0
ARC
  5
C161
  8
0
 10
576.3059812632134253
 20
153.7200944130231903
 30
0.0
 40
1.856687539546289
 50
123.5277249185062942
 51
143.8493732606308129
  0
ARC
  5
C162
  8
0
 10
575.948518844397654
 20
154.2402935386932086
 30
0.0
 40
1.225645263067175
 50
100.952722350033298
 51
123.0293755394801991
  0
ARC
  5
C163
  8
0
 10
578.7011116296978344
 20
142.0362693819712092
 30
0.0
 40
13.7357145282107105
 50
89.4797093127774161
 51
102.5534611822263997
  0
ARC
  5
C164
  8
0
 10
576.6167323530034992
 20
156.7140421342541003
 30
0.0
 40
0.1572581979250147
 50
337.8500952286095185
 51
5.2263656406195818
  0
ARC
  5
C165
  8
0
 10
576.3687197108579312
 20
156.4585145526438055
 30
0.0
 40
0.06765205268823
 50
74.8555835807434562
 51
92.6501408539085674
  0
ARC
  5
C166
  8
0
 10
576.3773735155327813
 20
156.4970829074007099
 30
0.0
 40
0.0282149782814711
 50
23.3569473258608404
 51
71.3548736020978964
  0
ARC
  5
C167
  8
0
 10
576.0887303289401871
 20
156.360494989789089
 30
0.0
 40
0.3859432265279153
 50
22.5102929605867494
 51
49.7600610747289593
  0
ARC
  5
C168
  8
0
 10
576.0903068280961179
 20
156.3274258030083956
 30
0.0
 40
0.4365715518127132
 50
131.3602646559239133
 51
152.9015550478823968
  0
ARC
  5
C169
  8
0
 10
576.5188019353770414
 20
156.464249223699511
 30
0.0
 40
0.0841328216428852
 50
94.7364254504881131
 51
148.4649053604840105
  0
ARC
  5
C16A
  8
0
 10
576.5075444292278917
 20
157.6727769414171973
 30
0.0
 40
0.1429078473217403
 50
5.1546966669702794
 51
74.0824701141696238
  0
ARC
  5
C16B
  8
0
 10
576.5075884101966039
 20
157.6922570148703926
 30
0.0
 40
0.176851604494146
 50
5.1252974156901283
 51
74.0204366746703215
  0
ARC
  5
C16C
  8
0
 10
575.6323265352824592
 20
157.6727769423443135
 30
0.0
 40
0.142907846186085
 50
105.917512121334596
 51
174.8453047923306087
  0
ARC
  5
C16D
  8
0
 10
575.6322837187167352
 20
157.6922564795075914
 30
0.0
 40
0.1768528130673095
 50
106.0088726118629978
 51
174.8746944537172965
  0
CIRCLE
  5
C16E
  8
0
 10
578.8258409936072439
 20
164.2652982350772106
 30
0.0
 40
0.9448874136529575
  0
CIRCLE
  5
C16F
  8
0
 10
578.8258409936072439
 20
164.2652982350772106
 30
0.0
 40
0.6888706243868687
  0
ARC
  5
C170
  8
0
 10
578.8275660062854513
 20
164.263846522271308
 30
0.0
 40
0.6698979058173026
 50
97.8052764209623149
 51
262.3621344005306923
  0
ARC
  5
C171
  8
0
 10
578.8239760573635522
 20
164.2633411549178959
 30
0.0
 40
0.6701124776114148
 50
267.4239296608598124
 51
92.1978795188871345
  0
ARC
  5
C172
  8
0
 10
578.740480306958716
 20
163.6219674295855953
 30
0.0
 40
0.0221615045933751
 50
264.9483773807388047
 51
356.5765790669630064
  0
ARC
  5
C173
  8
0
 10
578.7947602981944328
 20
163.6128000125495134
 30
0.0
 40
0.0189157027344208
 50
176.4328469854515049
 51
267.2638970919297776
  0
ARC
  5
C174
  8
0
 10
582.5357493460105616
 20
164.2633977348073131
 30
0.0
 40
3.8155413178031581
 50
170.1099771030766874
 51
189.7996867157685017
  0
ARC
  5
C175
  8
0
 10
578.7953796908919912
 20
164.9141491720102124
 30
0.0
 40
0.0190332472705205
 50
81.2451365985226488
 51
166.0246315501514118
  0
ARC
  5
C176
  8
0
 10
578.7389548204007497
 20
164.9038943648062912
 30
0.0
 40
0.023761723873485
 50
5.8739793439763686
 51
95.713335642038686
  0
ARC
  5
C177
  8
0
 10
582.5371636629320165
 20
164.2635158911307087
 30
0.0
 40
3.8289160257403352
 50
170.3352396129600947
 51
189.6656947691996891
  0
LINE
  5
C178
  8
0
 10
582.1955439721572247
 20
157.7080554849225962
 30
0.0
 11
582.2851477860572231
 21
156.728366910722599
 31
0.0
  0
LINE
  5
C179
  8
0
 10
582.1616853433572487
 20
157.6856165104225909
 30
0.0
 11
582.2500664046572183
 21
156.7204315444226097
 31
0.0
  0
LINE
  5
C17A
  8
0
 10
581.9552729033913465
 20
156.5262947754225991
 30
0.0
 11
581.9552719876711535
 21
156.589066807512296
 31
0.0
  0
LINE
  5
C17B
  8
0
 10
581.847494535957253
 20
157.8563350180226053
 30
0.0
 11
581.847494535957253
 21
157.9082320227225864
 31
0.0
  0
LINE
  5
C17C
  8
0
 10
581.8376520162571524
 20
157.8478921563225867
 30
0.0
 11
581.8376520162571524
 21
157.9069492448226129
 31
0.0
  0
LINE
  5
C17D
  8
0
 10
581.3258409925572323
 20
157.8478925246226083
 30
0.0
 11
581.3258409925572323
 21
157.9069492448226129
 31
0.0
  0
LINE
  5
C17E
  8
0
 10
581.3159984729571761
 20
157.8563350180407099
 30
0.0
 11
581.3159984729571761
 21
157.9082320227225864
 31
0.0
  0
LINE
  5
C17F
  8
0
 10
580.932713273152217
 20
156.5480931232349064
 30
0.0
 11
580.8892969989572066
 21
156.6547508983225896
 31
0.0
  0
LINE
  5
C180
  8
0
 10
580.9134269527571632
 20
156.7204351575225871
 30
0.0
 11
581.0018076657571555
 21
157.6856165132226124
 31
0.0
  0
LINE
  5
C181
  8
0
 10
580.8783452235570621
 20
156.7283669162225976
 30
0.0
 11
580.9679490748570743
 21
157.7080558873225868
 31
0.0
  0
LINE
  5
C182
  8
0
 10
580.5827258189572149
 20
156.4692993811225961
 30
0.0
 11
580.5826908320003668
 21
155.8373976768920954
 31
0.0
  0
LINE
  5
C183
  8
0
 10
582.2741960098570644
 20
156.654750898222602
 30
0.0
 11
582.2480084484468534
 21
156.5904177170415039
 31
0.0
  0
LINE
  5
C184
  8
0
 10
580.6614653799572352
 20
156.5480910063226077
 30
0.0
 11
581.1398270754572195
 21
156.5480947396225986
 31
0.0
  0
LINE
  5
C185
  8
0
 10
581.3136362138570803
 20
156.6551031758226031
 30
0.0
 11
581.8498579274571512
 21
156.6551031019226059
 31
0.0
  0
LINE
  5
C186
  8
0
 10
580.6614428249572484
 20
156.5080474952225984
 30
0.0
 11
582.2978081844571534
 21
156.5086649229226055
 31
0.0
  0
LINE
  5
C187
  8
0
 10
582.2108884014570549
 20
156.6775765507225913
 30
0.0
 11
580.9526048119571442
 21
156.6775765331225898
 31
0.0
  0
LINE
  5
C188
  8
0
 10
581.3258409925572323
 20
157.8788803279225874
 30
0.0
 11
581.8376520162571524
 21
157.8788803279225874
 31
0.0
  0
LINE
  5
C189
  8
0
 10
581.3159984729571761
 20
157.8880953969226084
 30
0.0
 11
581.3258409925572323
 21
157.8880953969226084
 31
0.0
  0
LINE
  5
C18A
  8
0
 10
581.8376520162571524
 20
157.8880953969226084
 30
0.0
 11
581.847494535957253
 21
157.8880953969226084
 31
0.0
  0
LINE
  5
C18B
  8
0
 10
581.8376520162571524
 20
157.9069492448226129
 30
0.0
 11
581.3258409925572323
 21
157.9069492448226129
 31
0.0
  0
LINE
  5
C18C
  8
0
 10
581.3258907137571896
 20
157.9096998640225991
 30
0.0
 11
581.8376021853572411
 21
157.9096998640225991
 31
0.0
  0
LINE
  5
C18D
  8
0
 10
581.3258056960060003
 20
157.9117855908588979
 30
0.0
 11
581.8376876484155673
 21
157.9117855418427894
 31
0.0
  0
ARC
  5
C18E
  8
0
 10
582.4722918468454509
 20
125.8911036516335002
 30
0.0
 40
30.7001032416441184
 50
89.8577950242771948
 51
90.3230240307155867
  0
ARC
  5
C18F
  8
0
 10
582.3634071887172468
 20
155.4816022216328122
 30
0.0
 40
1.0559993527204099
 50
84.4467521560354442
 51
91.705660517863933
  0
ARC
  5
C190
  8
0
 10
582.1285481746467667
 20
156.7140414207079004
 30
0.0
 40
0.1572534831349724
 50
337.8496765974451819
 51
5.2267818300331426
  0
ARC
  5
C191
  8
0
 10
582.210988670628808
 20
156.716820632187904
 30
0.0
 40
0.0392442095596512
 50
269.8536088084812263
 51
5.2793284963639486
  0
ARC
  5
C192
  8
0
 10
581.5817465044572145
 20
156.1599110589226029
 30
0.0
 40
1.7704717091999991
 50
74.0532798250016953
 51
81.688142045302186
  0
ARC
  5
C193
  8
0
 10
581.5817346175989542
 20
156.159976992289188
 30
0.0
 40
1.770404750030488
 50
98.3117747921176033
 51
105.9440401318178004
  0
ARC
  5
C194
  8
0
 10
581.6699149437748702
 20
156.7455224451385902
 30
0.0
 40
1.176192192470674
 50
81.3163706234374644
 51
81.8035335370269934
  0
ARC
  5
C195
  8
0
 10
581.4937069264478851
 20
156.7446665521190994
 30
0.0
 40
1.177057729717111
 50
98.1967405544897645
 51
98.6835399487999751
  0
ARC
  5
C196
  8
0
 10
581.5817619895572079
 20
156.1346393679226026
 30
0.0
 40
1.7420820008
 50
81.226002399602578
 51
81.5534059858970153
  0
ARC
  5
C197
  8
0
 10
581.5817922917572105
 20
156.1348113844225907
 30
0.0
 40
1.7419073750999989
 50
74.115577814201572
 51
81.226124388402809
  0
ARC
  5
C198
  8
0
 10
581.5817007148572202
 20
156.1348113970225882
 30
0.0
 40
1.7419073624000001
 50
98.4464393144086358
 51
105.8844236604014952
  0
ARC
  5
C199
  8
0
 10
581.5820531165570628
 20
156.2747130027225921
 30
0.0
 40
1.6018154076
 50
90.0126435480020035
 51
96.7973929307033529
  0
ARC
  5
C19A
  8
0
 10
581.5815838109307379
 20
156.2774728504134032
 30
0.0
 40
1.5990555251034231
 50
83.1954015669170559
 51
89.9958496739029385
  0
ARC
  5
C19B
  8
0
 10
582.0282199680572148
 20
168.5815123955225943
 30
0.0
 40
12.0482084073000006
 50
269.6530944376622188
 51
271.4446751241965217
  0
ARC
  5
C19C
  8
0
 10
603.2731184757029723
 20
170.0820473052864088
 30
0.0
 40
24.2723971867550716
 50
215.9088331125697948
 51
217.3027928080296931
  0
ARC
  5
C19D
  8
0
 10
584.8811169563324484
 20
160.8785913193185024
 30
0.0
 40
0.9964069464482584
 50
292.4902471679851033
 51
357.8794906275708172
  0
ARC
  5
C19E
  8
0
 10
584.144496430904951
 20
167.5589061489920937
 30
0.0
 40
0.7497387796347651
 50
18.7817865122624283
 51
84.6927885820194035
  0
ARC
  5
C19F
  8
0
 10
578.8416915529702464
 20
143.4813198404735886
 30
0.0
 40
4.7389834004635167
 50
291.5208453475856913
 51
305.5856206565404136
  0
ARC
  5
C1A0
  8
0
 10
578.938010311425046
 20
143.3520489278670027
 30
0.0
 40
4.5778055891695271
 50
305.5467492499387845
 51
318.7391091121896807
  0
ARC
  5
C1A1
  8
0
 10
578.8434661393888518
 20
144.0596853395092012
 30
0.0
 40
3.8350309746827942
 50
272.5766204007300075
 51
279.6115644290431987
  0
ARC
  5
C1A2
  8
0
 10
571.9875077249248534
 20
149.4545940197050129
 30
0.0
 40
13.8206507953714599
 50
327.5492360564689989
 51
340.7178220347175284
  0
ARC
  5
C1A3
  8
0
 10
572.858683792990746
 20
148.092981521337606
 30
0.0
 40
13.0950325171926405
 50
32.8190996009821419
 51
37.3569418079830697
  0
ARC
  5
C1A4
  8
0
 10
574.0322182064204526
 20
148.9896433260933861
 30
0.0
 40
11.7821267701081709
 50
35.5884197431780365
 51
37.7689166297904393
  0
ARC
  5
C1A5
  8
0
 10
574.5053179910374865
 20
149.3570010409059989
 30
0.0
 40
11.0191923508163292
 50
37.3278770444120624
 51
38.174220016694882
  0
ARC
  5
C1A6
  8
0
 10
573.7214652967228403
 20
149.2299437038309975
 30
0.0
 40
11.3201817799835602
 50
329.4567444351590098
 51
341.6800700424481079
  0
ARC
  5
C1A7
  8
0
 10
574.9081418890572195
 20
149.3997157675225935
 30
0.0
 40
10.6644693574999998
 50
27.2562565920990885
 51
32.886908873401282
  0
ARC
  5
C1A8
  8
0
 10
574.3141724941549455
 20
148.9994278239541075
 30
0.0
 40
10.68510838567253
 50
341.8545090658673757
 51
348.3388225397943074
  0
ARC
  5
C1A9
  8
0
 10
580.6614663757009112
 20
156.4693504330350891
 30
0.0
 40
0.0787405732937578
 50
90.000724555566407
 51
180.0371480572943028
  0
ARC
  5
C1AA
  8
0
 10
580.6614247018171682
 20
156.429317016518894
 30
0.0
 40
0.0787304807896053
 50
89.9868109602629431
 51
179.9284183758163067
  0
ARC
  5
C1AB
  8
0
 10
580.9525063371670512
 20
156.7168224296152061
 30
0.0
 40
0.0392460200375796
 50
174.7182537170212129
 51
270.1437647888084825
  0
ARC
  5
C1AC
  8
0
 10
578.8258930051571269
 20
175.5021675908228076
 30
0.0
 40
16.8240637544001608
 50
269.9998228698930234
 51
292.4929419413992946
  0
ARC
  5
C1AD
  8
0
 10
581.4763622428572489
 20
292.0848716600227135
 30
0.0
 40
135.4966512027999954
 50
270.2025110143612778
 51
270.3479498113999853
  0
ARC
  5
C1AE
  8
0
 10
566.5084476830193125
 20
161.5500449695854002
 30
0.0
 40
19.3813416004169703
 50
357.905567691994122
 51
18.8134572139071388
  0
ARC
  5
C1AF
  8
0
 10
578.7453999360800481
 20
738.748945780717122
 30
0.0
 40
582.914443594112754
 50
270.0372041220550727
 51
270.1805911476898245
  0
LINE
  5
C1B0
  8
0
 10
581.3322344906572425
 20
157.8483317495226004
 30
0.0
 11
581.3258409925572323
 21
157.8483571686246023
 31
0.0
  0
LINE
  5
C1B1
  8
0
 10
581.8376520162571524
 20
157.8478921563225867
 30
0.0
 11
581.831258360457241
 21
157.8483317066225879
 31
0.0
  0
LINE
  5
C1B2
  8
0
 10
581.3322344906572425
 20
157.8483317495226004
 30
0.0
 11
581.3258409925572323
 21
157.8478925246226083
 31
0.0
  0
LINE
  5
C1B3
  8
0
 10
581.8376876484155673
 20
157.9117855418427894
 30
0.0
 11
581.8376021853572411
 21
157.9096998640225991
 31
0.0
  0
LINE
  5
C1B4
  8
0
 10
581.3258907137571896
 20
157.9096998640225991
 30
0.0
 11
581.3258056960060003
 21
157.9117855908588979
 31
0.0
  0
LINE
  5
C1B5
  8
0
 10
581.2860903173572069
 20
156.5260942507225934
 30
0.0
 11
581.9552729033913465
 21
156.5262947754225991
 31
0.0
  0
ARC
  5
C1B6
  8
0
 10
573.8716716949018064
 20
148.7932935810376023
 30
0.0
 40
11.8238064359702406
 50
340.7275804930615095
 51
350.8735502010845266
  0
ARC
  5
C1B7
  8
0
 10
583.6942196594086454
 20
161.5297071833263942
 30
0.0
 40
6.7956192380014411
 50
85.614618604797954
 51
92.1163811360855647
  0
ARC
  5
C1B8
  8
0
 10
578.809888705936828
 20
142.532804092389398
 30
0.0
 40
4.6295700364092278
 50
270.1974266635062918
 51
286.8413631607348862
  0
ARC
  5
C1B9
  8
0
 10
577.6483735275975278
 20
145.4168614526795977
 30
0.0
 40
7.7313816608587933
 50
288.8880794815569857
 51
320.331136389611288
  0
ARC
  5
C1BA
  8
0
 10
574.9092191716255229
 20
147.9841242920022069
 30
0.0
 40
11.4809038412958593
 50
319.1951994091834877
 51
342.9204532910551961
  0
ARC
  5
C1BB
  8
0
 10
576.5898874821441495
 20
147.5293667613103139
 30
0.0
 40
9.7409727468212566
 50
342.5739521466142037
 51
358.254380820893914
  0
ARC
  5
C1BC
  8
0
 10
556.8051895681300039
 20
149.5306707449622934
 30
0.0
 40
29.6104587106877304
 50
355.5488631095375922
 51
4.6731184165843116
  0
ARC
  5
C1BD
  8
0
 10
536.2603763832777304
 20
147.7920966598748009
 30
0.0
 40
50.2286530362156896
 50
4.7404083323309267
 51
9.1795728905493021
  0
ARC
  5
C1BE
  8
0
 10
572.0725151482215551
 20
152.2436667260917034
 30
0.0
 40
14.2262313165018206
 50
14.4975252220426505
 51
19.3340489677100109
  0
ARC
  5
C1BF
  8
0
 10
592.8736340534713918
 20
159.1090472611259941
 30
0.0
 40
7.6856181661557681
 50
186.7983240209964038
 51
196.2870366766952941
  0
ARC
  5
C1C0
  8
0
 10
891.3447522904681364
 20
205.3656205631500882
 30
0.0
 40
309.7152359740579186
 50
188.4509670388281961
 51
188.7596259508327989
  0
ARC
  5
C1C1
  8
0
 10
578.7367896432649559
 20
142.6707373665489911
 30
0.0
 40
4.2029676437452297
 50
277.2561786185260075
 51
293.3704355807291222
  0
ARC
  5
C1C2
  8
0
 10
578.8233758635334425
 20
142.1173680680761038
 30
0.0
 40
3.6431288705697238
 50
270.0387693010537191
 51
277.0045610590995011
  0
ARC
  5
C1C3
  8
0
 10
578.8225003710094825
 20
143.4862208059265072
 30
0.0
 40
4.9339661730846407
 50
270.038793048775176
 51
288.695154843769501
  0
ARC
  5
C1C4
  8
0
 10
578.8313587966999876
 20
143.4602291763069957
 30
0.0
 40
4.9065065133500374
 50
288.6944558297269054
 51
306.4544745407595769
  0
ARC
  5
C1C5
  8
0
 10
576.4406671444593258
 20
145.9847522737680947
 30
0.0
 40
8.3682559949065354
 50
309.3510302046014999
 51
325.3607396833567122
  0
ARC
  5
C1C6
  8
0
 10
572.1385759502578594
 20
149.3654840671742932
 30
0.0
 40
13.8335074059101402
 50
323.9683505853304268
 51
337.9121426119705234
  0
ARC
  5
C1C7
  8
0
 10
573.6990557393895642
 20
148.8362054879465006
 30
0.0
 40
12.1889111196655602
 50
337.4592305354738073
 51
357.0265241555476905
  0
ARC
  5
C1C8
  8
0
 10
573.9547074704238412
 20
148.8569270956712103
 30
0.0
 40
11.9347267922329507
 50
356.8635126406190921
 51
6.1323658672742152
  0
ARC
  5
C1C9
  8
0
 10
573.9940959820562512
 20
148.8725566320993892
 30
0.0
 40
11.8938994329981096
 50
6.0777749900182991
 51
18.4839367040751483
  0
ARC
  5
C1CA
  8
0
 10
573.8102049343865474
 20
148.8240668214239122
 30
0.0
 40
12.0836834380546208
 50
18.42555716583934
 51
32.8136390525870425
  0
ARC
  5
C1CB
  8
0
 10
480.2204022708440903
 20
143.4598648002377956
 30
0.0
 40
106.0692133393329044
 50
4.6065989437477812
 51
7.6206962642641791
  0
ARC
  5
C1CC
  8
0
 10
566.6858432395987393
 20
150.4753706775327089
 30
0.0
 40
19.3197067117522892
 50
353.2480275989383927
 51
4.4628189321089593
  0
ARC
  5
C1CD
  8
0
 10
582.5478906097416711
 20
155.5719808005651998
 30
0.0
 40
1.019131710591425
 50
38.4666092011258982
 51
89.9664293581939631
  0
ARC
  5
C1CE
  8
0
 10
582.4215987325279684
 20
155.5901334857439906
 30
0.0
 40
0.9435383670715634
 50
37.7255146896732327
 51
87.3272589827906245
  0
ARC
  5
C1CF
  8
0
 10
582.2945711246485416
 20
155.5545945491168141
 30
0.0
 40
0.954075865290663
 50
31.9333213564620202
 51
89.8056022297000851
  0
ARC
  5
C1D0
  8
0
 10
573.506358882532254
 20
148.6344575958447933
 30
0.0
 40
12.1345399418295106
 50
27.4568968264837103
 51
37.7249421927617377
  0
ARC
  5
C1D1
  8
0
 10
571.8736477868069414
 20
148.1186322336506009
 30
0.0
 40
13.8243263131521701
 50
12.9598815875064606
 51
26.2337824355331684
  0
ARC
  5
C1D2
  8
0
 10
573.7707224377247712
 20
148.7969562514815891
 30
0.0
 40
11.8257952542802691
 50
355.9354398418564074
 51
11.8183728743381398
  0
ARC
  5
C1D3
  8
0
 10
573.8988148124060444
 20
148.8149052045536962
 30
0.0
 40
11.6993284022993809
 50
338.8249352224733002
 51
355.8032940850902719
  0
ARC
  5
C1D4
  8
0
 10
572.1224010518551495
 20
149.4567432982499895
 30
0.0
 40
13.5877132095975792
 50
321.3829948120733206
 51
339.006980968833318
  0
ARC
  5
C1D5
  8
0
 10
577.8840044698722522
 20
144.4817095089719032
 30
0.0
 40
5.9880822336230546
 50
306.8400929631138752
 51
324.1712105154934989
  0
ARC
  5
C1D6
  8
0
 10
578.8307191189994683
 20
143.3722380449598859
 30
0.0
 40
4.5334668386633288
 50
288.9810596046846172
 51
305.6716419470943151
  0
ARC
  5
C1D7
  8
0
 10
578.8223560587647398
 20
143.4070671654035891
 30
0.0
 40
4.569123577585624
 50
270.0437003014553738
 51
288.93817310595972
  0
ARC
  5
C1D8
  8
0
 10
573.7616602074394905
 20
148.8402450395136043
 30
0.0
 40
11.93990740108522
 50
350.7348311235115261
 51
27.1233126255992616
  0
ARC
  5
C1D9
  8
0
 10
571.7195773472417386
 20
149.6014224303463038
 30
0.0
 40
14.1255366457069904
 50
318.9935569048598154
 51
327.6298005266169753
  0
ARC
  5
C1DA
  8
0
 10
578.8371613047014534
 20
143.4960962701617859
 30
0.0
 40
4.754391706977537
 50
278.2805313841105885
 51
291.5063097247742121
  0
ARC
  5
C1DB
  8
0
 10
578.828282091292408
 20
143.5447655322709863
 30
0.0
 40
4.8038326942066236
 50
269.9708847893625716
 51
278.3017294202646212
  0
ARC
  5
C1DC
  8
0
 10
578.8472431164817635
 20
144.0915246642807972
 30
0.0
 40
3.8666718170621199
 50
269.6828648427434132
 51
272.4995007555402253
  0
ARC
  5
C1DD
  8
0
 10
574.10926610813965
 20
148.9913667301146063
 30
0.0
 40
10.86495110150865
 50
318.4228605424888201
 51
329.5010277702635904
  0
ARC
  5
C1DE
  8
0
 10
578.9356762198661954
 20
144.7302999499555938
 30
0.0
 40
4.4267570179104307
 50
296.7423750254661172
 51
318.2236174153816819
  0
ARC
  5
C1DF
  8
0
 10
578.5613638115968342
 20
145.2899453557714082
 30
0.0
 40
5.0956420742403301
 50
280.4293571442736948
 51
297.6694500943808066
  0
ARC
  5
C1E0
  8
0
 10
575.4172650150017034
 20
148.7841703350518969
 30
0.0
 40
9.5612827702631353
 50
348.2660341627762932
 51
14.1673176911113803
  0
ARC
  5
C1E1
  8
0
 10
575.2263836594541999
 20
148.7556801420705881
 30
0.0
 40
9.7533502838001827
 50
14.0551423684739802
 51
31.3217003026021601
  0
ARC
  5
C1E2
  8
0
 10
576.6215373312260226
 20
149.5766431946267119
 30
0.0
 40
8.1347871010189774
 50
31.4903376687398584
 51
40.0900681810212589
  0
ARC
  5
C1E3
  8
0
 10
581.3457007240009489
 20
153.7200944130231903
 30
0.0
 40
1.856687539546289
 50
36.1506267393692298
 51
56.4722750814936418
  0
ARC
  5
C1E4
  8
0
 10
581.7031631428167202
 20
154.2402935386932086
 30
0.0
 40
1.225645263067175
 50
56.9706244605197796
 51
79.0472776499666168
  0
ARC
  5
C1E5
  8
0
 10
578.9505703575165398
 20
142.0362693819712092
 30
0.0
 40
13.7357145282107105
 50
77.4465388177735861
 51
90.5202906872225839
  0
ARC
  5
C1E6
  8
0
 10
581.034949634210875
 20
156.7140421342541003
 30
0.0
 40
0.1572581979250147
 50
174.7736343593803952
 51
202.1499047713905099
  0
ARC
  5
C1E7
  8
0
 10
581.282962276356443
 20
156.4585145526438055
 30
0.0
 40
0.06765205268823
 50
87.3498591460914326
 51
105.1444164192565012
  0
ARC
  5
C1E8
  8
0
 10
581.2743084716814792
 20
156.4970829074007099
 30
0.0
 40
0.0282149782814711
 50
108.6451263979021036
 51
156.6430526741391986
  0
ARC
  5
C1E9
  8
0
 10
581.5629516582741871
 20
156.360494989789089
 30
0.0
 40
0.3859432265279153
 50
130.2399389252709909
 51
157.4897070394133038
  0
ARC
  5
C1EA
  8
0
 10
581.5613751591182563
 20
156.3274258030083956
 30
0.0
 40
0.4365715518127132
 50
27.0984449521175286
 51
48.6397353440761222
  0
ARC
  5
C1EB
  8
0
 10
581.1328800518374464
 20
156.464249223699511
 30
0.0
 40
0.0841328216428852
 50
31.5350946395159895
 51
85.2635745495054067
  0
ARC
  5
C1EC
  8
0
 10
581.1441375579864825
 20
157.6727769414171973
 30
0.0
 40
0.1429078473217403
 50
105.9175298858304046
 51
174.8453033330297046
  0
ARC
  5
C1ED
  8
0
 10
581.1440935770176566
 20
157.6922570148703926
 30
0.0
 40
0.176851604494146
 50
105.9795633253297069
 51
174.8747025843098868
  0
ARC
  5
C1EE
  8
0
 10
582.019355451931915
 20
157.6727769423443135
 30
0.0
 40
0.142907846186085
 50
5.1546952076693646
 51
74.0824878786653471
  0
ARC
  5
C1EF
  8
0
 10
582.019398268497639
 20
157.6922564795075914
 30
0.0
 40
0.1768528130673095
 50
5.1253055462810959
 51
73.9911273881370306
  0
ARC
  5
C1F0
  8
0
 10
581.742123803762297
 20
157.5659680086392029
 30
0.0
 40
0.3006907852880949
 50
75.5748591937346248
 51
84.4804690794740765
  0
ARC
  5
C1F1
  8
0
 10
581.8067700092490213
 20
157.8147873291277108
 30
0.0
 40
0.0436158832091985
 50
58.6688985021473073
 51
76.3940413115708168
  0
ARC
  5
C1F2
  8
0
 10
581.8265272921696578
 20
157.8477775172347037
 30
0.0
 40
0.0051704704532083
 50
22.8509857871209583
 51
55.5854487734903486
  0
ARC
  5
C1F3
  8
0
 10
581.8291968583760081
 20
157.8491066070857016
 30
0.0
 40
0.0022023309375753
 50
339.3992019002099028
 51
17.9516171248647112
  0
ARC
  5
C1F4
  8
0
 10
581.4229781652318252
 20
157.5603089141897044
 30
0.0
 40
0.3064829622806988
 50
95.7139339398741669
 51
104.9735256074766028
  0
ARC
  5
C1F5
  8
0
 10
581.3547314634312215
 20
157.8180685405592953
 30
0.0
 40
0.0398480088416595
 50
105.9349848017452018
 51
120.0230679360272035
  0
ARC
  5
C1F6
  8
0
 10
581.3376674989337971
 20
157.8472060768040137
 30
0.0
 40
0.0060852386309214
 50
118.1823523541767997
 51
150.8823086343305135
  0
ARC
  5
C1F7
  8
0
 10
581.334353624435721
 20
157.8491183195727103
 30
0.0
 40
0.0022604027107719
 50
152.353365243324788
 51
200.3636804806658915
  0
ARC
  5
C1F9
  8
0
 10
578.6578709353570957
 20
163.6364617148225875
 30
0.0
 40
0.0333379118000012
 50
200.493455869613598
 51
309.2361286675715064
  0
ARC
  5
C1FA
  8
0
 10
578.3669379880993802
 20
163.8045581573005904
 30
0.0
 40
0.0334405168442443
 50
169.2243677938830047
 51
280.6087552542833805
  0
ARC
  5
C1FB
  8
0
 10
578.1989343139000539
 20
164.095328639494312
 30
0.0
 40
0.0333201905026168
 50
138.726393795297497
 51
251.2866214902227
  0
ARC
  5
C1FC
  8
0
 10
578.4324594776168169
 20
164.2545688074924044
 30
0.0
 40
0.2874418163820624
 50
158.8695828139811965
 51
202.7637050043522891
  0
ARC
  5
C1FD
  8
0
 10
578.1989159939516867
 20
164.4312482405908042
 30
0.0
 40
0.0333043624554019
 50
109.4060062929329007
 51
218.6494407863810068
  0
ARC
  5
C1FE
  8
0
 10
578.3669164073570528
 20
164.7221696883225945
 30
0.0
 40
0.0333251128999974
 50
81.0426498443374186
 51
189.2474447166810876
  0
ARC
  5
C1FF
  8
0
 10
578.6578630177571085
 20
164.8901295497225874
 30
0.0
 40
0.0333276384999901
 50
89.9999999999869686
 51
157.1692011535197935
  0
LINE
  5
C200
  8
0
 10
578.6578630177571085
 20
164.9234571882226135
 30
0.0
 11
578.6767769936027435
 21
164.9165531009668939
 31
0.0
  0
ARC
  5
C201
  8
0
 10
578.8822420040711449
 20
164.9084900185015101
 30
0.0
 40
0.0342720623648742
 50
34.3754906404054594
 51
135.3032934969018015
  0
ARC
  5
C202
  8
0
 10
579.2334114597767893
 20
164.7664999318853916
 30
0.0
 40
0.0343974581658305
 50
358.1928057710529174
 51
103.4852122573354052
  0
ARC
  5
C203
  8
0
 10
579.4457779142763911
 20
164.4529484147045082
 30
0.0
 40
0.0336910094652671
 50
322.2827417283535283
 51
71.6335368086178477
  0
ARC
  5
C204
  8
0
 10
579.21460797035013
 20
164.2523107781296972
 30
0.0
 40
0.2920564044802054
 50
335.9813712035954723
 51
20.7837361843423309
  0
ARC
  5
C205
  8
0
 10
579.4447917946071129
 20
164.0738863783764998
 30
0.0
 40
0.0347075934722384
 50
289.4483415736257825
 51
36.9388314273093101
  0
ARC
  5
C206
  8
0
 10
579.2324409408290649
 20
163.7609215742722029
 30
0.0
 40
0.0351839275311102
 50
257.9001923079318885
 51
0.3217223148728243
  0
ARC
  5
C207
  8
0
 10
578.8821187512561437
 20
163.6183736005177991
 30
0.0
 40
0.0345618232855463
 50
224.6836032017619971
 51
325.6187769600963975
  0
ENDSEC
  0
EOF
