  0
SECTION
  2
HEADER
  9
$ACADVER
  1
AC1009
  9
$INSBASE
 10
4229.7192764541323413
 20
215.0518582212393142
 30
0.0
  9
$EXTMIN
 10
4222.37054552320933
 20
215.0470674536807962
 30
0.0
  9
$EXTMAX
 10
4237.0680073850544431
 20
232.966498531348293
 30
0.0
  9
$LIMMIN
 10
0.0
 20
0.0
  9
$LIMMAX
 10
11.6929133858000007
 20
8.2677165353999982
  9
$ORTHOMODE
 70
     0
  9
$REGENMODE
 70
     1
  9
$FILLMODE
 70
     1
  9
$QTEXTMODE
 70
     0
  9
$MIRRTEXT
 70
     0
  9
$DRAGMODE
 70
     2
  9
$LTSCALE
 40
0.6431102362
  9
$OSMODE
 70
  3839
  9
$ATTMODE
 70
     1
  9
$TEXTSIZE
 40
0.2
  9
$TRACEWID
 40
0.05
  9
$TEXTSTYLE
  7
STANDARD
  9
$CLAYER
  8
0
  9
$CELTYPE
  6
BYLAYER
  9
$CECOLOR
 62
     1
  9
$DIMSCALE
 40
1.0
  9
$DIMASZ
 40
0.1875
  9
$DIMEXO
 40
0.0625
  9
$DIMDLI
 40
0.4443307087
  9
$DIMRND
 40
0.0
  9
$DIMDLE
 40
0.0
  9
$DIMEXE
 40
0.125
  9
$DIMTP
 40
0.01
  9
$DIMTM
 40
0.01
  9
$DIMTXT
 40
2.0
  9
$DIMCEN
 40
0.1052362205
  9
$DIMTSZ
 40
0.0
  9
$DIMTOL
 70
     1
  9
$DIMLIM
 70
     0
  9
$DIMTIH
 70
     1
  9
$DIMTOH
 70
     1
  9
$DIMSE1
 70
     0
  9
$DIMSE2
 70
     0
  9
$DIMTAD
 70
     0
  9
$DIMZIN
 70
     0
  9
$DIMBLK
  1

  9
$DIMASO
 70
     1
  9
$DIMSHO
 70
     1
  9
$DIMPOST
  1
\X
  9
$DIMAPOST
  1

  9
$DIMALT
 70
     1
  9
$DIMALTD
 70
     2
  9
$DIMALTF
 40
25.3999999999999986
  9
$DIMLFAC
 40
1.0
  9
$DIMTOFL
 70
     0
  9
$DIMTVP
 40
0.0
  9
$DIMTIX
 70
     0
  9
$DIMSOXD
 70
     0
  9
$DIMSAH
 70
     0
  9
$DIMBLK1
  1

  9
$DIMBLK2
  1

  9
$DIMSTYLE
  2
STANDARD
  9
$DIMCLRD
 70
     0
  9
$DIMCLRE
 70
     0
  9
$DIMCLRT
 70
     0
  9
$DIMTFAC
 40
1.0
  9
$DIMGAP
 40
0.09
  9
$LUNITS
 70
     2
  9
$LUPREC
 70
     4
  9
$SKETCHINC
 40
0.1
  9
$FILLETRAD
 40
0.0
  9
$AUNITS
 70
     0
  9
$AUPREC
 70
     0
  9
$MENU
  1
.
  9
$ELEVATION
 40
0.0
  9
$PELEVATION
 40
0.0
  9
$THICKNESS
 40
0.0
  9
$LIMCHECK
 70
     0
  9
$BLIPMODE
 70
     0
  9
$CHAMFERA
 40
0.0
  9
$CHAMFERB
 40
0.0
  9
$SKPOLY
 70
     0
  9
$TDCREATE
 40
2458060.468368056230247
  9
$TDUPDATE
 40
2459154.6304976851679385
  9
$TDINDWG
 40
0.5624028934999999
  9
$TDUSRTIMER
 40
0.5624028934999999
  9
$USRTIMER
 70
     1
  9
$ANGBASE
 50
0.0
  9
$ANGDIR
 70
     0
  9
$PDMODE
 70
     0
  9
$PDSIZE
 40
0.3125
  9
$PLINEWID
 40
0.0
  9
$COORDS
 70
     1
  9
$SPLFRAME
 70
     0
  9
$SPLINETYPE
 70
     6
  9
$SPLINESEGS
 70
     8
  9
$ATTDIA
 70
     1
  9
$ATTREQ
 70
     1
  9
$HANDLING
 70
     1
  9
$HANDSEED
  5
9713
  9
$SURFTAB1
 70
     6
  9
$SURFTAB2
 70
     6
  9
$SURFTYPE
 70
     6
  9
$SURFU
 70
     6
  9
$SURFV
 70
     6
  9
$UCSNAME
  2

  9
$UCSORG
 10
0.0
 20
0.0
 30
0.0
  9
$UCSXDIR
 10
1.0
 20
0.0
 30
0.0
  9
$UCSYDIR
 10
0.0
 20
1.0
 30
0.0
  9
$PUCSNAME
  2

  9
$PUCSORG
 10
0.0
 20
0.0
 30
0.0
  9
$PUCSXDIR
 10
1.0
 20
0.0
 30
0.0
  9
$PUCSYDIR
 10
0.0
 20
1.0
 30
0.0
  9
$USERI1
 70
     0
  9
$USERI2
 70
     0
  9
$USERI3
 70
     0
  9
$USERI4
 70
     0
  9
$USERI5
 70
     0
  9
$USERR1
 40
0.0
  9
$USERR2
 40
0.0
  9
$USERR3
 40
0.0
  9
$USERR4
 40
0.0
  9
$USERR5
 40
0.0
  9
$WORLDVIEW
 70
     1
  9
$SHADEDGE
 70
     3
  9
$SHADEDIF
 70
    70
  9
$TILEMODE
 70
     1
  9
$MAXACTVP
 70
    64
  9
$PLIMCHECK
 70
     0
  9
$PEXTMIN
 10
1.0000000000000000E+20
 20
1.0000000000000000E+20
 30
1.0000000000000000E+20
  9
$PEXTMAX
 10
-1.0000000000000000E+20
 20
-1.0000000000000000E+20
 30
-1.0000000000000000E+20
  9
$PLIMMIN
 10
0.0
 20
0.0
  9
$PLIMMAX
 10
12.0
 20
9.0
  9
$UNITMODE
 70
     0
  9
$VISRETAIN
 70
     1
  9
$PLINEGEN
 70
     0
  9
$PSLTSCALE
 70
     1
  0
ENDSEC
  0
SECTION
  2
TABLES
  0
TABLE
  2
VPORT
 70
     1
  0
VPORT
  2
*ACTIVE
 70
     0
 10
0.0
 20
0.0
 11
1.0
 21
1.0
 12
0.0
 22
0.0
 13
0.0
 23
0.0
 14
1.0
 24
1.0
 15
0.0
 25
0.0
 16
0.0
 26
0.0
 36
91.0901823690577714
 17
4229.71923828125
 27
224.0067795764497873
 37
0.0
 40
23.1757498722993098
 41
3.1182994454713491
 42
50.0
 43
0.0
 44
0.0
 50
0.0
 51
0.0
 71
     0
 72
   100
 73
     1
 74
     1
 75
     0
 76
     0
 77
     0
 78
     0
  0
ENDTAB
  0
TABLE
  2
LTYPE
 70
     2
  0
LTYPE
  2
CONTINUOUS
 70
     0
  3
Solid line
 72
    65
 73
     0
 40
0.0
  0
LTYPE
  2
PHANTOM2
 70
     0
  3
___ _ _ ___ _ _ ___ _ _ ___ _ _
 72
    65
 73
     6
 40
1.25
 49
0.625
 49
-0.125
 49
0.125
 49
-0.125
 49
0.125
 49
-0.125
  0
ENDTAB
  0
TABLE
  2
LAYER
 70
     2
  0
LAYER
  2
0
 70
     0
 62
   255
  6
CONTINUOUS
  0
LAYER
  2
DEFPOINTS
 70
     0
 62
     7
  6
CONTINUOUS
  0
ENDTAB
  0
TABLE
  2
STYLE
 70
     1
  0
STYLE
  2
STANDARD
 70
     0
 40
0.0
 41
0.8
 50
0.0
 71
     0
 42
0.2
  3
txt
  4

  0
ENDTAB
  0
TABLE
  2
VIEW
 70
     0
  0
ENDTAB
  0
TABLE
  2
UCS
 70
     0
  0
ENDTAB
  0
TABLE
  2
APPID
 70
     9
  0
APPID
  2
ACAD
 70
     0
  0
APPID
  2
ACAD_MLEADERVER
 70
     0
  0
APPID
  2
ACAD_EXEMPT_FROM_CAD_STANDARDS
 70
     0
  0
APPID
  2
ACAD_NAV_VCDISPLAY
 70
     0
  0
APPID
  2
ACAECLAYERSTANDARD
 70
     0
  0
APPID
  2
ACCMTRANSPARENCY
 70
     0
  0
APPID
  2
ACAD_DSTYLE_DIMJAG
 70
     0
  0
APPID
  2
ACAD_DSTYLE_DIMTALN
 70
     0
  0
APPID
  2
ACDBATTR
 70
     0
  0
ENDTAB
  0
TABLE
  2
DIMSTYLE
 70
     1
  0
DIMSTYLE
  2
STANDARD
 70
     0
  3

  4

  5

  6

  7

 40
1.0
 41
0.1875
 42
0.0625
 43
0.38
 44
0.125
 45
0.0
 46
0.0
 47
0.01
 48
0.01
140
0.15625
141
0.09
142
0.0
143
25.3999999999999986
144
1.0
145
0.0
146
1.0
147
0.09
 71
     1
 72
     0
 73
     1
 74
     1
 75
     0
 76
     0
 77
     0
 78
     4
170
     0
171
     2
172
     0
173
     0
174
     0
175
     0
176
     0
177
     0
178
     0
  0
ENDTAB
  0
ENDSEC
  0
SECTION
  2
BLOCKS
  0
BLOCK
  8
0
  2
$MODEL_SPACE
 70
     0
 10
0.0
 20
0.0
 30
0.0
  3
$MODEL_SPACE
  1

  0
ENDBLK
  5
21
  8
0
  0
BLOCK
 67
     1
  8
0
  2
$PAPER_SPACE
 70
     0
 10
0.0
 20
0.0
 30
0.0
  3
$PAPER_SPACE
  1

  0
ENDBLK
  5
1D
 67
     1
  8
0
  0
BLOCK
  8
0
  2
_FILLED
 70
     0
 10
0.0
 20
0.0
 30
0.0
  3
_FILLED
  1

  0
SOLID
  5
6F59
  8
0
  6
BYBLOCK
 62
     0
 10
0.0
 20
0.0
 30
0.0
 11
-1.0
 21
0.1666666667
 31
0.0
 12
-1.0
 22
-0.1666666667
 32
0.0
 13
-1.0
 23
-0.1666666667
 33
0.0
  0
ENDBLK
  5
6F5A
  8
0
  6
BYBLOCK
 62
     0
  0
ENDSEC
  0
SECTION
  2
ENTITIES
  0
ATTDEF
  5
3930
  8
DEFPOINTS
 10
4229.7198086054313535
 20
215.0504007870140981
 30
0.0
 40
0.001
  1
K-17647IN-S
  3

  2
MODELNUMBER
 70
     0
1001
ACDBATTR
1070
     0
1070
     1
  0
ATTDEF
  5
3931
  8
DEFPOINTS
 10
4229.7198086054313535
 20
215.0487341203474045
 30
0.0
 40
0.001
  1
OVE
  3

  2
TRADENAME
 70
     0
1001
ACDBATTR
1070
     0
1070
     1
  0
ATTDEF
  5
3932
  8
DEFPOINTS
 10
4229.7198086054313535
 20
215.0470674536807962
 30
0.0
 40
0.001
  1
TOILET
  3

  2
PRODUCT
 70
     0
1001
ACDBATTR
1070
     0
1070
     1
  0
LINE
  5
94ED
  8
0
 10
4236.9930047229981938
 20
230.8681024949196114
 30
0.0
 11
4222.4455481852646699
 21
230.8681024949196114
 31
0.0
  0
LINE
  5
94EE
  8
0
 10
4236.633212581215048
 20
230.8018582212393142
 30
0.0
 11
4222.8053403270478157
 21
230.8018582212393142
 31
0.0
  0
LINE
  5
94EF
  8
0
 10
4236.6871993988897884
 20
232.8728340235196015
 30
0.0
 11
4222.7513535093739847
 21
232.8728340235196868
 31
0.0
  0
ARC
  5
94F0
  8
0
 10
4233.5740251634579181
 20
231.4674424954004053
 30
0.0
 40
0.7616226055640422
 50
231.8990854495129952
 51
240.9154098379239031
  0
ARC
  5
94F1
  8
0
 10
4233.9672933184283465
 20
231.4417847405163968
 30
0.0
 40
0.7301660406570193
 50
298.787432642033707
 51
308.2157024552456051
  0
LINE
  5
94F2
  8
0
 10
4234.6888476492849804
 20
230.8018582212393142
 30
0.0
 11
4234.7071085251172917
 21
230.8681024949196114
 31
0.0
  0
ARC
  5
94F3
  8
0
 10
4234.9041907954324415
 20
231.4191043970195949
 30
0.0
 40
0.6100546661999501
 50
250.493240201885186
 51
270.0
  0
LINE
  5
94F4
  8
0
 10
4234.9041907954324415
 20
230.809049730819595
 30
0.0
 11
4235.5973296493357338
 21
230.809049730819595
 31
0.0
  0
ARC
  5
94F5
  8
0
 10
4235.5973296493357338
 20
231.4192908188340141
 30
0.0
 40
0.6102410880143907
 50
270.0
 51
295.4140028571330276
  0
ARC
  5
94F6
  8
0
 10
4236.6828527571597078
 20
232.6693142653614075
 30
0.0
 40
0.2035661692302819
 50
5.9014253330806161
 51
88.7765002632737747
  0
LINE
  5
94F7
  8
0
 10
4236.885340078551053
 20
232.6902443855346974
 30
0.0
 11
4237.0680073850544431
 21
230.9382267126896977
 31
0.0
  0
ARC
  5
94F8
  8
0
 10
4236.989609158348685
 20
230.9469066396254959
 30
0.0
 40
0.0788772659396395
 50
272.4672719252191087
 51
353.6821793834134837
  0
ARC
  5
94F9
  8
0
 10
4236.6078314181368114
 20
230.623856018336312
 30
0.0
 40
0.1798026353464319
 50
6.7910802800803847
 51
81.8849521973575065
  0
ARC
  5
94FA
  8
0
 10
4220.4565008344479793
 20
230.5447230060852064
 30
0.0
 40
16.3301803163797885
 50
352.2391825289055873
 51
0.3522447928565182
  0
ARC
  5
94FB
  8
0
 10
4219.897074357531892
 20
230.6386529538874015
 30
0.0
 40
16.8971758831295205
 50
346.8383312147399806
 51
352.1797553243677044
  0
ARC
  5
94FC
  8
0
 10
4226.7096024726633914
 20
229.0791620166316136
 30
0.0
 40
9.9085615975113654
 50
333.385565237725416
 51
346.6493384073751827
  0
ARC
  5
94FD
  8
0
 10
4234.4813725587637236
 20
225.1844406035810948
 30
0.0
 40
1.2155032300427819
 50
290.6409551777775846
 51
333.4049335679040951
  0
ARC
  5
94FE
  8
0
 10
4234.0519995877293695
 20
232.0059849996499963
 30
0.0
 40
8.0051193626187658
 50
265.7039236645726987
 51
276.151787698450903
  0
ARC
  5
94FF
  8
0
 10
4230.7882489412540963
 20
168.9966525125740873
 30
0.0
 40
55.0911576106154897
 50
87.2282248296938718
 51
88.3869098922965719
  0
ARC
  5
9500
  8
0
 10
4153.5208839716160583
 20
229.2888103477405082
 30
0.0
 40
81.7802124384808451
 50
354.3690527892828186
 51
356.4064949115975764
  0
ARC
  5
9501
  8
0
 10
4171.4089867481161491
 20
227.5251112145440118
 30
0.0
 40
63.8053729238969467
 50
353.2893569656916952
 51
354.3690527892828186
  0
ARC
  5
9502
  8
0
 10
4233.844091286307048
 20
220.1909362939454127
 30
0.0
 40
0.941052882840416
 50
315.1532515397116185
 51
352.5623834088149238
  0
ARC
  5
9503
  8
0
 10
4229.5642633641464272
 20
226.6678888597355979
 30
0.0
 40
8.6868411098093592
 50
291.145345059520082
 51
304.7143575217598936
  0
ARC
  5
9504
  8
0
 10
4229.6544754991446098
 20
226.4058112636870135
 30
0.0
 40
8.4098733893163491
 50
277.9491058437462812
 51
291.2162169640769775
  0
ARC
  5
9505
  8
0
 10
4235.7229397713408616
 20
-182.5548557598328046
 30
0.0
 40
402.2013131229772966
 50
90.4447673881435321
 51
90.7018551225145018
  0
ARC
  5
9506
  8
0
 10
4232.7391287594145979
 20
201.8176239809338881
 30
0.0
 40
17.8172521758291182
 50
87.8894448777272856
 51
90.4447673881435321
  0
ARC
  5
9507
  8
0
 10
4233.2320352825781811
 20
215.1926305825074905
 30
0.0
 40
4.4331661617333289
 50
83.6631861047569032
 51
87.8894448777272856
  0
ARC
  5
9508
  8
0
 10
4233.4451116594491396
 20
219.2224891164482869
 30
0.0
 40
0.4667369537713642
 50
12.0161079585933308
 51
53.7135944872326192
  0
ARC
  5
9509
  8
0
 10
4226.8282156941359062
 20
231.9605947869040961
 30
0.0
 40
14.4853847495618897
 50
295.0267109951494717
 51
299.2297810608599775
  0
ARC
  5
950A
  8
0
 10
4228.1575826802891243
 20
229.2332414204074951
 30
0.0
 40
11.4518369414665901
 50
289.5360480736551949
 51
294.77268771222748
  0
ARC
  5
950B
  8
0
 10
4229.1701456421087642
 20
226.2113619715026118
 30
0.0
 40
8.2655136561488511
 50
282.0753671379305274
 51
289.9259366486699037
  0
ARC
  5
950C
  8
0
 10
4227.3362016926894285
 20
231.9366684625067876
 30
0.0
 40
14.3044324708983908
 50
286.9897466459074735
 51
291.2143416356200873
  0
ARC
  5
950D
  8
0
 10
4227.8098256561888775
 20
230.7164989563850952
 30
0.0
 40
12.9955652956393006
 50
291.2143416356200873
 51
297.1510546058692057
  0
ARC
  5
950E
  8
0
 10
4240.1015187233088
 20
206.7491118929908112
 30
0.0
 40
13.9399384327640306
 50
115.6081982494146985
 51
117.1510546058692057
  0
ARC
  5
950F
  8
0
 10
4232.8775844266156128
 20
221.0330302356011032
 30
0.0
 40
2.0910986726621381
 50
299.8167355583676112
 51
304.982671483563081
  0
ARC
  5
9510
  8
0
 10
4229.2868009619032819
 20
227.3254593579202094
 30
0.0
 40
9.3359830982551735
 50
293.9345628341587826
 51
299.7349173986324899
  0
ARC
  5
9511
  8
0
 10
4229.2992784120870056
 20
227.2385927044346943
 30
0.0
 40
9.2515548542632935
 50
283.8630224497971994
 51
294.0821859296326011
  0
ARC
  5
9512
  8
0
 10
4231.6675696469519607
 20
218.4481446340070931
 30
0.0
 40
0.1812841032838316
 50
340.7902332090903883
 51
11.5281687615162003
  0
LINE
  5
9513
  8
0
 10
4231.8451966279608314
 20
218.4843742037051868
 30
0.0
 11
4231.6506881305776915
 21
219.1421390323058915
 31
0.0
  0
ARC
  5
9514
  8
0
 10
4218.1101242588347304
 20
222.1290890201927084
 30
0.0
 40
13.8831508723571702
 50
348.7940931260037019
 51
349.6171073805355718
  0
ARC
  5
9515
  8
0
 10
4229.560892328877344
 20
219.860549068418095
 30
0.0
 40
2.2098324535569231
 50
334.8196555771967269
 51
348.7940931260037019
  0
ARC
  5
9516
  8
0
 10
4229.7018873460237955
 20
219.7942609193462999
 30
0.0
 40
2.0540322174604602
 50
311.4228495795139224
 51
334.8196555771967269
  0
ARC
  5
9517
  8
0
 10
4229.9918105335136715
 20
219.4656718735886045
 30
0.0
 40
1.6158242581131641
 50
288.6492123725014949
 51
311.4228495795139224
  0
ARC
  5
9518
  8
0
 10
4225.8645277448049455
 20
231.4674424954004053
 30
0.0
 40
0.7616226055640422
 50
299.0845901620760969
 51
308.1009145504871185
  0
ARC
  5
9519
  8
0
 10
4225.4712595898363361
 20
231.4417847405163968
 30
0.0
 40
0.7301660406570193
 50
231.7842975447543949
 51
241.2125673579662077
  0
LINE
  5
951A
  8
0
 10
4224.7497052589778832
 20
230.8018582212393142
 30
0.0
 11
4224.7314443831483004
 21
230.8681024949196114
 31
0.0
  0
ARC
  5
951B
  8
0
 10
4224.5343621128322411
 20
231.4191043970195949
 30
0.0
 40
0.6100546661999501
 50
270.0
 51
289.5067597981148992
  0
LINE
  5
951C
  8
0
 10
4224.5343621128322411
 20
230.809049730819595
 30
0.0
 11
4223.8412232589280393
 21
230.809049730819595
 31
0.0
  0
ARC
  5
951D
  8
0
 10
4223.8412232589280393
 20
231.4192908188340141
 30
0.0
 40
0.6102410880143907
 50
244.5859971428670008
 51
270.0
  0
LINE
  5
951E
  8
0
 10
4222.5532128297109011
 20
232.6902443855346974
 30
0.0
 11
4222.37054552320933
 21
230.9382267126896977
 31
0.0
  0
ARC
  5
951F
  8
0
 10
4222.4489437499141786
 20
230.9469066396254959
 30
0.0
 40
0.0788772659396395
 50
186.3178206165864879
 51
267.5327280747808913
  0
ARC
  5
9520
  8
0
 10
4222.8307214901269617
 20
230.623856018336312
 30
0.0
 40
0.1798026353464319
 50
98.1150478026424935
 51
173.2089197199196065
  0
ARC
  5
9521
  8
0
 10
4238.9820520738157938
 20
230.5447230060852064
 30
0.0
 40
16.3301803163797885
 50
179.64775520714349
 51
187.7608174710944127
  0
ARC
  5
9522
  8
0
 10
4239.5414785507318811
 20
230.6386529538874015
 30
0.0
 40
16.8971758831295205
 50
187.8202446756322104
 51
193.161668785259991
  0
ARC
  5
9523
  8
0
 10
4232.7289504356022007
 20
229.0791620166316136
 30
0.0
 40
9.9085615975113654
 50
193.3506615926247889
 51
206.6144347622731061
  0
ARC
  5
9524
  8
0
 10
4224.95718034949914
 20
225.1844406035810948
 30
0.0
 40
1.2155032300427819
 50
206.5950664320959049
 51
249.359044822222387
  0
ARC
  5
9525
  8
0
 10
4225.3865533205353131
 20
232.0059849996499963
 30
0.0
 40
8.0051193626187658
 50
263.8482123015492107
 51
274.2960763354273013
  0
ARC
  5
9526
  8
0
 10
4228.6503039670087674
 20
168.9966525125740873
 30
0.0
 40
55.0911576106154897
 50
91.6130901077034281
 51
92.7717751703061282
  0
ARC
  5
9527
  8
0
 10
4305.9176689366477149
 20
229.2888103477405082
 30
0.0
 40
81.7802124384808451
 50
183.5935050884023951
 51
185.6309472107172098
  0
ARC
  5
9528
  8
0
 10
4288.0295661601467145
 20
227.5251112145440118
 30
0.0
 40
63.8053729238969467
 50
185.6309472107172098
 51
186.7106430343083048
  0
ARC
  5
9529
  8
0
 10
4225.5944616219549061
 20
220.1909362939454127
 30
0.0
 40
0.941052882840416
 50
187.4376165911851047
 51
224.8467484602884099
  0
ARC
  5
952A
  8
0
 10
4229.8742895441173459
 20
226.6678888597355979
 30
0.0
 40
8.6868411098093592
 50
235.2856424782401064
 51
248.8546549404798895
  0
ARC
  5
952B
  8
0
 10
4229.7840774091182539
 20
226.4058112636870135
 30
0.0
 40
8.4098733893163491
 50
248.783783035922994
 51
262.0508941562537188
  0
ARC
  5
952C
  8
0
 10
4223.715613136922002
 20
-182.5548557598328046
 30
0.0
 40
402.2013131229772966
 50
89.2981448774855124
 51
89.5552326118564537
  0
ARC
  5
952D
  8
0
 10
4226.6994241488491753
 20
201.8176239809338881
 30
0.0
 40
17.8172521758291182
 50
89.5552326118564537
 51
92.1105551222727001
  0
ARC
  5
952E
  8
0
 10
4226.2065176256846826
 20
215.1926305825074905
 30
0.0
 40
4.4331661617333289
 50
92.1105551222727001
 51
96.3368138952430968
  0
ARC
  5
952F
  8
0
 10
4225.9934412488146336
 20
219.2224891164482869
 30
0.0
 40
0.4667369537713642
 50
126.2864055127674021
 51
167.9838920414067047
  0
ARC
  5
9530
  8
0
 10
4232.6103372141278669
 20
231.9605947869040961
 30
0.0
 40
14.4853847495618897
 50
240.7702189391399941
 51
244.9732890048504999
  0
ARC
  5
9531
  8
0
 10
4231.2809702279746489
 20
229.2332414204074951
 30
0.0
 40
11.4518369414665901
 50
245.2273122877726053
 51
250.4639519263448904
  0
ARC
  5
9532
  8
0
 10
4230.2684072661540995
 20
226.2113619715026118
 30
0.0
 40
8.2655136561488511
 50
250.07406335133021
 51
257.9246328620694726
  0
ARC
  5
9533
  8
0
 10
4232.1023512155752542
 20
231.9366684625067876
 30
0.0
 40
14.3044324708983908
 50
248.785658364379799
 51
253.0102533540924981
  0
ARC
  5
9534
  8
0
 10
4231.6287272520748957
 20
230.7164989563850952
 30
0.0
 40
12.9955652956393006
 50
242.848945394130709
 51
248.785658364379799
  0
ARC
  5
9535
  8
0
 10
4219.3370341849549732
 20
206.7491118929908112
 30
0.0
 40
13.9399384327640306
 50
62.8489453941307872
 51
64.3918017505853157
  0
ARC
  5
9536
  8
0
 10
4226.5609684816472509
 20
221.0330302356011032
 30
0.0
 40
2.0910986726621381
 50
235.0173285164368906
 51
240.1832644416323888
  0
ARC
  5
9537
  8
0
 10
4230.1517519463614008
 20
227.3254593579202094
 30
0.0
 40
9.3359830982551735
 50
240.2650826013675101
 51
246.0654371658411037
  0
ARC
  5
9538
  8
0
 10
4230.1392744961767676
 20
227.2385927044346943
 30
0.0
 40
9.2515548542632935
 50
245.9178140703673989
 51
256.1369775502026869
  0
ARC
  5
9539
  8
0
 10
4227.7709832613109029
 20
218.4481446340070931
 30
0.0
 40
0.1812841032838316
 50
168.4718312384837873
 51
199.2097667909096117
  0
LINE
  5
953A
  8
0
 10
4227.5933562803011228
 20
218.4843742037051868
 30
0.0
 11
4227.7878647776851722
 21
219.1421390323058915
 31
0.0
  0
ARC
  5
953B
  8
0
 10
4241.3284286494290427
 20
222.1290890201927084
 30
0.0
 40
13.8831508723571702
 50
190.3828926194643998
 51
191.2059068739962981
  0
ARC
  5
953C
  8
0
 10
4229.8776605793864292
 20
219.860549068418095
 30
0.0
 40
2.2098324535569231
 50
191.2059068739962981
 51
205.1803444228033015
  0
ARC
  5
953D
  8
0
 10
4229.7366655622390681
 20
219.7942609193462999
 30
0.0
 40
2.0540322174604602
 50
205.1803444228033015
 51
228.577150420486106
  0
ARC
  5
953E
  8
0
 10
4229.4467423747510111
 20
219.4656718735886045
 30
0.0
 40
1.6158242581131641
 50
228.577150420486106
 51
251.3507876274985051
  0
ARC
  5
953F
  8
0
 10
4229.7192764541323413
 20
220.1699042252153049
 30
0.0
 40
2.370459492197154
 50
250.5524076143269099
 51
289.4475923856730901
  0
ARC
  5
9540
  8
0
 10
4229.7192764541323413
 20
263.4071207705911206
 30
0.0
 40
43.8040798234071573
 50
268.591208954352112
 51
271.4087910456480017
  0
ARC
  5
9541
  8
0
 10
4229.7192764541323413
 20
41.9259734945207398
 30
0.0
 40
182.158844286013391
 50
89.1759497073337286
 51
90.8240502926662856
  0
ARC
  5
9542
  8
0
 10
4229.7192764541314318
 20
-26.2604185251744617
 30
0.0
 40
259.2269170565227796
 50
88.4597252781848056
 51
91.5402747218152086
  0
ARC
  5
9543
  8
0
 10
4222.7557001511040653
 20
232.6693142653614075
 30
0.0
 40
0.2035661692302819
 50
91.2234997367262253
 51
174.0985746669194043
  0
ENDSEC
  0
EOF
