  0
SECTION
  2
HEADER
  9
$ACADVER
  1
AC1009
  9
$INSBASE
 10
4214.3826333742254064
 20
218.5078994713987015
 30
0.0
  9
$EXTMIN
 10
4207.0339024433033046
 20
197.2550862337986928
 30
0.0
  9
$EXTMAX
 10
4221.7313643051484178
 20
218.5125320852748985
 30
0.0
  9
$LIMMIN
 10
0.0
 20
0.0
  9
$LIMMAX
 10
11.6929133858000007
 20
8.2677165353999982
  9
$ORTHOMODE
 70
     0
  9
$REGENMODE
 70
     1
  9
$FILLMODE
 70
     1
  9
$QTEXTMODE
 70
     0
  9
$MIRRTEXT
 70
     0
  9
$DRAGMODE
 70
     2
  9
$LTSCALE
 40
0.6431102362
  9
$OSMODE
 70
  3839
  9
$ATTMODE
 70
     1
  9
$TEXTSIZE
 40
0.2
  9
$TRACEWID
 40
0.05
  9
$TEXTSTYLE
  7
STANDARD
  9
$CLAYER
  8
0
  9
$CELTYPE
  6
BYLAYER
  9
$CECOLOR
 62
     1
  9
$DIMSCALE
 40
1.0
  9
$DIMASZ
 40
0.1875
  9
$DIMEXO
 40
0.0625
  9
$DIMDLI
 40
0.4443307087
  9
$DIMRND
 40
0.0
  9
$DIMDLE
 40
0.0
  9
$DIMEXE
 40
0.125
  9
$DIMTP
 40
0.01
  9
$DIMTM
 40
0.01
  9
$DIMTXT
 40
2.0
  9
$DIMCEN
 40
0.1052362205
  9
$DIMTSZ
 40
0.0
  9
$DIMTOL
 70
     1
  9
$DIMLIM
 70
     0
  9
$DIMTIH
 70
     1
  9
$DIMTOH
 70
     1
  9
$DIMSE1
 70
     0
  9
$DIMSE2
 70
     0
  9
$DIMTAD
 70
     0
  9
$DIMZIN
 70
     0
  9
$DIMBLK
  1

  9
$DIMASO
 70
     1
  9
$DIMSHO
 70
     1
  9
$DIMPOST
  1
\X
  9
$DIMAPOST
  1

  9
$DIMALT
 70
     1
  9
$DIMALTD
 70
     2
  9
$DIMALTF
 40
25.3999999999999986
  9
$DIMLFAC
 40
1.0
  9
$DIMTOFL
 70
     0
  9
$DIMTVP
 40
0.0
  9
$DIMTIX
 70
     0
  9
$DIMSOXD
 70
     0
  9
$DIMSAH
 70
     0
  9
$DIMBLK1
  1

  9
$DIMBLK2
  1

  9
$DIMSTYLE
  2
STANDARD
  9
$DIMCLRD
 70
     0
  9
$DIMCLRE
 70
     0
  9
$DIMCLRT
 70
     0
  9
$DIMTFAC
 40
1.0
  9
$DIMGAP
 40
0.09
  9
$LUNITS
 70
     2
  9
$LUPREC
 70
     4
  9
$SKETCHINC
 40
0.1
  9
$FILLETRAD
 40
0.0
  9
$AUNITS
 70
     0
  9
$AUPREC
 70
     0
  9
$MENU
  1
.
  9
$ELEVATION
 40
0.0
  9
$PELEVATION
 40
0.0
  9
$THICKNESS
 40
0.0
  9
$LIMCHECK
 70
     0
  9
$BLIPMODE
 70
     0
  9
$CHAMFERA
 40
0.0
  9
$CHAMFERB
 40
0.0
  9
$SKPOLY
 70
     0
  9
$TDCREATE
 40
2458060.468368056230247
  9
$TDUPDATE
 40
2459154.630208333954215
  9
$TDINDWG
 40
0.5659098380000001
  9
$TDUSRTIMER
 40
0.5659098380000001
  9
$USRTIMER
 70
     1
  9
$ANGBASE
 50
0.0
  9
$ANGDIR
 70
     0
  9
$PDMODE
 70
     0
  9
$PDSIZE
 40
0.3125
  9
$PLINEWID
 40
0.0
  9
$COORDS
 70
     1
  9
$SPLFRAME
 70
     0
  9
$SPLINETYPE
 70
     6
  9
$SPLINESEGS
 70
     8
  9
$ATTDIA
 70
     1
  9
$ATTREQ
 70
     1
  9
$HANDLING
 70
     1
  9
$HANDSEED
  5
9793
  9
$SURFTAB1
 70
     6
  9
$SURFTAB2
 70
     6
  9
$SURFTYPE
 70
     6
  9
$SURFU
 70
     6
  9
$SURFV
 70
     6
  9
$UCSNAME
  2

  9
$UCSORG
 10
0.0
 20
0.0
 30
0.0
  9
$UCSXDIR
 10
1.0
 20
0.0
 30
0.0
  9
$UCSYDIR
 10
0.0
 20
1.0
 30
0.0
  9
$PUCSNAME
  2

  9
$PUCSORG
 10
0.0
 20
0.0
 30
0.0
  9
$PUCSXDIR
 10
1.0
 20
0.0
 30
0.0
  9
$PUCSYDIR
 10
0.0
 20
1.0
 30
0.0
  9
$USERI1
 70
     0
  9
$USERI2
 70
     0
  9
$USERI3
 70
     0
  9
$USERI4
 70
     0
  9
$USERI5
 70
     0
  9
$USERR1
 40
0.0
  9
$USERR2
 40
0.0
  9
$USERR3
 40
0.0
  9
$USERR4
 40
0.0
  9
$USERR5
 40
0.0
  9
$WORLDVIEW
 70
     1
  9
$SHADEDGE
 70
     3
  9
$SHADEDIF
 70
    70
  9
$TILEMODE
 70
     1
  9
$MAXACTVP
 70
    64
  9
$PLIMCHECK
 70
     0
  9
$PEXTMIN
 10
1.0000000000000000E+20
 20
1.0000000000000000E+20
 30
1.0000000000000000E+20
  9
$PEXTMAX
 10
-1.0000000000000000E+20
 20
-1.0000000000000000E+20
 30
-1.0000000000000000E+20
  9
$PLIMMIN
 10
0.0
 20
0.0
  9
$PLIMMAX
 10
12.0
 20
9.0
  9
$UNITMODE
 70
     0
  9
$VISRETAIN
 70
     1
  9
$PLINEGEN
 70
     0
  9
$PSLTSCALE
 70
     1
  0
ENDSEC
  0
SECTION
  2
TABLES
  0
TABLE
  2
VPORT
 70
     1
  0
VPORT
  2
*ACTIVE
 70
     0
 10
0.0
 20
0.0
 11
1.0
 21
1.0
 12
0.0
 22
0.0
 13
0.0
 23
0.0
 14
1.0
 24
1.0
 15
0.0
 25
0.0
 16
0.0
 26
0.0
 36
101.5680711052678049
 17
4214.382568359375
 27
207.8838066310163128
 37
0.0
 40
25.8416016932598893
 41
3.1182994454713491
 42
50.0
 43
0.0
 44
0.0
 50
0.0
 51
0.0
 71
     0
 72
   100
 73
     1
 74
     1
 75
     0
 76
     0
 77
     0
 78
     0
  0
ENDTAB
  0
TABLE
  2
LTYPE
 70
     2
  0
LTYPE
  2
CONTINUOUS
 70
     0
  3
Solid line
 72
    65
 73
     0
 40
0.0
  0
LTYPE
  2
PHANTOM2
 70
     0
  3
___ _ _ ___ _ _ ___ _ _ ___ _ _
 72
    65
 73
     6
 40
1.25
 49
0.625
 49
-0.125
 49
0.125
 49
-0.125
 49
0.125
 49
-0.125
  0
ENDTAB
  0
TABLE
  2
LAYER
 70
     2
  0
LAYER
  2
0
 70
     0
 62
   255
  6
CONTINUOUS
  0
LAYER
  2
DEFPOINTS
 70
     0
 62
     7
  6
CONTINUOUS
  0
ENDTAB
  0
TABLE
  2
STYLE
 70
     1
  0
STYLE
  2
STANDARD
 70
     0
 40
0.0
 41
0.8
 50
0.0
 71
     0
 42
0.2
  3
txt
  4

  0
ENDTAB
  0
TABLE
  2
VIEW
 70
     0
  0
ENDTAB
  0
TABLE
  2
UCS
 70
     0
  0
ENDTAB
  0
TABLE
  2
APPID
 70
     9
  0
APPID
  2
ACAD
 70
     0
  0
APPID
  2
ACAD_MLEADERVER
 70
     0
  0
APPID
  2
ACAD_EXEMPT_FROM_CAD_STANDARDS
 70
     0
  0
APPID
  2
ACAD_NAV_VCDISPLAY
 70
     0
  0
APPID
  2
ACAECLAYERSTANDARD
 70
     0
  0
APPID
  2
ACCMTRANSPARENCY
 70
     0
  0
APPID
  2
ACAD_DSTYLE_DIMJAG
 70
     0
  0
APPID
  2
ACAD_DSTYLE_DIMTALN
 70
     0
  0
APPID
  2
ACDBATTR
 70
     0
  0
ENDTAB
  0
TABLE
  2
DIMSTYLE
 70
     1
  0
DIMSTYLE
  2
STANDARD
 70
     0
  3

  4

  5

  6

  7

 40
1.0
 41
0.1875
 42
0.0625
 43
0.38
 44
0.125
 45
0.0
 46
0.0
 47
0.01
 48
0.01
140
0.15625
141
0.09
142
0.0
143
25.3999999999999986
144
1.0
145
0.0
146
1.0
147
0.09
 71
     1
 72
     0
 73
     1
 74
     1
 75
     0
 76
     0
 77
     0
 78
     4
170
     0
171
     2
172
     0
173
     0
174
     0
175
     0
176
     0
177
     0
178
     0
  0
ENDTAB
  0
ENDSEC
  0
SECTION
  2
BLOCKS
  0
BLOCK
  8
0
  2
$MODEL_SPACE
 70
     0
 10
0.0
 20
0.0
 30
0.0
  3
$MODEL_SPACE
  1

  0
ENDBLK
  5
21
  8
0
  0
BLOCK
 67
     1
  8
0
  2
$PAPER_SPACE
 70
     0
 10
0.0
 20
0.0
 30
0.0
  3
$PAPER_SPACE
  1

  0
ENDBLK
  5
1D
 67
     1
  8
0
  0
BLOCK
  8
0
  2
_FILLED
 70
     0
 10
0.0
 20
0.0
 30
0.0
  3
_FILLED
  1

  0
SOLID
  5
6F59
  8
0
  6
BYBLOCK
 62
     0
 10
0.0
 20
0.0
 30
0.0
 11
-1.0
 21
0.1666666667
 31
0.0
 12
-1.0
 22
-0.1666666667
 32
0.0
 13
-1.0
 23
-0.1666666667
 33
0.0
  0
ENDBLK
  5
6F5A
  8
0
  6
BYBLOCK
 62
     0
  0
ENDSEC
  0
SECTION
  2
ENTITIES
  0
ATTDEF
  5
3930
  8
DEFPOINTS
 10
4214.3830746478270157
 20
218.5115320852748084
 30
0.0
 40
0.001
  1
K-17647IN-S
  3

  2
MODELNUMBER
 70
     0
1001
ACDBATTR
1070
     0
1070
     1
  0
ATTDEF
  5
3931
  8
DEFPOINTS
 10
4214.3830746478270157
 20
218.5098654186080864
 30
0.0
 40
0.001
  1
OVE
  3

  2
TRADENAME
 70
     0
1001
ACDBATTR
1070
     0
1070
     1
  0
ATTDEF
  5
3932
  8
DEFPOINTS
 10
4214.3830746478270157
 20
218.5081987519413929
 30
0.0
 40
0.001
  1
TOILET
  3

  2
PRODUCT
 70
     0
1001
ACDBATTR
1070
     0
1070
     1
  0
LINE
  5
962B
  8
0
 10
4219.7787843199421332
 20
218.5078994713987015
 30
0.0
 11
4208.9864824285086797
 21
218.5078994713987015
 31
0.0
  0
ARC
  5
962C
  8
0
 10
4219.7772184632176504
 20
218.4150975769184981
 30
0.0
 40
0.0928151039776984
 50
1.3693013136745591
 51
89.0333336477767148
  0
LINE
  5
962D
  8
0
 10
4219.8700070626264278
 20
218.4173155368987125
 30
0.0
 11
4219.9575691507616284
 21
214.4976639658412978
 31
0.0
  0
LINE
  5
962E
  8
0
 10
4218.8221862038762993
 20
214.7358884516314106
 30
0.0
 11
4218.8288562312245631
 21
214.7678796611986911
 31
0.0
  0
ARC
  5
962F
  8
0
 10
4218.8431337900929066
 20
214.7666198077843944
 30
0.0
 40
0.0143330358902547
 50
85.1654977802086819
 51
174.9572749365628113
  0
LINE
  5
9630
  8
0
 10
4218.8443417481648794
 20
214.7809018508849874
 30
0.0
 11
4219.5794629366246227
 21
214.737652979498705
 31
0.0
  0
ARC
  5
9631
  8
0
 10
4219.5516101256653201
 20
214.2925421888135986
 30
0.0
 40
0.4459813842109118
 50
73.637402205207465
 51
86.4193847674644644
  0
ARC
  5
9632
  8
0
 10
4219.5391050462148996
 20
214.2589036252377923
 30
0.0
 40
0.4817869934312744
 50
2.9255390606613179
 51
73.3374632162776408
  0
ARC
  5
9633
  8
0
 10
4199.891622390113298
 20
212.9124236929762048
 30
0.0
 40
20.1752831370862786
 50
0.9014207093472796
 51
3.896702860188733
  0
ARC
  5
9634
  8
0
 10
4224.0607626882811019
 20
213.234625827484507
 30
0.0
 40
3.9963568852104818
 50
180.0688513901731937
 51
207.1960129389588872
  0
ARC
  5
9635
  8
0
 10
4210.6644145641375871
 20
206.3468788401501115
 30
0.0
 40
11.0669497410099993
 50
343.6506146437131974
 51
27.2150660773145994
  0
ARC
  5
9636
  8
0
 10
4212.1670441158748872
 20
205.9041797627035919
 30
0.0
 40
9.5004650782393263
 50
312.048896417087974
 51
343.6615703617922009
  0
ARC
  5
9637
  8
0
 10
4208.9880482852331625
 20
218.4150975769184981
 30
0.0
 40
0.0928151039776984
 50
90.966666352223271
 51
178.6306986863253883
  0
LINE
  5
9638
  8
0
 10
4208.8952596858262041
 20
218.4173155368987125
 30
0.0
 11
4208.8076975976891845
 21
214.4976639658412978
 31
0.0
  0
LINE
  5
9639
  8
0
 10
4209.9430805445754231
 20
214.7358884516314106
 30
0.0
 11
4209.9364105172253403
 21
214.7678796611986911
 31
0.0
  0
ARC
  5
963A
  8
0
 10
4209.9221329583588158
 20
214.7666198077843944
 30
0.0
 40
0.0143330358902547
 50
5.0427250634371648
 51
94.8345022197913039
  0
LINE
  5
963B
  8
0
 10
4209.920925000285024
 20
214.7809018508849874
 30
0.0
 11
4209.1858038118261902
 21
214.737652979498705
 31
0.0
  0
ARC
  5
963C
  8
0
 10
4209.2136566227864023
 20
214.2925421888135986
 30
0.0
 40
0.4459813842109118
 50
93.5806152325355072
 51
106.3625977947925065
  0
ARC
  5
963D
  8
0
 10
4209.2261617022350038
 20
214.2589036252377923
 30
0.0
 40
0.4817869934312744
 50
106.6625367837223024
 51
177.0744609393385929
  0
ARC
  5
963E
  8
0
 10
4228.8736443583384244
 20
212.9124236929762048
 30
0.0
 40
20.1752831370862786
 50
176.1032971398113034
 51
179.0985792906527081
  0
ARC
  5
963F
  8
0
 10
4204.704504060169711
 20
213.234625827484507
 30
0.0
 40
3.9963568852104818
 50
332.8039870610410844
 51
359.931148609826721
  0
ARC
  5
9640
  8
0
 10
4218.1008521843132257
 20
206.3468788401501115
 30
0.0
 40
11.0669497410099993
 50
152.7849339226854113
 51
196.3493853562868026
  0
ARC
  5
9641
  8
0
 10
4216.5982226325750162
 20
205.9041797627035919
 30
0.0
 40
9.5004650782393263
 50
196.3384296382077139
 51
227.9511035829119976
  0
ARC
  5
9642
  8
0
 10
4214.3826333742254064
 20
128.0518431030978093
 30
0.0
 40
86.7976574990010619
 50
87.0681388326105292
 51
92.9318611673894708
  0
ARC
  5
9643
  8
0
 10
4214.3826333742254064
 20
203.446967138330308
 30
0.0
 40
6.1918809045316401
 50
227.946328494323609
 51
312.0536715056762773
  0
ENDSEC
  0
EOF
