  0
SECTION
  2
HEADER
  9
$ACADVER
  1
AC1009
  9
$INSBASE
 10
4289.8501883614489998
 20
259.6332414639798003
 30
0.0
  9
$EXTMIN
 10
4277.7664515515198218
 20
240.2728088582431951
 30
0.0
  9
$EXTMAX
 10
4301.9339251713781778
 20
259.6376963731414094
 30
0.0
  9
$LIMMIN
 10
0.0
 20
0.0
  9
$LIMMAX
 10
11.6929133858000007
 20
8.2677165353999982
  9
$ORTHOMODE
 70
     0
  9
$REGENMODE
 70
     1
  9
$FILLMODE
 70
     1
  9
$QTEXTMODE
 70
     0
  9
$MIRRTEXT
 70
     0
  9
$DRAGMODE
 70
     2
  9
$LTSCALE
 40
0.6431102362
  9
$OSMODE
 70
   695
  9
$ATTMODE
 70
     1
  9
$TEXTSIZE
 40
0.2
  9
$TRACEWID
 40
0.05
  9
$TEXTSTYLE
  7
STANDARD
  9
$CLAYER
  8
0
  9
$CELTYPE
  6
BYLAYER
  9
$CECOLOR
 62
   256
  9
$DIMSCALE
 40
1.0
  9
$DIMASZ
 40
0.1875
  9
$DIMEXO
 40
0.0625
  9
$DIMDLI
 40
0.4443307087
  9
$DIMRND
 40
0.0
  9
$DIMDLE
 40
0.0
  9
$DIMEXE
 40
0.125
  9
$DIMTP
 40
0.01
  9
$DIMTM
 40
0.01
  9
$DIMTXT
 40
2.0
  9
$DIMCEN
 40
0.1052362205
  9
$DIMTSZ
 40
0.0
  9
$DIMTOL
 70
     1
  9
$DIMLIM
 70
     0
  9
$DIMTIH
 70
     1
  9
$DIMTOH
 70
     1
  9
$DIMSE1
 70
     0
  9
$DIMSE2
 70
     0
  9
$DIMTAD
 70
     0
  9
$DIMZIN
 70
     0
  9
$DIMBLK
  1

  9
$DIMASO
 70
     1
  9
$DIMSHO
 70
     1
  9
$DIMPOST
  1
\X
  9
$DIMAPOST
  1

  9
$DIMALT
 70
     1
  9
$DIMALTD
 70
     2
  9
$DIMALTF
 40
25.3999999999999986
  9
$DIMLFAC
 40
1.0
  9
$DIMTOFL
 70
     0
  9
$DIMTVP
 40
0.0
  9
$DIMTIX
 70
     0
  9
$DIMSOXD
 70
     0
  9
$DIMSAH
 70
     0
  9
$DIMBLK1
  1

  9
$DIMBLK2
  1

  9
$DIMSTYLE
  2
STANDARD
  9
$DIMCLRD
 70
     0
  9
$DIMCLRE
 70
     0
  9
$DIMCLRT
 70
     0
  9
$DIMTFAC
 40
1.0
  9
$DIMGAP
 40
0.09
  9
$LUNITS
 70
     2
  9
$LUPREC
 70
     4
  9
$SKETCHINC
 40
0.1
  9
$FILLETRAD
 40
0.0
  9
$AUNITS
 70
     0
  9
$AUPREC
 70
     0
  9
$MENU
  1
.
  9
$ELEVATION
 40
0.0
  9
$PELEVATION
 40
0.0
  9
$THICKNESS
 40
0.0
  9
$LIMCHECK
 70
     0
  9
$BLIPMODE
 70
     0
  9
$CHAMFERA
 40
0.0
  9
$CHAMFERB
 40
0.0
  9
$SKPOLY
 70
     0
  9
$TDCREATE
 40
2458060.468368056230247
  9
$TDUPDATE
 40
2459325.6991087961941957
  9
$TDINDWG
 40
0.4782015046
  9
$TDUSRTIMER
 40
0.4782015046
  9
$USRTIMER
 70
     1
  9
$ANGBASE
 50
0.0
  9
$ANGDIR
 70
     0
  9
$PDMODE
 70
     0
  9
$PDSIZE
 40
0.3125
  9
$PLINEWID
 40
0.0
  9
$COORDS
 70
     1
  9
$SPLFRAME
 70
     0
  9
$SPLINETYPE
 70
     6
  9
$SPLINESEGS
 70
     8
  9
$ATTDIA
 70
     1
  9
$ATTREQ
 70
     1
  9
$HANDLING
 70
     1
  9
$HANDSEED
  5
1CFEC
  9
$SURFTAB1
 70
     6
  9
$SURFTAB2
 70
     6
  9
$SURFTYPE
 70
     6
  9
$SURFU
 70
     6
  9
$SURFV
 70
     6
  9
$UCSNAME
  2

  9
$UCSORG
 10
0.0
 20
0.0
 30
0.0
  9
$UCSXDIR
 10
1.0
 20
0.0
 30
0.0
  9
$UCSYDIR
 10
0.0
 20
1.0
 30
0.0
  9
$PUCSNAME
  2

  9
$PUCSORG
 10
0.0
 20
0.0
 30
0.0
  9
$PUCSXDIR
 10
1.0
 20
0.0
 30
0.0
  9
$PUCSYDIR
 10
0.0
 20
1.0
 30
0.0
  9
$USERI1
 70
     0
  9
$USERI2
 70
     0
  9
$USERI3
 70
     0
  9
$USERI4
 70
     0
  9
$USERI5
 70
     0
  9
$USERR1
 40
0.0
  9
$USERR2
 40
0.0
  9
$USERR3
 40
0.0
  9
$USERR4
 40
0.0
  9
$USERR5
 40
0.0
  9
$WORLDVIEW
 70
     1
  9
$SHADEDGE
 70
     3
  9
$SHADEDIF
 70
    70
  9
$TILEMODE
 70
     1
  9
$MAXACTVP
 70
    64
  9
$PLIMCHECK
 70
     0
  9
$PEXTMIN
 10
1.0000000000000000E+20
 20
1.0000000000000000E+20
 30
1.0000000000000000E+20
  9
$PEXTMAX
 10
-1.0000000000000000E+20
 20
-1.0000000000000000E+20
 30
-1.0000000000000000E+20
  9
$PLIMMIN
 10
0.0
 20
0.0
  9
$PLIMMAX
 10
12.0
 20
9.0
  9
$UNITMODE
 70
     0
  9
$VISRETAIN
 70
     1
  9
$PLINEGEN
 70
     0
  9
$PSLTSCALE
 70
     1
  0
ENDSEC
  0
SECTION
  2
TABLES
  0
TABLE
  2
VPORT
 70
     1
  0
VPORT
  2
*ACTIVE
 70
     0
 10
0.0
 20
0.0
 11
1.0
 21
1.0
 12
378.4436432076830101
 22
117.3613268820042066
 13
0.0
 23
0.0
 14
1.0
 24
1.0
 15
0.0
 25
0.0
 16
0.0
 26
0.0
 36
60.4960186965801583
 17
3911.3653564453120453
 27
132.5796051025390057
 37
0.0
 40
23.0995356544166413
 41
2.4116743471582178
 42
50.0
 43
0.0
 44
0.0
 50
0.0
 51
0.0
 71
     0
 72
   100
 73
     1
 74
     1
 75
     0
 76
     0
 77
     0
 78
     0
  0
ENDTAB
  0
TABLE
  2
LTYPE
 70
     2
  0
LTYPE
  2
CONTINUOUS
 70
     0
  3
Solid line
 72
    65
 73
     0
 40
0.0
  0
LTYPE
  2
PHANTOM2
 70
     0
  3
___ _ _ ___ _ _ ___ _ _ ___ _ _
 72
    65
 73
     6
 40
1.25
 49
0.625
 49
-0.125
 49
0.125
 49
-0.125
 49
0.125
 49
-0.125
  0
ENDTAB
  0
TABLE
  2
LAYER
 70
     2
  0
LAYER
  2
0
 70
     0
 62
   255
  6
CONTINUOUS
  0
LAYER
  2
DEFPOINTS
 70
     0
 62
     7
  6
CONTINUOUS
  0
ENDTAB
  0
TABLE
  2
STYLE
 70
     1
  0
STYLE
  2
STANDARD
 70
     0
 40
0.0
 41
0.8
 50
0.0
 71
     0
 42
0.2
  3
txt
  4

  0
ENDTAB
  0
TABLE
  2
VIEW
 70
     0
  0
ENDTAB
  0
TABLE
  2
UCS
 70
     0
  0
ENDTAB
  0
TABLE
  2
APPID
 70
    11
  0
APPID
  2
ACAD
 70
     0
  0
APPID
  2
ACAD_MLEADERVER
 70
     0
  0
APPID
  2
ACAD_EXEMPT_FROM_CAD_STANDARDS
 70
     0
  0
APPID
  2
ACAD_NAV_VCDISPLAY
 70
     0
  0
APPID
  2
ACAECLAYERSTANDARD
 70
     0
  0
APPID
  2
ACCMTRANSPARENCY
 70
     0
  0
APPID
  2
ACAD_DSTYLE_DIMJAG
 70
     0
  0
APPID
  2
ACAD_DSTYLE_DIMTALN
 70
     0
  0
APPID
  2
ACDBATTR
 70
     0
  0
APPID
  2
ACADANNOTATIVE
 70
     0
  0
APPID
  2
DCO15
 70
     0
  0
ENDTAB
  0
TABLE
  2
DIMSTYLE
 70
     1
  0
DIMSTYLE
  2
STANDARD
 70
     0
  3

  4

  5

  6

  7

 40
1.0
 41
0.1875
 42
0.0625
 43
0.38
 44
0.125
 45
0.0
 46
0.0
 47
0.01
 48
0.01
140
0.15625
141
0.09
142
0.0
143
25.3999999999999986
144
1.0
145
0.0
146
1.0
147
0.09
 71
     1
 72
     0
 73
     1
 74
     1
 75
     0
 76
     0
 77
     0
 78
     4
170
     0
171
     2
172
     0
173
     0
174
     0
175
     0
176
     0
177
     0
178
     0
  0
ENDTAB
  0
ENDSEC
  0
SECTION
  2
BLOCKS
  0
BLOCK
  8
0
  2
$MODEL_SPACE
 70
     0
 10
0.0
 20
0.0
 30
0.0
  3
$MODEL_SPACE
  1

  0
ENDBLK
  5
21
  8
0
  0
BLOCK
 67
     1
  8
0
  2
$PAPER_SPACE
 70
     0
 10
0.0
 20
0.0
 30
0.0
  3
$PAPER_SPACE
  1

  0
ENDBLK
  5
1D
 67
     1
  8
0
  0
ENDSEC
  0
SECTION
  2
ENTITIES
  0
LINE
  5
1CEA4
  8
0
 10
4278.2182581911492889
 20
259.5258919462797849
 30
0.0
 11
4278.218258660450374
 21
259.5258890480798186
 31
0.0
  0
CIRCLE
  5
1CEA5
  8
0
 10
4289.8337655268487651
 20
250.696233589979812
 30
0.0
 40
1.1276856724999991
  0
CIRCLE
  5
1CEA6
  8
0
 10
4289.8501886793483209
 20
257.0741863458798093
 30
0.0
 40
0.688976378
  0
ARC
  5
1CEA7
  8
0
 10
4278.3358774034231828
 20
259.5151318262717837
 30
0.0
 40
0.1181096377088334
 50
89.9997805248839882
 51
174.7743576381448065
  0
ARC
  5
1CEA8
  8
0
 10
4311.083986461871973
 20
256.8491823941560028
 30
0.0
 40
32.9745481004416874
 50
175.3438960297712867
 51
178.8661214371346091
  0
ARC
  5
1CEA9
  8
0
 10
4156.7743263105676306
 20
259.5697341585250228
 30
0.0
 40
121.359190428955003
 50
357.6543211755441121
 51
359.0235994805585165
  0
ARC
  5
1CEAA
  8
0
 10
4194.739995645363706
 20
258.3091759030547792
 30
0.0
 40
83.3742602488068769
 50
355.6144042288407263
 51
357.452025203147798
  0
ARC
  5
1CEAB
  8
0
 10
4366.1925639587925616
 20
245.6653169669995975
 30
0.0
 40
88.5445851474752459
 50
175.9404455948100008
 51
176.5469913384511926
  0
ARC
  5
1CEAC
  8
0
 10
4297.0095889591411833
 20
249.7072372859354061
 30
0.0
 40
19.2442199744876312
 50
176.1530887283427944
 51
179.3922613242469879
  0
ARC
  5
1CEAD
  8
0
 10
4287.4114413212791987
 20
249.5702205037889883
 30
0.0
 40
9.6452231987829595
 50
180.398620649245288
 51
200.409029318309706
  0
ARC
  5
1CEAE
  8
0
 10
4286.3046523478706149
 20
249.2944323038531991
 30
0.0
 40
8.5126924698735884
 50
201.2671023402457138
 51
221.8985041009214001
  0
ARC
  5
1CEAF
  8
0
 10
4286.7319109652853513
 20
249.7033602466817968
 30
0.0
 40
9.1038208151771531
 50
222.0183846746330119
 51
246.3045933329557897
  0
ARC
  5
1CEB0
  8
0
 10
4287.7630222040379522
 20
251.8654279520559953
 30
0.0
 40
11.4982387676279707
 50
245.9293523380997897
 51
263.0434892645802734
  0
ARC
  5
1CEB1
  8
0
 10
4287.3920028971951979
 20
250.4829670308938887
 30
0.0
 40
8.3644827424210781
 50
241.3357276043512059
 51
265.5678082437177068
  0
ARC
  5
1CEB2
  8
0
 10
4287.0192124216691809
 20
249.7232824214339075
 30
0.0
 40
7.5191746469116589
 50
215.0466694344721077
 51
241.0515058139756093
  0
ARC
  5
1CEB3
  8
0
 10
4285.4776887048647041
 20
248.7385501102658054
 30
0.0
 40
5.6922254296884613
 50
183.6154352191219914
 51
215.8421284310946078
  0
ARC
  5
1CEB4
  8
0
 10
4285.6348975283281106
 20
248.7515936873357987
 30
0.0
 40
5.8499447159519082
 50
161.1871678182370999
 51
183.6458377878857107
  0
ARC
  5
1CEB5
  8
0
 10
4285.2734914661232324
 20
248.8963808586906907
 30
0.0
 40
5.4611938953461729
 50
132.8795805514600943
 51
161.402314347681596
  0
ARC
  5
1CEB6
  8
0
 10
4285.4288638648922642
 20
248.6949919489775027
 30
0.0
 40
5.7145404460706191
 50
111.7743945868822948
 51
132.6471457296783001
  0
ARC
  5
1CEB7
  8
0
 10
4286.3052817875768596
 20
244.3815255410935094
 30
0.0
 40
10.0760775331288208
 50
92.4476703426985722
 51
107.2992302397463931
  0
ARC
  5
1CEB8
  8
0
 10
4289.9059767975832074
 20
250.649255665859414
 30
0.0
 40
1.274622130323072
 50
215.5733389250769108
 51
240.3791188215141119
  0
ARC
  5
1CEB9
  8
0
 10
4290.0080567186687404
 20
250.7224489221086117
 30
0.0
 40
1.40023081980721
 50
189.7216696433989114
 51
215.5794306800048048
  0
ARC
  5
1CEBA
  8
0
 10
4290.0556950606223836
 20
250.7339609245084944
 30
0.0
 40
1.4491327641791369
 50
172.9674680792371078
 51
189.8522388936740128
  0
ARC
  5
1CEBB
  8
0
 10
4289.9546966147481726
 20
250.750329795564312
 30
0.0
 40
1.346895651350851
 50
150.5772984407610977
 51
173.1325284152298138
  0
ARC
  5
1CEBC
  8
0
 10
4289.904149695178603
 20
250.7796246944309075
 30
0.0
 40
1.28847740722927
 50
127.297619956310001
 51
150.6077723102480093
  0
ARC
  5
1CEBD
  8
0
 10
4289.8513032258815656
 20
250.8521266771631133
 30
0.0
 40
1.1987810722078389
 50
106.954488844647301
 51
127.3881279940440976
  0
LINE
  5
1CEBE
  8
0
 10
4301.4821185317487107
 20
259.5258919462797849
 30
0.0
 11
4301.4821180624494446
 21
259.5258890480798186
 31
0.0
  0
LINE
  5
1CEBF
  8
0
 10
4301.3644988670494058
 20
259.6332414639798003
 30
0.0
 11
4278.3358778558485938
 21
259.6332414639798003
 31
0.0
  0
ARC
  5
1CEC0
  8
0
 10
4301.3644993194748167
 20
259.5151318262717837
 30
0.0
 40
0.1181096377088334
 50
5.2256423618551757
 51
90.0002194751160118
  0
ARC
  5
1CEC1
  8
0
 10
4268.6163902610260266
 20
256.8491823941560028
 30
0.0
 40
32.9745481004416874
 50
1.133878562865408
 51
4.656103970228723
  0
ARC
  5
1CEC2
  8
0
 10
4422.92605041232855
 20
259.5697341585250228
 30
0.0
 40
121.359190428955003
 50
180.9764005194413983
 51
182.3456788244558879
  0
ARC
  5
1CEC3
  8
0
 10
4384.9603810775342936
 20
258.3091759030547792
 30
0.0
 40
83.3742602488068769
 50
182.547974796852202
 51
184.3855957711593021
  0
ARC
  5
1CEC4
  8
0
 10
4213.5078127641063475
 20
245.6653169669995975
 30
0.0
 40
88.5445851474752459
 50
3.4530086615487781
 51
4.0595544051899788
  0
ARC
  5
1CEC5
  8
0
 10
4282.6907877637549973
 20
249.7072372859352924
 30
0.0
 40
19.2442199744890488
 50
0.6077386757529966
 51
3.8469112716571692
  0
ARC
  5
1CEC6
  8
0
 10
4292.2889354016188008
 20
249.5702205037889883
 30
0.0
 40
9.6452231987830306
 50
339.590970681690294
 51
359.6013793507545984
  0
ARC
  5
1CEC7
  8
0
 10
4293.3957243750282942
 20
249.2944323038531991
 30
0.0
 40
8.5126924698735884
 50
318.1014958990785999
 51
338.7328976597543146
  0
ARC
  5
1CEC8
  8
0
 10
4292.9684657576126483
 20
249.7033602466817968
 30
0.0
 40
9.1038208151771531
 50
293.6954066670442103
 51
317.9816153253668745
  0
ARC
  5
1CEC9
  8
0
 10
4291.9373545188609569
 20
251.8654279520565069
 30
0.0
 40
11.4982387676285196
 50
276.9565107354197266
 51
294.0706476619001819
  0
ARC
  5
1CECA
  8
0
 10
4289.8501883614489998
 20
270.4085856351161965
 30
0.0
 40
30.158179999924549
 50
263.3741978961151062
 51
276.6258021038848938
  0
ARC
  5
1CECB
  8
0
 10
4289.8501883614489998
 20
279.5711349801744063
 30
0.0
 40
37.5561770959839265
 50
265.2582261868528235
 51
274.7417738130952216
  0
ARC
  5
1CECC
  8
0
 10
4292.3083738257028017
 20
250.4829670308938887
 30
0.0
 40
8.3644827424210781
 50
274.4321917562824069
 51
298.6642723956488226
  0
ARC
  5
1CECD
  8
0
 10
4292.6811643012297282
 20
249.7232824214339075
 30
0.0
 40
7.5191746469116589
 50
298.9484941860243907
 51
324.953330565528006
  0
ARC
  5
1CECE
  8
0
 10
4294.222688018032386
 20
248.7385501102658054
 30
0.0
 40
5.6922254296884613
 50
324.1578715689039996
 51
356.3845647808780086
  0
ARC
  5
1CECF
  8
0
 10
4294.0654791945707984
 20
248.7515936873357987
 30
0.0
 40
5.8499447159519082
 50
356.3541622121143178
 51
18.8128321817628716
  0
ARC
  5
1CED0
  8
0
 10
4294.4268852567747672
 20
248.8963808586906907
 30
0.0
 40
5.4611938953461729
 50
18.5976856523183791
 51
47.1204194485398915
  0
ARC
  5
1CED1
  8
0
 10
4294.2715128580066448
 20
248.6949919489775027
 30
0.0
 40
5.7145404460706191
 50
47.3528542703216786
 51
68.225605413117691
  0
ARC
  5
1CED2
  8
0
 10
4293.3950949353211399
 20
244.3815255410935094
 30
0.0
 40
10.0760775331288208
 50
72.7007697602535643
 51
87.5523296573014136
  0
ARC
  5
1CED3
  8
0
 10
4289.8501883614489998
 20
203.8867835631446042
 30
0.0
 40
50.7176546170230367
 50
85.504574203741285
 51
94.4954257962587008
  0
ARC
  5
1CED4
  8
0
 10
4289.8501883614489998
 20
250.5603925036022872
 30
0.0
 40
1.169807093660626
 50
240.6032623659224896
 51
299.3967376340775104
  0
ARC
  5
1CED5
  8
0
 10
4289.7943999253147922
 20
250.649255665859414
 30
0.0
 40
1.274622130323072
 50
299.6208811784858881
 51
324.4266610749231745
  0
ARC
  5
1CED6
  8
0
 10
4289.6923200042292592
 20
250.7224489221086117
 30
0.0
 40
1.40023081980721
 50
324.4205693199951952
 51
350.2783303566010886
  0
ARC
  5
1CED7
  8
0
 10
4289.644681662277435
 20
250.7339609245084944
 30
0.0
 40
1.4491327641791369
 50
350.1477611063259019
 51
7.03253192076287
  0
ARC
  5
1CED8
  8
0
 10
4289.745680108149827
 20
250.750329795564312
 30
0.0
 40
1.346895651350851
 50
6.867471584770203
 51
29.422701559238849
  0
ARC
  5
1CED9
  8
0
 10
4289.7962270277203061
 20
250.7796246944309075
 30
0.0
 40
1.28847740722927
 50
29.3922276897520085
 51
52.7023800436899776
  0
ARC
  5
1CEDA
  8
0
 10
4289.849073497016434
 20
250.8521266771631133
 30
0.0
 40
1.1987810722078389
 50
52.6118720059558882
 51
73.0455111553526706
  0
ARC
  5
1CEDB
  8
0
 10
4289.8501883614489998
 20
250.8225016906399958
 30
0.0
 40
1.226831741065002
 50
73.4987801998686194
 51
106.5012198001313948
  0
ARC
  5
1CEDC
  8
0
 10
4289.8501883614489998
 20
253.1527812459704876
 30
0.0
 40
1.196001607878219
 50
65.7024813274768462
 51
114.2975186725230969
  0
ARC
  5
1CEDD
  8
0
 10
4289.8501883614489998
 20
255.064238939578189
 30
0.0
 40
0.9575379973123876
 50
239.0728440257798866
 51
300.9271559742193176
  0
LINE
  5
1CEDE
  8
0
 10
4301.9339251713781778
 20
249.5031168855178123
 30
0.0
 11
4301.9339251713781778
 21
249.9113576863531136
 31
0.0
  0
LINE
  5
1CEDF
  8
0
 10
4277.7664515515198218
 20
249.9113576863531989
 30
0.0
 11
4277.7664515515198218
 21
249.5031168855173007
 31
0.0
  0
POINT
  5
1CEE1
  8
DEFPOINTS
 10
4289.8501886793483209
 20
257.0741863458798093
 30
0.0
  0
ATTDEF
  5
1CEE2
  8
DEFPOINTS
 10
4289.8504681646008976
 20
259.6366963731413762
 30
0.0
 40
0.001
  1
K-17652T
  3

  2
MODELNUMBER
 70
     0
1001
ACDBATTR
1070
     0
1070
     1
  0
ATTDEF
  5
1CEE3
  8
DEFPOINTS
 10
4289.8503423549436775
 20
259.635029532762303
 30
0.0
 40
0.001
  1
CANDIDE
  3

  2
TRADENAME
 70
     0
1001
ACDBATTR
1070
     0
1070
     1
  0
ATTDEF
  5
1CEE4
  8
DEFPOINTS
 10
4289.8504681646008976
 20
259.6333630398081027
 30
0.0
 40
0.001
  1
BATHROOM SINK
  3

  2
PRODUCT
 70
     0
1001
ACDBATTR
1070
     0
1070
     1
  0
ENDSEC
  0
EOF
