  0
SECTION
  2
HEADER
  9
$ACADVER
  1
AC1009
  9
$INSBASE
 10
4571.2414747380644258
 20
1.520001410061173
 30
0.0
  9
$EXTMIN
 10
4559.3358539130931604
 20
1.5208397972886649
 30
0.0
  9
$EXTMAX
 10
4583.1470955630356912
 20
32.5000021723886974
 30
0.0
  9
$LIMMIN
 10
0.0
 20
0.0
  9
$LIMMAX
 10
11.6929133858000007
 20
8.2677165353999982
  9
$ORTHOMODE
 70
     0
  9
$REGENMODE
 70
     1
  9
$FILLMODE
 70
     1
  9
$QTEXTMODE
 70
     0
  9
$MIRRTEXT
 70
     0
  9
$DRAGMODE
 70
     2
  9
$LTSCALE
 40
0.6431102362
  9
$OSMODE
 70
  4095
  9
$ATTMODE
 70
     1
  9
$TEXTSIZE
 40
0.2
  9
$TRACEWID
 40
0.05
  9
$TEXTSTYLE
  7
STANDARD
  9
$CLAYER
  8
0
  9
$CELTYPE
  6
BYLAYER
  9
$CECOLOR
 62
   256
  9
$DIMSCALE
 40
1.0
  9
$DIMASZ
 40
0.1875
  9
$DIMEXO
 40
0.0625
  9
$DIMDLI
 40
0.4443307087
  9
$DIMRND
 40
0.0
  9
$DIMDLE
 40
0.0
  9
$DIMEXE
 40
0.125
  9
$DIMTP
 40
0.01
  9
$DIMTM
 40
0.01
  9
$DIMTXT
 40
2.0
  9
$DIMCEN
 40
0.1052362205
  9
$DIMTSZ
 40
0.0
  9
$DIMTOL
 70
     1
  9
$DIMLIM
 70
     0
  9
$DIMTIH
 70
     1
  9
$DIMTOH
 70
     1
  9
$DIMSE1
 70
     0
  9
$DIMSE2
 70
     0
  9
$DIMTAD
 70
     0
  9
$DIMZIN
 70
     0
  9
$DIMBLK
  1

  9
$DIMASO
 70
     1
  9
$DIMSHO
 70
     1
  9
$DIMPOST
  1
\X
  9
$DIMAPOST
  1

  9
$DIMALT
 70
     1
  9
$DIMALTD
 70
     2
  9
$DIMALTF
 40
25.3999999999999986
  9
$DIMLFAC
 40
1.0
  9
$DIMTOFL
 70
     0
  9
$DIMTVP
 40
0.0
  9
$DIMTIX
 70
     0
  9
$DIMSOXD
 70
     0
  9
$DIMSAH
 70
     0
  9
$DIMBLK1
  1

  9
$DIMBLK2
  1

  9
$DIMSTYLE
  2
STANDARD
  9
$DIMCLRD
 70
     0
  9
$DIMCLRE
 70
     0
  9
$DIMCLRT
 70
     0
  9
$DIMTFAC
 40
1.0
  9
$DIMGAP
 40
0.09
  9
$LUNITS
 70
     2
  9
$LUPREC
 70
     4
  9
$SKETCHINC
 40
0.1
  9
$FILLETRAD
 40
0.0
  9
$AUNITS
 70
     0
  9
$AUPREC
 70
     0
  9
$MENU
  1
.
  9
$ELEVATION
 40
0.0
  9
$PELEVATION
 40
0.0
  9
$THICKNESS
 40
0.0
  9
$LIMCHECK
 70
     0
  9
$BLIPMODE
 70
     0
  9
$CHAMFERA
 40
0.0
  9
$CHAMFERB
 40
0.0
  9
$SKPOLY
 70
     0
  9
$TDCREATE
 40
2458060.468368056230247
  9
$TDUPDATE
 40
2459438.7913657408207655
  9
$TDINDWG
 40
0.468409838
  9
$TDUSRTIMER
 40
0.468409838
  9
$USRTIMER
 70
     1
  9
$ANGBASE
 50
0.0
  9
$ANGDIR
 70
     0
  9
$PDMODE
 70
     0
  9
$PDSIZE
 40
0.3125
  9
$PLINEWID
 40
0.0
  9
$COORDS
 70
     1
  9
$SPLFRAME
 70
     0
  9
$SPLINETYPE
 70
     6
  9
$SPLINESEGS
 70
     8
  9
$ATTDIA
 70
     1
  9
$ATTREQ
 70
     1
  9
$HANDLING
 70
     1
  9
$HANDSEED
  5
13426
  9
$SURFTAB1
 70
     6
  9
$SURFTAB2
 70
     6
  9
$SURFTYPE
 70
     6
  9
$SURFU
 70
     6
  9
$SURFV
 70
     6
  9
$UCSNAME
  2

  9
$UCSORG
 10
0.0
 20
0.0
 30
0.0
  9
$UCSXDIR
 10
1.0
 20
0.0
 30
0.0
  9
$UCSYDIR
 10
0.0
 20
1.0
 30
0.0
  9
$PUCSNAME
  2

  9
$PUCSORG
 10
0.0
 20
0.0
 30
0.0
  9
$PUCSXDIR
 10
1.0
 20
0.0
 30
0.0
  9
$PUCSYDIR
 10
0.0
 20
1.0
 30
0.0
  9
$USERI1
 70
     0
  9
$USERI2
 70
     0
  9
$USERI3
 70
     0
  9
$USERI4
 70
     0
  9
$USERI5
 70
     0
  9
$USERR1
 40
0.0
  9
$USERR2
 40
0.0
  9
$USERR3
 40
0.0
  9
$USERR4
 40
0.0
  9
$USERR5
 40
0.0
  9
$WORLDVIEW
 70
     1
  9
$SHADEDGE
 70
     3
  9
$SHADEDIF
 70
    70
  9
$TILEMODE
 70
     1
  9
$MAXACTVP
 70
    64
  9
$PLIMCHECK
 70
     0
  9
$PEXTMIN
 10
1.0000000000000000E+20
 20
1.0000000000000000E+20
 30
1.0000000000000000E+20
  9
$PEXTMAX
 10
-1.0000000000000000E+20
 20
-1.0000000000000000E+20
 30
-1.0000000000000000E+20
  9
$PLIMMIN
 10
0.0
 20
0.0
  9
$PLIMMAX
 10
12.0
 20
9.0
  9
$UNITMODE
 70
     0
  9
$VISRETAIN
 70
     1
  9
$PLINEGEN
 70
     0
  9
$PSLTSCALE
 70
     1
  0
ENDSEC
  0
SECTION
  2
TABLES
  0
TABLE
  2
VPORT
 70
     1
  0
VPORT
  2
*ACTIVE
 70
     0
 10
0.0
 20
0.0
 11
1.0
 21
1.0
 12
779.0050886959361378
 22
-102.267118862512703
 13
0.0
 23
0.0
 14
1.0
 24
1.0
 15
0.0
 25
0.0
 16
0.0
 26
0.0
 36
5.1040778033513332
 17
3792.35791015625
 27
120.1806564331053977
 37
0.0
 40
31.2348468100970109
 41
2.5092105263157891
 42
50.0
 43
0.0
 44
0.0
 50
0.0
 51
0.0
 71
     0
 72
   100
 73
     1
 74
     1
 75
     0
 76
     0
 77
     0
 78
     0
  0
ENDTAB
  0
TABLE
  2
LTYPE
 70
     2
  0
LTYPE
  2
CONTINUOUS
 70
     0
  3
Solid line
 72
    65
 73
     0
 40
0.0
  0
LTYPE
  2
PHANTOM2
 70
     0
  3
___ _ _ ___ _ _ ___ _ _ ___ _ _
 72
    65
 73
     6
 40
1.25
 49
0.625
 49
-0.125
 49
0.125
 49
-0.125
 49
0.125
 49
-0.125
  0
ENDTAB
  0
TABLE
  2
LAYER
 70
     2
  0
LAYER
  2
0
 70
     0
 62
   255
  6
CONTINUOUS
  0
LAYER
  2
DEFPOINTS
 70
     0
 62
     7
  6
CONTINUOUS
  0
ENDTAB
  0
TABLE
  2
STYLE
 70
     1
  0
STYLE
  2
STANDARD
 70
     0
 40
0.0
 41
0.8
 50
0.0
 71
     0
 42
0.2
  3
txt
  4

  0
ENDTAB
  0
TABLE
  2
VIEW
 70
     0
  0
ENDTAB
  0
TABLE
  2
UCS
 70
     0
  0
ENDTAB
  0
TABLE
  2
APPID
 70
     9
  0
APPID
  2
ACAD
 70
     0
  0
APPID
  2
ACAD_MLEADERVER
 70
     0
  0
APPID
  2
ACAD_EXEMPT_FROM_CAD_STANDARDS
 70
     0
  0
APPID
  2
ACAD_NAV_VCDISPLAY
 70
     0
  0
APPID
  2
ACAECLAYERSTANDARD
 70
     0
  0
APPID
  2
ACCMTRANSPARENCY
 70
     0
  0
APPID
  2
ACAD_DSTYLE_DIMJAG
 70
     0
  0
APPID
  2
ACAD_DSTYLE_DIMTALN
 70
     0
  0
APPID
  2
ACDBATTR
 70
     0
  0
ENDTAB
  0
TABLE
  2
DIMSTYLE
 70
     1
  0
DIMSTYLE
  2
STANDARD
 70
     0
  3

  4

  5

  6

  7

 40
1.0
 41
0.1875
 42
0.0625
 43
0.38
 44
0.125
 45
0.0
 46
0.0
 47
0.01
 48
0.01
140
0.15625
141
0.09
142
0.0
143
25.3999999999999986
144
1.0
145
0.0
146
1.0
147
0.09
 71
     1
 72
     0
 73
     1
 74
     1
 75
     0
 76
     0
 77
     0
 78
     4
170
     0
171
     2
172
     0
173
     0
174
     0
175
     0
176
     0
177
     0
178
     0
  0
ENDTAB
  0
ENDSEC
  0
SECTION
  2
BLOCKS
  0
BLOCK
  8
0
  2
$MODEL_SPACE
 70
     0
 10
0.0
 20
0.0
 30
0.0
  3
$MODEL_SPACE
  1

  0
ENDBLK
  5
21
  8
0
  0
BLOCK
 67
     1
  8
0
  2
$PAPER_SPACE
 70
     0
 10
0.0
 20
0.0
 30
0.0
  3
$PAPER_SPACE
  1

  0
ENDBLK
  5
1D
 67
     1
  8
0
  0
ENDSEC
  0
SECTION
  2
ENTITIES
  0
ATTDEF
  5
3930
  8
DEFPOINTS
 10
4571.2447403010974085
 20
1.5241731306219961
 30
0.0
 40
0.001
  1
K-17656X
  3

  2
MODELNUMBER
 70
     0
1001
ACDBATTR
1070
     0
1070
     1
  0
ATTDEF
  5
3931
  8
DEFPOINTS
 10
4571.2447403010974085
 20
1.5225064639553301
 30
0.0
 40
0.001
  1
PANACHE
  3

  2
TRADENAME
 70
     0
1001
ACDBATTR
1070
     0
1070
     1
  0
ATTDEF
  5
3932
  8
DEFPOINTS
 10
4571.2447403010974085
 20
1.5208397972886649
 30
0.0
 40
0.001
  1
BATHROOM SINK
  3

  2
PRODUCT
 70
     0
1001
ACDBATTR
1070
     0
1070
     1
  0
ARC
  5
13127
  8
0
 10
4559.7660424821497145
 20
32.2248206337892498
 30
0.0
 40
0.2751815385994557
 50
89.9361637756064738
 51
167.5917837867633011
  0
LINE
  5
13128
  8
0
 10
4559.7663490762288347
 20
32.500002001592442
 30
0.0
 11
4582.7132504265209718
 21
32.5000008185299123
 31
0.0
  0
ARC
  5
13129
  8
0
 10
4570.2319020274253489
 20
29.8573967722210512
 30
0.0
 40
11.0054570090167605
 50
167.2623967809360011
 51
171.8233296360544955
  0
ARC
  5
1312A
  8
0
 10
4559.5707079481398978
 20
31.3886853735400706
 30
0.0
 40
0.2348540350463385
 50
171.682777263577492
 51
221.5093712398189894
  0
ARC
  5
1312B
  8
0
 10
4559.5713711459557089
 20
31.3868494551808901
 30
0.0
 40
0.2341409575578569
 50
221.0653833447721865
 51
253.4411791494277111
  0
ARC
  5
1312C
  8
0
 10
4559.5392062981918571
 20
30.655279908860301
 30
0.0
 40
0.4754266837310553
 50
10.4085232331356199
 51
71.9990270707410644
  0
LINE
  5
1312D
  8
0
 10
4559.6861289010294058
 20
31.1074350596424409
 30
0.0
 11
4559.5046410816948992
 21
31.1624188723053983
 31
0.0
  0
ARC
  5
1312E
  8
0
 10
4562.392037237452314
 20
26.6949496107304114
 30
0.0
 40
0.7297286934130671
 50
216.9035290654065022
 51
270.542361786987783
  0
ARC
  5
1312F
  8
0
 10
4569.0097195292137258
 20
31.5478252776220103
 30
0.0
 40
8.9360319376872983
 50
201.2396468009092985
 51
216.3064189893522951
  0
ARC
  5
13130
  8
0
 10
4572.444351523565274
 20
32.880709095992799
 30
0.0
 40
12.6202243331599995
 50
189.7606287241455902
 51
201.2309420345029878
  0
LINE
  5
13131
  8
0
 10
4562.3989447453168395
 20
25.9652536107924696
 30
0.0
 11
4580.0815127409814522
 21
25.96525361080284
 31
0.0
  0
LINE
  5
13132
  8
0
 10
4559.5043516639298105
 20
31.1624976922924404
 30
0.0
 11
4582.9758057190183536
 21
31.1624170044409787
 31
0.0
  0
LINE
  5
13133
  8
0
 10
4565.8669483369440059
 20
25.9652536107944982
 30
0.0
 11
4567.258799642941085
 21
16.1138785602379606
 31
0.0
  0
LINE
  5
13134
  8
0
 10
4568.4527123736297654
 20
14.9599396156924396
 30
0.0
 11
4574.0268575209220216
 21
14.9599552557385298
 31
0.0
  0
ARC
  5
13135
  8
0
 10
4570.7647430550878198
 20
16.5386993194505401
 30
0.0
 40
3.5315877288599471
 50
186.9089388126245126
 51
190.305566197236999
  0
ARC
  5
13136
  8
0
 10
4568.4478673389230607
 20
16.141343372517639
 30
0.0
 40
1.1814136917278371
 50
246.7220375303652133
 51
270.2349734224160898
  0
ARC
  5
13137
  8
0
 10
4568.4477726489303677
 20
16.1410212550925714
 30
0.0
 40
1.181080375100434
 50
191.4329604609494879
 51
199.8795687633522107
  0
ARC
  5
13138
  8
0
 10
4568.4477726489285487
 20
16.1410212550924292
 30
0.0
 40
1.1810803750999961
 50
199.8795687633526086
 51
220.9627465072937866
  0
ARC
  5
13139
  8
0
 10
4568.4477726489285487
 20
16.1410212550924292
 30
0.0
 40
1.1810803750999921
 50
220.9627465072937866
 51
246.7200817370703874
  0
ARC
  5
1313A
  8
0
 10
911.802694130814757
 20
-17.2922960846675906
 30
0.0
 40
3655.6219305498589165
 50
0.521967703032887
 51
0.6780058007101973
  0
ARC
  5
1313B
  8
0
 10
4566.8712841039559862
 20
25.4658785217230808
 30
0.0
 40
0.3059644213600041
 50
8.3087362828355111
 51
84.5561801493487195
  0
ARC
  5
1313C
  8
0
 10
4566.5106816979259747
 20
24.5451910614283797
 30
0.0
 40
1.235496871810366
 50
89.2709776784933666
 51
113.0098713223618034
  0
ARC
  5
1313D
  8
0
 10
4566.02393221525017
 20
25.5780444366668505
 30
0.0
 40
0.101380609976385
 50
158.804758413896991
 51
185.3805689261166947
  0
ARC
  5
1313E
  8
0
 10
4566.0178807973807125
 20
25.5730952150958508
 30
0.0
 40
0.0977648570428836
 50
119.7525190999621003
 51
154.8150001311435062
  0
ARC
  5
1313F
  8
0
 10
4566.0828683332238143
 20
25.4685975288908217
 30
0.0
 40
0.220784874604008
 50
104.459672197396003
 51
120.9368020912182971
  0
LINE
  5
13140
  8
0
 10
4566.5264015380644196
 20
25.7805879235254487
 30
0.0
 11
4566.9003108544293354
 21
25.7704629515535615
 31
0.0
  0
CIRCLE
  5
13141
  8
0
 10
4566.7126696880286545
 20
25.1184819572924383
 30
0.0
 40
0.157480315
  0
ARC
  5
13142
  8
0
 10
4582.7122688992858457
 20
32.2194762160190891
 30
0.0
 40
0.2805263196378659
 50
12.7807021701582304
 51
89.799528675900973
  0
ARC
  5
13143
  8
0
 10
4572.2507326475042646
 20
29.8571891086319994
 30
0.0
 40
11.0054570090167605
 50
8.1648830975420115
 51
12.7258159526566494
  0
ARC
  5
13144
  8
0
 10
4582.9122415279889537
 20
31.3862843862611598
 30
0.0
 40
0.2348540350463385
 50
318.4788414937574998
 51
8.3054354700237543
  0
ARC
  5
13145
  8
0
 10
4582.9325406998041217
 20
31.3601877616322788
 30
0.0
 40
0.2024478557248221
 50
282.3398243885613965
 51
320.2005612928114147
  0
ARC
  5
13146
  8
0
 10
4582.943592296252973
 20
30.6528724563739488
 30
0.0
 40
0.4754266837310553
 50
107.9891856628556042
 51
169.5796895004611997
  0
LINE
  5
13147
  8
0
 10
4582.7967627168691251
 20
31.1050578234763009
 30
0.0
 11
4582.9758057190183536
 21
31.1624170044409787
 31
0.0
  0
ARC
  5
13148
  8
0
 10
4580.089946672046608
 20
26.6931291452811195
 30
0.0
 40
0.7297286934130671
 50
269.4458509466186911
 51
323.0846836682105163
  0
ARC
  5
13149
  8
0
 10
4573.4732628859737815
 20
31.5473661428020193
 30
0.0
 40
8.9360319376872983
 50
323.6817937442381776
 51
338.7485659326774794
  0
ARC
  5
1314A
  8
0
 10
4570.0389051739703064
 20
32.880956528153412
 30
0.0
 40
12.6202243331599995
 50
338.7572706991027758
 51
350.227584009446673
  0
LINE
  5
1314B
  8
0
 10
4576.6148855282099248
 20
25.9641480424571682
 30
0.0
 11
4575.2210075617022085
 21
16.1130595412193713
 31
0.0
  0
ARC
  5
1314C
  8
0
 10
4571.7151516206804445
 20
16.5386015572847285
 30
0.0
 40
3.5315877288599471
 50
349.6826465363579928
 51
353.0792739209724118
  0
ARC
  5
1314D
  8
0
 10
4574.0361145752485754
 20
16.1274557531789
 30
0.0
 40
1.167537196229022
 50
269.5457140872288733
 51
293.3362901979247113
  0
ARC
  5
1314E
  8
0
 10
4574.0320401648477855
 20
16.1404468388819993
 30
0.0
 40
1.181080375100434
 50
340.1086439702539792
 51
348.5552522726475217
  0
ARC
  5
1314F
  8
0
 10
4574.032040164848695
 20
16.1404468388818714
 30
0.0
 40
1.1810803750999961
 50
319.0254662262992724
 51
340.1086439702535813
  0
ARC
  5
13150
  8
0
 10
4574.032040164848695
 20
16.1404468388818607
 30
0.0
 40
1.1810803750999921
 50
293.2681309965074092
 51
319.0254662262992724
  0
ARC
  5
13151
  8
0
 10
8230.6701631791293039
 20
-18.0451389786052587
 30
0.0
 40
3655.6219305498589165
 50
179.3102069328882067
 51
179.4662450305658012
  0
ARC
  5
13152
  8
0
 10
4575.610447047706657
 20
25.4649795825430907
 30
0.0
 40
0.3059644213600041
 50
95.432032584271397
 51
171.6794764507610864
  0
ARC
  5
13153
  8
0
 10
4575.9708600361982462
 20
24.5442179562222194
 30
0.0
 40
1.235496871810366
 50
66.9783414112728508
 51
90.7172350551338411
  0
ARC
  5
13154
  8
0
 10
4576.4578219939949122
 20
25.5769711722841784
 30
0.0
 40
0.101380609976385
 50
354.6076438074782118
 51
21.18345431970587
  0
ARC
  5
13155
  8
0
 10
4576.4638723935486269
 20
25.5720207058802416
 30
0.0
 40
0.0977648570428836
 50
25.1732126024599694
 51
60.2356936336485873
  0
ARC
  5
13156
  8
0
 10
4576.3988633611261321
 20
25.4675363915518105
 30
0.0
 40
0.220784874604008
 50
59.0514106423897118
 51
75.5285405362148339
  0
LINE
  5
13157
  8
0
 10
4575.9553943503979099
 20
25.7796180261655401
 30
0.0
 11
4575.5814829589708097
 21
25.7695699775029183
 31
0.0
  0
CIRCLE
  5
13158
  8
0
 10
4575.7689899915612841
 20
25.1175503942583305
 30
0.0
 40
0.157480315
  0
ENDSEC
  0
EOF
