  0
SECTION
  2
HEADER
  9
$ACADVER
  1
AC1009
  9
$INSBASE
 10
2989.2011089537841144
 20
154.9635789483635051
 30
0.0
  9
$EXTMIN
 10
2981.6925929004810314
 20
135.1548919736571861
 30
-0.0000000349181948
  9
$EXTMAX
 10
2996.7821267900289968
 20
154.9718391401038105
 30
0.0000000814935746
  9
$LIMMIN
 10
0.0
 20
0.0
  9
$LIMMAX
 10
11.6929133858000007
 20
8.2677165353999982
  9
$ORTHOMODE
 70
     1
  9
$REGENMODE
 70
     1
  9
$FILLMODE
 70
     1
  9
$QTEXTMODE
 70
     0
  9
$MIRRTEXT
 70
     0
  9
$DRAGMODE
 70
     2
  9
$LTSCALE
 40
0.6431102362
  9
$OSMODE
 70
  2039
  9
$ATTMODE
 70
     1
  9
$TEXTSIZE
 40
0.2
  9
$TRACEWID
 40
0.05
  9
$TEXTSTYLE
  7
STANDARD
  9
$CLAYER
  8
0
  9
$CELTYPE
  6
BYLAYER
  9
$CECOLOR
 62
   256
  9
$DIMSCALE
 40
1.0
  9
$DIMASZ
 40
0.1875
  9
$DIMEXO
 40
0.0625
  9
$DIMDLI
 40
0.4443307087
  9
$DIMRND
 40
0.0
  9
$DIMDLE
 40
0.0
  9
$DIMEXE
 40
0.125
  9
$DIMTP
 40
0.01
  9
$DIMTM
 40
0.01
  9
$DIMTXT
 40
2.0
  9
$DIMCEN
 40
0.1052362205
  9
$DIMTSZ
 40
0.0
  9
$DIMTOL
 70
     1
  9
$DIMLIM
 70
     0
  9
$DIMTIH
 70
     1
  9
$DIMTOH
 70
     1
  9
$DIMSE1
 70
     0
  9
$DIMSE2
 70
     0
  9
$DIMTAD
 70
     0
  9
$DIMZIN
 70
     0
  9
$DIMBLK
  1

  9
$DIMASO
 70
     1
  9
$DIMSHO
 70
     1
  9
$DIMPOST
  1
\X
  9
$DIMAPOST
  1

  9
$DIMALT
 70
     1
  9
$DIMALTD
 70
     2
  9
$DIMALTF
 40
25.3999999999999986
  9
$DIMLFAC
 40
1.0
  9
$DIMTOFL
 70
     0
  9
$DIMTVP
 40
0.0
  9
$DIMTIX
 70
     0
  9
$DIMSOXD
 70
     0
  9
$DIMSAH
 70
     0
  9
$DIMBLK1
  1

  9
$DIMBLK2
  1

  9
$DIMSTYLE
  2
STANDARD
  9
$DIMCLRD
 70
     0
  9
$DIMCLRE
 70
     0
  9
$DIMCLRT
 70
     0
  9
$DIMTFAC
 40
1.0
  9
$DIMGAP
 40
0.09
  9
$LUNITS
 70
     2
  9
$LUPREC
 70
     4
  9
$SKETCHINC
 40
0.1
  9
$FILLETRAD
 40
0.0
  9
$AUNITS
 70
     0
  9
$AUPREC
 70
     0
  9
$MENU
  1
.
  9
$ELEVATION
 40
0.0
  9
$PELEVATION
 40
0.0
  9
$THICKNESS
 40
0.0
  9
$LIMCHECK
 70
     0
  9
$BLIPMODE
 70
     0
  9
$CHAMFERA
 40
0.0
  9
$CHAMFERB
 40
0.0
  9
$SKPOLY
 70
     0
  9
$TDCREATE
 40
2458060.468368056230247
  9
$TDUPDATE
 40
2459292.6769560179673135
  9
$TDINDWG
 40
0.6314769676
  9
$TDUSRTIMER
 40
0.6314769676
  9
$USRTIMER
 70
     1
  9
$ANGBASE
 50
0.0
  9
$ANGDIR
 70
     0
  9
$PDMODE
 70
     0
  9
$PDSIZE
 40
0.3125
  9
$PLINEWID
 40
0.0
  9
$COORDS
 70
     1
  9
$SPLFRAME
 70
     0
  9
$SPLINETYPE
 70
     6
  9
$SPLINESEGS
 70
     8
  9
$ATTDIA
 70
     1
  9
$ATTREQ
 70
     1
  9
$HANDLING
 70
     1
  9
$HANDSEED
  5
2CA46
  9
$SURFTAB1
 70
     6
  9
$SURFTAB2
 70
     6
  9
$SURFTYPE
 70
     6
  9
$SURFU
 70
     6
  9
$SURFV
 70
     6
  9
$UCSNAME
  2

  9
$UCSORG
 10
0.0
 20
0.0
 30
0.0
  9
$UCSXDIR
 10
1.0
 20
0.0
 30
0.0
  9
$UCSYDIR
 10
0.0
 20
1.0
 30
0.0
  9
$PUCSNAME
  2

  9
$PUCSORG
 10
0.0
 20
0.0
 30
0.0
  9
$PUCSXDIR
 10
1.0
 20
0.0
 30
0.0
  9
$PUCSYDIR
 10
0.0
 20
1.0
 30
0.0
  9
$USERI1
 70
     0
  9
$USERI2
 70
     0
  9
$USERI3
 70
     0
  9
$USERI4
 70
     0
  9
$USERI5
 70
     0
  9
$USERR1
 40
0.0
  9
$USERR2
 40
0.0
  9
$USERR3
 40
0.0
  9
$USERR4
 40
0.0
  9
$USERR5
 40
0.0
  9
$WORLDVIEW
 70
     1
  9
$SHADEDGE
 70
     3
  9
$SHADEDIF
 70
    70
  9
$TILEMODE
 70
     1
  9
$MAXACTVP
 70
    64
  9
$PLIMCHECK
 70
     0
  9
$PEXTMIN
 10
1.0000000000000000E+20
 20
1.0000000000000000E+20
 30
1.0000000000000000E+20
  9
$PEXTMAX
 10
-1.0000000000000000E+20
 20
-1.0000000000000000E+20
 30
-1.0000000000000000E+20
  9
$PLIMMIN
 10
0.0
 20
0.0
  9
$PLIMMAX
 10
12.0
 20
9.0
  9
$UNITMODE
 70
     0
  9
$VISRETAIN
 70
     1
  9
$PLINEGEN
 70
     0
  9
$PSLTSCALE
 70
     1
  0
ENDSEC
  0
SECTION
  2
TABLES
  0
TABLE
  2
VPORT
 70
     1
  0
VPORT
  2
*ACTIVE
 70
     0
 10
0.0
 20
0.0
 11
1.0
 21
1.0
 12
-314.4557553891199859
 22
-50.1981460190072823
 13
0.0
 23
0.0
 14
1.0
 24
1.0
 15
0.0
 25
0.0
 16
0.0
 26
0.0
 36
96.5995694866707311
 17
3303.693115234375
 27
195.2615115758877096
 37
0.0
 40
19.9818593481368616
 41
2.6486111111111108
 42
50.0
 43
0.0
 44
0.0
 50
0.0
 51
0.0
 71
     0
 72
   100
 73
     1
 74
     1
 75
     0
 76
     0
 77
     0
 78
     0
  0
ENDTAB
  0
TABLE
  2
LTYPE
 70
     2
  0
LTYPE
  2
CONTINUOUS
 70
     0
  3
Solid line
 72
    65
 73
     0
 40
0.0
  0
LTYPE
  2
PHANTOM2
 70
     0
  3
___ _ _ ___ _ _ ___ _ _ ___ _ _
 72
    65
 73
     6
 40
1.25
 49
0.625
 49
-0.125
 49
0.125
 49
-0.125
 49
0.125
 49
-0.125
  0
ENDTAB
  0
TABLE
  2
LAYER
 70
     2
  0
LAYER
  2
0
 70
     0
 62
   255
  6
CONTINUOUS
  0
LAYER
  2
DEFPOINTS
 70
     0
 62
     7
  6
CONTINUOUS
  0
ENDTAB
  0
TABLE
  2
STYLE
 70
     1
  0
STYLE
  2
STANDARD
 70
     0
 40
0.0
 41
0.8
 50
0.0
 71
     0
 42
0.2
  3
txt
  4

  0
ENDTAB
  0
TABLE
  2
VIEW
 70
     0
  0
ENDTAB
  0
TABLE
  2
UCS
 70
     0
  0
ENDTAB
  0
TABLE
  2
APPID
 70
     9
  0
APPID
  2
ACAD
 70
     0
  0
APPID
  2
ACAD_MLEADERVER
 70
     0
  0
APPID
  2
ACAD_EXEMPT_FROM_CAD_STANDARDS
 70
     0
  0
APPID
  2
ACAD_NAV_VCDISPLAY
 70
     0
  0
APPID
  2
ACAECLAYERSTANDARD
 70
     0
  0
APPID
  2
ACCMTRANSPARENCY
 70
     0
  0
APPID
  2
ACAD_DSTYLE_DIMJAG
 70
     0
  0
APPID
  2
ACAD_DSTYLE_DIMTALN
 70
     0
  0
APPID
  2
ACDBATTR
 70
     0
  0
ENDTAB
  0
TABLE
  2
DIMSTYLE
 70
     1
  0
DIMSTYLE
  2
STANDARD
 70
     0
  3

  4

  5

  6

  7

 40
1.0
 41
0.1875
 42
0.0625
 43
0.38
 44
0.125
 45
0.0
 46
0.0
 47
0.01
 48
0.01
140
0.15625
141
0.09
142
0.0
143
25.3999999999999986
144
1.0
145
0.0
146
1.0
147
0.09
 71
     1
 72
     0
 73
     1
 74
     1
 75
     0
 76
     0
 77
     0
 78
     4
170
     0
171
     2
172
     0
173
     0
174
     0
175
     0
176
     0
177
     0
178
     0
  0
ENDTAB
  0
ENDSEC
  0
SECTION
  2
BLOCKS
  0
BLOCK
  8
0
  2
$MODEL_SPACE
 70
     0
 10
0.0
 20
0.0
 30
0.0
  3
$MODEL_SPACE
  1

  0
ENDBLK
  5
21
  8
0
  0
BLOCK
 67
     1
  8
0
  2
$PAPER_SPACE
 70
     0
 10
0.0
 20
0.0
 30
0.0
  3
$PAPER_SPACE
  1

  0
ENDBLK
  5
1D
 67
     1
  8
0
  0
BLOCK
  8
0
  2
_FILLED
 70
     0
 10
0.0
 20
0.0
 30
0.0
  3
_FILLED
  1

  0
SOLID
  5
2ABDA
  8
0
  6
BYBLOCK
 62
     0
 10
0.0
 20
0.0
 30
0.0
 11
-1.0
 21
0.1666666667
 31
0.0
 12
-1.0
 22
-0.1666666667
 32
0.0
 13
-1.0
 23
-0.1666666667
 33
0.0
  0
ENDBLK
  5
2ABDB
  8
0
  6
BYBLOCK
 62
     0
  0
ENDSEC
  0
SECTION
  2
ENTITIES
  0
ATTDEF
  5
2C6D7
  8
DEFPOINTS
 10
2989.2015387575052046
 20
154.9676794495192098
 30
0.0
 40
0.001
  1
K-17660X-M
  3

  2
MODELNUMBER
 70
     0
1001
ACDBATTR
1070
     0
1070
     1
  0
ATTDEF
  5
2C6D8
  8
DEFPOINTS
 10
2989.2015387575052046
 20
154.9660127828524878
 30
0.0
 40
0.001
  1
OVE
  3

  2
TRADENAME
 70
     0
1001
ACDBATTR
1070
     0
1070
     1
  0
ATTDEF
  5
2C6D9
  8
DEFPOINTS
 10
2989.2015387575052046
 20
154.9643461161857942
 30
0.0
 40
0.001
  1
TOILET SEAT
  3

  2
PRODUCT
 70
     0
1001
ACDBATTR
1070
     0
1070
     1
  0
LINE
  5
2C875
  8
0
 10
2987.2140457054088074
 20
153.5388037577143905
 30
0.0
 11
2991.1881722022139911
 21
153.5388037577143905
 31
0.0
  0
LINE
  5
2C876
  8
0
 10
2987.2152034435330279
 20
153.5492925145144056
 30
0.0
 11
2987.2152034435330279
 21
154.463637370614407
 31
0.0
  0
ARC
  5
2C877
  8
0
 10
2986.7153298104758505
 20
154.463637370614407
 30
0.0
 40
0.4998736330573868
 50
0.0
 51
89.9855850597048175
  0
LINE
  5
2C878
  8
0
 10
2986.7154555727670413
 20
154.9635109878516062
 30
0.0
 11
2986.1752035361491835
 21
154.9636469088754041
 31
0.0
  0
ARC
  5
2C879
  8
0
 10
2986.1750777736779128
 20
154.4637725762594016
 30
0.0
 40
0.4998743484361811
 50
89.9855850597048175
 51
180.0155000483323136
  0
LINE
  5
2C87A
  8
0
 10
2985.6752034435339738
 20
154.4636373468144086
 30
0.0
 11
2985.6752034435339738
 21
153.5492921203550054
 31
0.0
  0
ARC
  5
2C87B
  8
0
 10
2985.7031836688479416
 20
153.5469336098825863
 30
0.0
 40
0.0280794512098833
 50
175.181811225495295
 51
270.0177118153172842
  0
LINE
  5
2C87C
  8
0
 10
2985.7031923490330882
 20
153.5188541600143992
 30
0.0
 11
2985.7402916660421397
 21
153.518468338865091
 31
0.0
  0
ARC
  5
2C87D
  8
0
 10
2989.2111471514440382
 20
91.7579199080279864
 30
0.0
 40
61.3220761313280107
 50
90.0093791077908918
 51
93.5401473307326938
  0
ARC
  5
2C87E
  8
0
 10
2988.829661100064186
 20
97.9242505763958064
 30
0.0
 40
55.1439562296871202
 50
93.5401473370239387
 51
94.6852712485383705
  0
ARC
  5
2C87F
  8
0
 10
2985.0117636093100373
 20
134.3306428893733084
 30
0.0
 40
18.5659881162095317
 50
92.1187182512486089
 51
93.9297753301060823
  0
ARC
  5
2C880
  8
0
 10
2983.7538550391582248
 20
152.6959129807484885
 30
0.0
 40
0.1577324512633712
 50
95.2702625245849646
 51
175.8371344522996083
  0
ARC
  5
2C881
  8
0
 10
2980.0070163460918593
 20
152.9190120538497979
 30
0.0
 40
3.5957566970916819
 50
347.5503254384756247
 51
356.6255761716274719
  0
ARC
  5
2C882
  8
0
 10
2979.4350463302498611
 20
153.281437698278495
 30
0.0
 40
4.2386869345080678
 50
328.6315014609236869
 51
344.4317269660111265
  0
ARC
  5
2C883
  8
0
 10
2992.3728137048151439
 20
146.2056607074547969
 30
0.0
 40
10.5141535196000309
 50
152.411042555921
 51
166.4103378084884923
  0
ARC
  5
2C884
  8
0
 10
2994.1475306620650372
 20
145.7781968554702132
 30
0.0
 40
12.33962433501768
 50
166.4173172168347037
 51
195.3154674899469967
  0
ARC
  5
2C885
  8
0
 10
2995.6081263434161883
 20
146.1076215127577882
 30
0.0
 40
13.8355281378806705
 50
195.0335883816599107
 51
221.0997598579471912
  0
ARC
  5
2C886
  8
0
 10
2989.3539605865380508
 20
140.6888267740746983
 30
0.0
 40
5.5605060973555691
 50
221.3871796145170094
 51
249.440039283146092
  0
ARC
  5
2C887
  8
0
 10
2989.1817296531221473
 20
140.343094635288395
 30
0.0
 40
5.1764633106668319
 50
249.8810569617901933
 51
262.5590661216435251
  0
ARC
  5
2C888
  8
0
 10
2989.2539287854710892
 20
141.2257092929147007
 30
0.0
 40
6.0611459437348012
 50
262.9628152048297238
 51
269.5006898424118162
  0
ARC
  5
2C889
  8
0
 10
2987.3041972566920776
 20
109.4734633978805931
 30
0.0
 40
43.5175501711850998
 50
94.0441570177214459
 51
94.1531320592691543
  0
ARC
  5
2C88A
  8
0
 10
2984.2300155079788055
 20
152.9417500279126045
 30
0.0
 40
0.0593146763130943
 50
274.9278156332031244
 51
358.1815227244791799
  0
LINE
  5
2C88B
  8
0
 10
2984.2893003121607762
 20
152.9398677900929044
 30
0.0
 11
2984.2893004750339969
 21
153.2665773331144123
 31
0.0
  0
ARC
  5
2C88C
  8
0
 10
2984.3286705540322146
 20
153.2665811036353887
 30
0.0
 40
0.0393700791789371
 50
90.0000002887166062
 51
180.005487287504792
  0
LINE
  5
2C88D
  8
0
 10
2984.3286705538339447
 20
153.3059511828143968
 30
0.0
 11
2984.8404815910339494
 21
153.3059511828143968
 31
0.0
  0
ARC
  5
2C88E
  8
0
 10
2984.8404815910339494
 20
153.2665811176680961
 30
0.0
 40
0.0393700651462155
 50
359.9972228928958202
 51
90.0
  0
LINE
  5
2C88F
  8
0
 10
2984.8798516561341785
 20
153.2665792094142887
 30
0.0
 11
2984.879835175844164
 21
152.9265667442629137
 31
0.0
  0
ARC
  5
2C890
  8
0
 10
2977.5988870398728068
 20
152.9850715060410948
 30
0.0
 40
7.3032154591500369
 50
359.5533944147109082
 51
1.9486710840778541
  0
LINE
  5
2C891
  8
0
 10
2984.8798424972128487
 20
153.07761727845471
 30
0.0
 11
2984.8981766587921811
 21
153.07761727845471
 31
0.0
  0
ARC
  5
2C892
  8
0
 10
2983.5990757485401446
 20
153.1009940901406026
 30
0.0
 40
1.298098433653035
 50
358.9681329092774149
 51
359.5248210772813877
  0
LINE
  5
2C893
  8
0
 10
2984.8971295401338466
 20
153.0902285163143972
 30
0.0
 11
2984.8981765478338275
 21
153.077618614814412
 31
0.0
  0
LINE
  5
2C894
  8
0
 10
2984.8981765478338275
 20
153.077618614814412
 30
0.0
 11
2984.8998124515587733
 21
153.0433233770307027
 31
0.0
  0
LINE
  5
2C895
  8
0
 10
2984.8998124515587733
 20
153.0433233770307027
 30
0.0
 11
2984.9001843802739131
 21
152.928024277572689
 31
0.0
  0
ARC
  5
2C896
  8
0
 10
2984.971439091872071
 20
153.2309198213334867
 30
0.0
 40
0.0736022887183583
 50
89.9832819755060882
 51
178.0601462561936046
  0
LINE
  5
2C897
  8
0
 10
2984.9714605678841508
 20
153.304522106918597
 30
0.0
 11
2985.3131379515589288
 21
153.3044224107266871
 31
0.0
  0
ARC
  5
2C898
  8
0
 10
2985.3130091395269119
 20
153.2293147475816966
 30
0.0
 40
0.0751077736032875
 50
0.0855868961718762
 51
89.9017360110322556
  0
LINE
  5
2C899
  8
0
 10
2985.3881168293341943
 20
153.2294269415143049
 30
0.0
 11
2985.3881168293341943
 21
152.9607083266384961
 31
0.0
  0
ARC
  5
2C89A
  8
0
 10
2981.6826794251560386
 20
153.2191216457175074
 30
0.0
 40
3.7214874636432911
 50
359.7334834553864198
 51
4.6239709046970532
  0
ARC
  5
2C89B
  8
0
 10
2941.9489440962361186
 20
152.9327302265589879
 30
0.0
 40
43.4560156158998367
 50
0.0382729396590615
 51
0.3547790451017852
  0
ARC
  5
2C89C
  8
0
 10
2994.5989673705930727
 20
153.1222570732882104
 30
0.0
 40
9.2009053180078642
 50
178.6107330555205124
 51
179.4565630609205016
  0
ARC
  5
2C89D
  8
0
 10
2994.3724476173260882
 20
153.430356335982907
 30
0.0
 40
8.97208382577689
 50
180.5429729948492934
 51
181.4104787997395078
  0
LINE
  5
2C89E
  8
0
 10
2985.4030822910340248
 20
153.2095083786144016
 30
0.0
 11
2985.3881168293341943
 21
153.2095083786144016
 31
0.0
  0
ARC
  5
2C89F
  8
0
 10
2930.6187428211878796
 20
152.833210224787905
 30
0.0
 40
54.7856317974688878
 50
0.1343829266696847
 51
0.3935423371827549
  0
LINE
  5
2C8A0
  8
0
 10
2985.3920538372340161
 20
153.2095083786144016
 30
0.0
 11
2985.3920538372340161
 21
153.5189919793157003
 31
0.0
  0
ARC
  5
2C8A1
  8
0
 10
2985.4118661644961321
 20
153.5189919793157003
 30
0.0
 40
0.019812327261403
 50
90.4264879300757514
 51
180.0
  0
LINE
  5
2C8A2
  8
0
 10
2985.4117186904491064
 20
153.5388037577043008
 30
0.0
 11
2985.676306892924913
 21
153.5388037577143905
 31
0.0
  0
LINE
  5
2C8A3
  8
0
 10
2985.7402916660421397
 20
153.518468338865091
 30
0.0
 11
2985.820682977333945
 21
153.5184492312143902
 31
0.0
  0
ARC
  5
2C8A4
  8
0
 10
2985.7535761350150096
 20
154.122285803474
 30
0.0
 40
0.6075540587340005
 50
276.3414936251256222
 51
279.3138311247151933
  0
LINE
  5
2C8A5
  8
0
 10
2985.8519039245338718
 20
153.5227413263143887
 30
0.0
 11
2985.992554061896044
 21
153.5224221655628014
 31
0.0
  0
ARC
  5
2C8A6
  8
0
 10
2985.9906287152289224
 20
153.5584075303210057
 30
0.0
 40
0.0587830781621284
 50
217.7806444605992908
 51
268.5146287578810984
  0
LINE
  5
2C8A7
  8
0
 10
2985.9891049570328505
 20
153.4996442046902985
 30
0.0
 11
2986.89936941793394
 21
153.499557450514402
 31
0.0
  0
ARC
  5
2C8A8
  8
0
 10
2986.8995676488589197
 20
153.5586633664754004
 30
0.0
 40
0.0591062483760425
 50
269.8078406769324147
 51
322.1483701988283883
  0
LINE
  5
2C8A9
  8
0
 10
2986.9462380841341655
 20
153.5223946600144131
 30
0.0
 11
2987.0385638827337971
 21
153.5227285805144106
 31
0.0
  0
ARC
  5
2C8AA
  8
0
 10
2987.2900717751099364
 20
155.1469878276487009
 30
0.0
 40
1.6436162331362041
 50
261.1979579904023012
 51
262.2136480080845899
  0
LINE
  5
2C8AB
  8
0
 10
2987.0673953549321595
 20
153.518525505786414
 30
0.0
 11
2987.1559076335338432
 21
153.5184661527144101
 31
0.0
  0
ARC
  5
2C8AC
  8
0
 10
2987.1585047750181729
 20
153.5094116486021107
 30
0.0
 40
0.009419617221824
 50
91.1850159449776356
 51
106.0047021899994064
  0
LINE
  5
2C8AD
  8
0
 10
2987.1583099683339242
 20
153.518829251214413
 30
0.0
 11
2987.1872338455941644
 21
153.5188550217719126
 31
0.0
  0
ARC
  5
2C8AE
  8
0
 10
2987.1872390426137827
 20
153.5468288303997895
 30
0.0
 40
0.0279738091106926
 50
269.9893554975881784
 51
331.5109540469056242
  0
ARC
  5
2C8AF
  8
0
 10
2987.1781154023651652
 20
153.5489539279290909
 30
0.0
 40
0.0370895866600951
 50
335.3512923605410947
 51
0.5230538687395083
  0
LINE
  5
2C8B0
  8
0
 10
2985.992554061896044
 20
153.5224221655628014
 30
0.0
 11
2985.9924481479338283
 21
153.5184138901144024
 31
0.0
  0
LINE
  5
2C8B1
  8
0
 10
2985.9924481479338283
 20
153.5184138901144024
 30
0.0
 11
2986.8979587391340829
 21
153.5184139703144126
 31
0.0
  0
LINE
  5
2C8B2
  8
0
 10
2986.8979587391340829
 20
153.5184139703144126
 30
0.0
 11
2986.8978491374250552
 21
153.5225629940007934
 31
0.0
  0
LINE
  5
2C8B3
  8
0
 10
2986.8978491374250552
 20
153.5225629940007934
 30
0.0
 11
2986.9462380841341655
 21
153.5223946600144131
 31
0.0
  0
ARC
  5
2C8B4
  8
0
 10
2986.2488572751908578
 20
153.458575136685397
 30
0.0
 40
0.0783180927021076
 50
31.6003244066444609
 51
49.8223704049071614
  0
ARC
  5
2C8B5
  8
0
 10
2986.6561363517648715
 20
153.4466073722618091
 30
0.0
 40
0.0970464776865412
 50
132.2754504646867133
 51
146.911460575595413
  0
LINE
  5
2C8B6
  8
0
 10
2985.6892393464568158
 20
153.522561259702087
 30
0.0
 11
2985.6948181926341022
 21
153.4833178545144108
 31
0.0
  0
LINE
  5
2C8B7
  8
0
 10
2985.6948181926341022
 20
153.4833178545144108
 30
0.0
 11
2987.2082598157508073
 21
153.4833178545144108
 31
0.0
  0
LINE
  5
2C8B8
  8
0
 10
2987.2082598157508073
 20
153.4833178545144108
 30
0.0
 11
2987.2118641175347875
 21
153.5335701162117061
 31
0.0
  0
LINE
  5
2C8B9
  8
0
 10
2991.1870144640338367
 20
153.5492925145144056
 30
0.0
 11
2991.1870144640338367
 21
154.463637370614407
 31
0.0
  0
ARC
  5
2C8BA
  8
0
 10
2991.6868880970910141
 20
154.463637370614407
 30
0.0
 40
0.4998736330573868
 50
90.0144149402951967
 51
180.0
  0
LINE
  5
2C8BB
  8
0
 10
2991.6867623348011875
 20
154.9635109878516062
 30
0.0
 11
2992.2270143714190453
 21
154.9636469088754041
 31
0.0
  0
ARC
  5
2C8BC
  8
0
 10
2992.2271401338889518
 20
154.4637725762594016
 30
0.0
 40
0.4998743484361811
 50
359.9844999516677149
 51
90.0144149402951967
  0
LINE
  5
2C8BD
  8
0
 10
2992.7270144640338003
 20
154.4636373468144086
 30
0.0
 11
2992.7270144640338003
 21
153.5492921203550054
 31
0.0
  0
ARC
  5
2C8BE
  8
0
 10
2992.6990342387198325
 20
153.5469336098825863
 30
0.0
 40
0.0280794512098833
 50
269.9822881846827158
 51
4.8181887745046881
  0
LINE
  5
2C8BF
  8
0
 10
2992.6990255585337763
 20
153.5188541600143992
 30
0.0
 11
2992.6619262415251796
 21
153.518468338865091
 31
0.0
  0
ARC
  5
2C8C0
  8
0
 10
2989.1910707561241907
 20
91.7579199080192751
 30
0.0
 40
61.322076131336722
 50
86.459852669267292
 51
89.9906208922091082
  0
ARC
  5
2C8C1
  8
0
 10
2989.5725568075040428
 20
97.9242505763958064
 30
0.0
 40
55.1439562296871202
 50
85.3147287514616437
 51
86.4598526629760471
  0
ARC
  5
2C8C2
  8
0
 10
2993.3904542982568273
 20
134.3306428893733084
 30
0.0
 40
18.5659881162095317
 50
86.0702246698939319
 51
87.8812817487514053
  0
ARC
  5
2C8C3
  8
0
 10
2994.648362868410004
 20
152.6959129807484885
 30
0.0
 40
0.1577324512633712
 50
4.1628655477003891
 51
84.7297374754150496
  0
ARC
  5
2C8C4
  8
0
 10
2998.3952015614750053
 20
152.9190120538497979
 30
0.0
 40
3.5957566970916819
 50
183.3744238283724997
 51
192.4496745615244038
  0
ARC
  5
2C8C5
  8
0
 10
2998.967171577317913
 20
153.281437698278495
 30
0.0
 40
4.2386869345080678
 50
195.5682730339887883
 51
211.3684985390763984
  0
ARC
  5
2C8C6
  8
0
 10
2986.029404202753085
 20
146.2056607074547969
 30
0.0
 40
10.5141535196000309
 50
13.5896621915114793
 51
27.5889574440789289
  0
ARC
  5
2C8C7
  8
0
 10
2984.2546872455031917
 20
145.7781968554702132
 30
0.0
 40
12.33962433501768
 50
344.6845325100529749
 51
13.5826827831652892
  0
ARC
  5
2C8C8
  8
0
 10
2982.7940915641520405
 20
146.1076215127577882
 30
0.0
 40
13.8355281378806705
 50
318.9002401420527804
 51
344.9664116183400893
  0
ARC
  5
2C8C9
  8
0
 10
2989.048257321030178
 20
140.6888267740746983
 30
0.0
 40
5.5605060973555691
 50
290.5599607168538796
 51
318.6128203854817116
  0
ARC
  5
2C8CA
  8
0
 10
2989.2204882544460816
 20
140.343094635288395
 30
0.0
 40
5.1764633106668319
 50
277.4409338783564749
 51
290.1189430382098067
  0
ARC
  5
2C8CB
  8
0
 10
2989.1482891220971396
 20
141.2257092929147007
 30
0.0
 40
6.0611459437348012
 50
270.4993101575881838
 51
277.0371847951702762
  0
ARC
  5
2C8CC
  8
0
 10
2991.0980206508761512
 20
109.4734633978805931
 30
0.0
 40
43.5175501711850998
 50
85.8468679407308741
 51
85.9558429822785683
  0
ARC
  5
2C8CD
  8
0
 10
2994.1722023995889685
 20
152.9417500279126045
 30
0.0
 40
0.0593146763130943
 50
181.8184772755207916
 51
265.0721843667968756
  0
LINE
  5
2C8CE
  8
0
 10
2994.1129175954069979
 20
152.9398677900929044
 30
0.0
 11
2994.1129174325337772
 21
153.2665773331144123
 31
0.0
  0
ARC
  5
2C8CF
  8
0
 10
2994.0735473535351048
 20
153.2665811036353887
 30
0.0
 40
0.039370079178933
 50
359.9945127124902911
 51
89.9999997112833938
  0
LINE
  5
2C8D0
  8
0
 10
2994.0735473537338294
 20
153.3059511828143968
 30
0.0
 11
2993.5617363165338247
 21
153.3059511828143968
 31
0.0
  0
ARC
  5
2C8D1
  8
0
 10
2993.5617363165338247
 20
153.2665811176680961
 30
0.0
 40
0.0393700651462155
 50
90.0
 51
180.0027771071042082
  0
LINE
  5
2C8D2
  8
0
 10
2993.5223662514340504
 20
153.2665792094142887
 30
0.0
 11
2993.5223827317231553
 21
152.9265667442629137
 31
0.0
  0
ARC
  5
2C8D3
  8
0
 10
3000.8033308676949673
 20
152.9850715060410948
 30
0.0
 40
7.3032154591500369
 50
178.0513289159221131
 51
180.4466055852890918
  0
LINE
  5
2C8D4
  8
0
 10
2993.5223754103549254
 20
153.07761727845471
 30
0.0
 11
2993.5040412487751382
 21
153.07761727845471
 31
0.0
  0
ARC
  5
2C8D5
  8
0
 10
2994.8031421590289938
 20
153.1009940901406026
 30
0.0
 40
1.298098433653035
 50
180.4751789227184986
 51
181.0318670907226988
  0
LINE
  5
2C8D6
  8
0
 10
2993.5050883674339275
 20
153.0902285163143972
 30
0.0
 11
2993.5040413597339466
 21
153.077618614814412
 31
0.0
  0
LINE
  5
2C8D7
  8
0
 10
2993.5040413597339466
 20
153.077618614814412
 30
0.0
 11
2993.5024054560090008
 21
153.0433233770307027
 31
0.0
  0
LINE
  5
2C8D8
  8
0
 10
2993.5024054560090008
 20
153.0433233770307027
 30
0.0
 11
2993.5020335272929515
 21
152.928024277572689
 31
0.0
  0
ARC
  5
2C8D9
  8
0
 10
2993.4307788156961578
 20
153.2309198213334867
 30
0.0
 40
0.0736022887183583
 50
1.939853743808039
 51
90.016718024493926
  0
LINE
  5
2C8DA
  8
0
 10
2993.4307573396831685
 20
153.304522106918597
 30
0.0
 11
2993.0890799560088453
 21
153.3044224107266871
 31
0.0
  0
ARC
  5
2C8DB
  8
0
 10
2993.0892087680408622
 20
153.2293147475816966
 30
0.0
 40
0.0751077736032875
 50
90.0982639889677444
 51
179.9144131038281103
  0
LINE
  5
2C8DC
  8
0
 10
2993.0141010782340345
 20
153.2294269415143049
 30
0.0
 11
2993.0141010782340345
 21
152.9607083266384961
 31
0.0
  0
ARC
  5
2C8DD
  8
0
 10
2996.7195384824121902
 20
153.2191216457175074
 30
0.0
 40
3.7214874636432911
 50
175.3760290953028971
 51
180.2665165446136086
  0
ARC
  5
2C8DE
  8
0
 10
3036.4532738113321102
 20
152.9327302265589879
 30
0.0
 40
43.4560156158998367
 50
179.6452209548982069
 51
179.9617270603409054
  0
ARC
  5
2C8DF
  8
0
 10
2983.8032505369737919
 20
153.1222570732882104
 30
0.0
 40
9.2009053180078642
 50
0.5434369390795037
 51
1.3892669444795001
  0
ARC
  5
2C8E0
  8
0
 10
2984.0297702902407764
 20
153.430356335982907
 30
0.0
 40
8.97208382577689
 50
358.5895212002604922
 51
359.4570270051506213
  0
LINE
  5
2C8E1
  8
0
 10
2992.999135616534204
 20
153.2095083786144016
 30
0.0
 11
2993.0141010782340345
 21
153.2095083786144016
 31
0.0
  0
ARC
  5
2C8E2
  8
0
 10
3047.783475086378985
 20
152.833210224787905
 30
0.0
 40
54.7856317974688878
 50
179.6064576628172063
 51
179.8656170733302986
  0
LINE
  5
2C8E3
  8
0
 10
2993.0101640703342127
 20
153.2095083786144016
 30
0.0
 11
2993.0101640703342127
 21
153.5189919793157003
 31
0.0
  0
ARC
  5
2C8E4
  8
0
 10
2992.9903517430720967
 20
153.5189919793157003
 30
0.0
 40
0.019812327261403
 50
0.0
 51
89.5735120699242486
  0
LINE
  5
2C8E5
  8
0
 10
2992.990499217118213
 20
153.5388037577043008
 30
0.0
 11
2992.7259110146428611
 21
153.5388037577143905
 31
0.0
  0
LINE
  5
2C8E6
  8
0
 10
2992.6619262415251796
 20
153.518468338865091
 30
0.0
 11
2992.5815349302338291
 21
153.5184492312143902
 31
0.0
  0
ARC
  5
2C8E7
  8
0
 10
2992.648641772551855
 20
154.122285803474
 30
0.0
 40
0.6075540587340005
 50
260.6861688752846931
 51
263.6585063748743778
  0
LINE
  5
2C8E8
  8
0
 10
2992.5503139830339023
 20
153.5227413263143887
 30
0.0
 11
2992.4096638456721848
 21
153.5224221655628014
 31
0.0
  0
ARC
  5
2C8E9
  8
0
 10
2992.4115891923388517
 20
153.5584075303210057
 30
0.0
 40
0.0587830781621284
 50
271.4853712421190153
 51
322.2193555394006808
  0
LINE
  5
2C8EA
  8
0
 10
2992.4131129505349236
 20
153.4996442046902985
 30
0.0
 11
2991.5028484896338341
 21
153.499557450514402
 31
0.0
  0
ARC
  5
2C8EB
  8
0
 10
2991.5026502587088544
 20
153.5586633664754004
 30
0.0
 40
0.0591062483760425
 50
217.8516298011716117
 51
270.1921593230675853
  0
LINE
  5
2C8EC
  8
0
 10
2991.4559798234340633
 20
153.5223946600144131
 30
0.0
 11
2991.363654024833977
 21
153.5227285805144106
 31
0.0
  0
ARC
  5
2C8ED
  8
0
 10
2991.1121461324578377
 20
155.1469878276487009
 30
0.0
 40
1.6436162331362041
 50
277.7863519919154101
 51
278.8020420095976988
  0
LINE
  5
2C8EE
  8
0
 10
2991.3348225526360693
 20
153.518525505786414
 30
0.0
 11
2991.2463102740339309
 21
153.5184661527144101
 31
0.0
  0
ARC
  5
2C8EF
  8
0
 10
2991.2437131325500559
 20
153.5094116486021107
 30
0.0
 40
0.009419617221824
 50
73.9952978100005652
 51
88.8149840550223644
  0
LINE
  5
2C8F0
  8
0
 10
2991.2439079392338499
 20
153.518829251214413
 30
0.0
 11
2991.2149840619740644
 21
153.5188550217719126
 31
0.0
  0
ARC
  5
2C8F1
  8
0
 10
2991.2149788649539914
 20
153.5468288303997895
 30
0.0
 40
0.0279738091106926
 50
208.4890459530944042
 51
270.0106445024118216
  0
ARC
  5
2C8F2
  8
0
 10
2991.2241025052030636
 20
153.5489539279290909
 30
0.0
 40
0.0370895866600951
 50
179.4769461312604903
 51
204.6487076394589053
  0
LINE
  5
2C8F3
  8
0
 10
2992.4096638456721848
 20
153.5224221655628014
 30
0.0
 11
2992.4097697596339458
 21
153.5184138901144024
 31
0.0
  0
LINE
  5
2C8F4
  8
0
 10
2992.4097697596339458
 20
153.5184138901144024
 30
0.0
 11
2991.504259168434146
 21
153.5184139703144126
 31
0.0
  0
LINE
  5
2C8F5
  8
0
 10
2991.504259168434146
 20
153.5184139703144126
 30
0.0
 11
2991.5043687701418094
 21
153.5225629940007934
 31
0.0
  0
LINE
  5
2C8F6
  8
0
 10
2991.5043687701418094
 20
153.5225629940007934
 30
0.0
 11
2991.4559798234340633
 21
153.5223946600144131
 31
0.0
  0
ARC
  5
2C8F7
  8
0
 10
2992.1533606323769163
 20
153.458575136685397
 30
0.0
 40
0.0783180927021076
 50
130.1776295950928102
 51
148.3996755933555107
  0
ARC
  5
2C8F8
  8
0
 10
2991.7460815558029026
 20
153.4466073722618091
 30
0.0
 40
0.0970464776865412
 50
33.0885394244046012
 51
47.7245495353133009
  0
LINE
  5
2C8F9
  8
0
 10
2992.7129785611100488
 20
153.522561259702087
 30
0.0
 11
2992.7073997149341267
 21
153.4833178545144108
 31
0.0
  0
LINE
  5
2C8FA
  8
0
 10
2992.7073997149341267
 20
153.4833178545144108
 30
0.0
 11
2991.1939580918160573
 21
153.4833178545144108
 31
0.0
  0
LINE
  5
2C8FB
  8
0
 10
2991.1939580918160573
 20
153.4833178545144108
 30
0.0
 11
2991.1903537900320771
 21
153.5335701162117061
 31
0.0
  0
ENDSEC
  0
EOF
