  0
SECTION
  2
HEADER
  9
$ACADVER
  1
AC1009
  9
$INSBASE
 10
3593.057279547644157
 20
209.8856735110103102
 30
0.0
  9
$EXTMIN
 10
3585.0153682146387837
 20
208.4558133063439982
 30
-0.0015258207003583
  9
$EXTMAX
 10
3600.9492540170540451
 20
213.923196150086909
 30
0.0000000349246037
  9
$LIMMIN
 10
0.0
 20
0.0
  9
$LIMMAX
 10
11.6929133858000007
 20
8.2677165353999982
  9
$ORTHOMODE
 70
     0
  9
$REGENMODE
 70
     1
  9
$FILLMODE
 70
     1
  9
$QTEXTMODE
 70
     0
  9
$MIRRTEXT
 70
     0
  9
$DRAGMODE
 70
     2
  9
$LTSCALE
 40
0.6431102362
  9
$OSMODE
 70
  4095
  9
$ATTMODE
 70
     1
  9
$TEXTSIZE
 40
0.2
  9
$TRACEWID
 40
0.05
  9
$TEXTSTYLE
  7
STANDARD
  9
$CLAYER
  8
0
  9
$CELTYPE
  6
BYLAYER
  9
$CECOLOR
 62
   256
  9
$DIMSCALE
 40
1.0
  9
$DIMASZ
 40
0.1875
  9
$DIMEXO
 40
0.0625
  9
$DIMDLI
 40
0.4443307087
  9
$DIMRND
 40
0.0
  9
$DIMDLE
 40
0.0
  9
$DIMEXE
 40
0.125
  9
$DIMTP
 40
0.01
  9
$DIMTM
 40
0.01
  9
$DIMTXT
 40
2.0
  9
$DIMCEN
 40
0.1052362205
  9
$DIMTSZ
 40
0.0
  9
$DIMTOL
 70
     1
  9
$DIMLIM
 70
     0
  9
$DIMTIH
 70
     1
  9
$DIMTOH
 70
     1
  9
$DIMSE1
 70
     0
  9
$DIMSE2
 70
     0
  9
$DIMTAD
 70
     0
  9
$DIMZIN
 70
     0
  9
$DIMBLK
  1

  9
$DIMASO
 70
     1
  9
$DIMSHO
 70
     1
  9
$DIMPOST
  1
\X
  9
$DIMAPOST
  1

  9
$DIMALT
 70
     1
  9
$DIMALTD
 70
     2
  9
$DIMALTF
 40
25.3999999999999986
  9
$DIMLFAC
 40
1.0
  9
$DIMTOFL
 70
     0
  9
$DIMTVP
 40
0.0
  9
$DIMTIX
 70
     0
  9
$DIMSOXD
 70
     0
  9
$DIMSAH
 70
     0
  9
$DIMBLK1
  1

  9
$DIMBLK2
  1

  9
$DIMSTYLE
  2
STANDARD
  9
$DIMCLRD
 70
     0
  9
$DIMCLRE
 70
     0
  9
$DIMCLRT
 70
     0
  9
$DIMTFAC
 40
1.0
  9
$DIMGAP
 40
0.09
  9
$LUNITS
 70
     2
  9
$LUPREC
 70
     4
  9
$SKETCHINC
 40
0.1
  9
$FILLETRAD
 40
0.0
  9
$AUNITS
 70
     0
  9
$AUPREC
 70
     0
  9
$MENU
  1
.
  9
$ELEVATION
 40
0.0
  9
$PELEVATION
 40
0.0
  9
$THICKNESS
 40
0.0
  9
$LIMCHECK
 70
     0
  9
$BLIPMODE
 70
     0
  9
$CHAMFERA
 40
0.0
  9
$CHAMFERB
 40
0.0
  9
$SKPOLY
 70
     0
  9
$TDCREATE
 40
2458060.468368056230247
  9
$TDUPDATE
 40
2459010.3591666668653488
  9
$TDINDWG
 40
0.5380278935
  9
$TDUSRTIMER
 40
0.5380278935
  9
$USRTIMER
 70
     1
  9
$ANGBASE
 50
0.0
  9
$ANGDIR
 70
     0
  9
$PDMODE
 70
     0
  9
$PDSIZE
 40
0.3125
  9
$PLINEWID
 40
0.0
  9
$COORDS
 70
     1
  9
$SPLFRAME
 70
     0
  9
$SPLINETYPE
 70
     6
  9
$SPLINESEGS
 70
     8
  9
$ATTDIA
 70
     1
  9
$ATTREQ
 70
     1
  9
$HANDLING
 70
     1
  9
$HANDSEED
  5
A055
  9
$SURFTAB1
 70
     6
  9
$SURFTAB2
 70
     6
  9
$SURFTYPE
 70
     6
  9
$SURFU
 70
     6
  9
$SURFV
 70
     6
  9
$UCSNAME
  2

  9
$UCSORG
 10
0.0
 20
0.0
 30
0.0
  9
$UCSXDIR
 10
1.0
 20
0.0
 30
0.0
  9
$UCSYDIR
 10
0.0
 20
1.0
 30
0.0
  9
$PUCSNAME
  2

  9
$PUCSORG
 10
0.0
 20
0.0
 30
0.0
  9
$PUCSXDIR
 10
1.0
 20
0.0
 30
0.0
  9
$PUCSYDIR
 10
0.0
 20
1.0
 30
0.0
  9
$USERI1
 70
     0
  9
$USERI2
 70
     0
  9
$USERI3
 70
     0
  9
$USERI4
 70
     0
  9
$USERI5
 70
     0
  9
$USERR1
 40
0.0
  9
$USERR2
 40
0.0
  9
$USERR3
 40
0.0
  9
$USERR4
 40
0.0
  9
$USERR5
 40
0.0
  9
$WORLDVIEW
 70
     1
  9
$SHADEDGE
 70
     3
  9
$SHADEDIF
 70
    70
  9
$TILEMODE
 70
     1
  9
$MAXACTVP
 70
    64
  9
$PLIMCHECK
 70
     0
  9
$PEXTMIN
 10
1.0000000000000000E+20
 20
1.0000000000000000E+20
 30
1.0000000000000000E+20
  9
$PEXTMAX
 10
-1.0000000000000000E+20
 20
-1.0000000000000000E+20
 30
-1.0000000000000000E+20
  9
$PLIMMIN
 10
0.0
 20
0.0
  9
$PLIMMAX
 10
12.0
 20
9.0
  9
$UNITMODE
 70
     0
  9
$VISRETAIN
 70
     1
  9
$PLINEGEN
 70
     0
  9
$PSLTSCALE
 70
     1
  0
ENDSEC
  0
SECTION
  2
TABLES
  0
TABLE
  2
VPORT
 70
     1
  0
VPORT
  2
*ACTIVE
 70
     0
 10
0.0
 20
0.0
 11
1.0
 21
1.0
 12
289.0302005795153946
 22
16.2884073145315504
 13
0.0
 23
0.0
 14
1.0
 24
1.0
 15
0.0
 25
0.0
 16
0.0
 26
0.0
 36
96.5995694866707311
 17
3303.693115234375
 27
195.2615115758877096
 37
0.0
 40
9.6557469120159105
 41
2.6486111111111108
 42
50.0
 43
0.0
 44
0.0
 50
0.0
 51
0.0
 71
     0
 72
   100
 73
     1
 74
     1
 75
     0
 76
     0
 77
     0
 78
     0
  0
ENDTAB
  0
TABLE
  2
LTYPE
 70
     2
  0
LTYPE
  2
CONTINUOUS
 70
     0
  3
Solid line
 72
    65
 73
     0
 40
0.0
  0
LTYPE
  2
PHANTOM2
 70
     0
  3
___ _ _ ___ _ _ ___ _ _ ___ _ _
 72
    65
 73
     6
 40
1.25
 49
0.625
 49
-0.125
 49
0.125
 49
-0.125
 49
0.125
 49
-0.125
  0
ENDTAB
  0
TABLE
  2
LAYER
 70
     2
  0
LAYER
  2
0
 70
     0
 62
   255
  6
CONTINUOUS
  0
LAYER
  2
DEFPOINTS
 70
     0
 62
     7
  6
CONTINUOUS
  0
ENDTAB
  0
TABLE
  2
STYLE
 70
     1
  0
STYLE
  2
STANDARD
 70
     0
 40
0.0
 41
0.8
 50
0.0
 71
     0
 42
0.2
  3
txt
  4

  0
ENDTAB
  0
TABLE
  2
VIEW
 70
     0
  0
ENDTAB
  0
TABLE
  2
UCS
 70
     0
  0
ENDTAB
  0
TABLE
  2
APPID
 70
     9
  0
APPID
  2
ACAD
 70
     0
  0
APPID
  2
ACAD_MLEADERVER
 70
     0
  0
APPID
  2
ACAD_EXEMPT_FROM_CAD_STANDARDS
 70
     0
  0
APPID
  2
ACAD_NAV_VCDISPLAY
 70
     0
  0
APPID
  2
ACAECLAYERSTANDARD
 70
     0
  0
APPID
  2
ACCMTRANSPARENCY
 70
     0
  0
APPID
  2
ACAD_DSTYLE_DIMJAG
 70
     0
  0
APPID
  2
ACAD_DSTYLE_DIMTALN
 70
     0
  0
APPID
  2
ACDBATTR
 70
     0
  0
ENDTAB
  0
TABLE
  2
DIMSTYLE
 70
     1
  0
DIMSTYLE
  2
STANDARD
 70
     0
  3

  4

  5

  6

  7

 40
1.0
 41
0.1875
 42
0.0625
 43
0.38
 44
0.125
 45
0.0
 46
0.0
 47
0.01
 48
0.01
140
0.15625
141
0.09
142
0.0
143
25.3999999999999986
144
1.0
145
0.0
146
1.0
147
0.09
 71
     1
 72
     0
 73
     1
 74
     1
 75
     0
 76
     0
 77
     0
 78
     4
170
     0
171
     2
172
     0
173
     0
174
     0
175
     0
176
     0
177
     0
178
     0
  0
ENDTAB
  0
ENDSEC
  0
SECTION
  2
BLOCKS
  0
BLOCK
  8
0
  2
$MODEL_SPACE
 70
     0
 10
0.0
 20
0.0
 30
0.0
  3
$MODEL_SPACE
  1

  0
ENDBLK
  5
21
  8
0
  0
BLOCK
 67
     1
  8
0
  2
$PAPER_SPACE
 70
     0
 10
0.0
 20
0.0
 30
0.0
  3
$PAPER_SPACE
  1

  0
ENDBLK
  5
1D
 67
     1
  8
0
  0
BLOCK
  8
0
  2
_FILLED
 70
     0
 10
0.0
 20
0.0
 30
0.0
  3
_FILLED
  1

  0
SOLID
  5
9C03
  8
0
  6
BYBLOCK
 62
     0
 10
0.0
 20
0.0
 30
0.0
 11
-1.0
 21
0.1666666667
 31
0.0
 12
-1.0
 22
-0.1666666667
 32
0.0
 13
-1.0
 23
-0.1666666667
 33
0.0
  0
ENDBLK
  5
9C04
  8
0
  6
BYBLOCK
 62
     0
  0
ENDSEC
  0
SECTION
  2
ENTITIES
  0
ATTDEF
  5
8F57
  8
DEFPOINTS
 10
3593.0588248342160114
 20
209.8839562605938909
 30
0.0
 40
0.001
  1
K-1766T
  3

  2
MODELNUMBER
 70
     0
1001
ACDBATTR
1070
     0
1070
     1
  0
ATTDEF
  5
8F58
  8
DEFPOINTS
 10
3593.0588248342160114
 20
209.8822895939271973
 30
0.0
 40
0.001
  1
SYLVA
  3

  2
TRADENAME
 70
     0
1001
ACDBATTR
1070
     0
1070
     1
  0
ATTDEF
  5
8F59
  8
DEFPOINTS
 10
3593.0588248342160114
 20
209.8806229272605037
 30
0.0
 40
0.001
  1
BATHROOM SINK 
  3

  2
PRODUCT
 70
     0
1001
ACDBATTR
1070
     0
1070
     1
  0
LINE
  5
9ED1
  8
0
 10
3585.1446065377449486
 20
213.9134264967995023
 30
0.0
 11
3600.7119454102448799
 21
213.9134264967995023
 31
0.0
  0
ARC
  5
9ED2
  8
0
 10
3600.7119454102221425
 20
213.785473740876597
 30
0.0
 40
0.1279527559228972
 50
0.0000000102526834
 51
89.9999999897342917
  0
LINE
  5
9ED3
  8
0
 10
3600.8398981661448488
 20
213.7854737408995902
 30
0.0
 11
3600.5981714720201126
 21
211.0169384600825992
 31
0.0
  0
ARC
  5
9ED4
  8
0
 10
3599.3627331645980121
 20
211.1250253070010103
 30
0.0
 40
1.240157481098237
 50
272.0000000889838816
 51
354.999999975453477
  0
ARC
  5
9ED5
  8
0
 10
3585.1446065403129069
 20
213.785473734697689
 30
0.0
 40
0.1279527621018734
 50
90.0000011503328636
 51
179.9999972228679042
  0
LINE
  5
9ED6
  8
0
 10
3585.0171406807130552
 20
213.7743219233994978
 30
0.0
 11
3585.3101848817009341
 21
210.4248113860315073
 31
0.0
  0
ARC
  5
9ED7
  8
0
 10
3585.8984888374261573
 20
210.4762813129715937
 30
0.0
 40
0.590551181272074
 50
185.0000000103077014
 51
269.9999999241795763
  0
LINE
  5
9ED8
  8
0
 10
3585.8984888366439918
 20
209.8857301316994892
 30
0.0
 11
3599.4060140384449369
 21
209.8856232963995012
 31
0.0
  0
LINE
  5
9ED9
  8
0
 10
3594.2154987196449838
 20
208.4569112340994934
 30
0.0
 11
3591.899059170144028
 21
208.4569112340994934
 31
0.0
  0
ARC
  5
9EDA
  8
0
 10
3591.899059170144028
 20
208.6537616277788914
 30
0.0
 40
0.1968503936794192
 50
185.0000000023742075
 51
270.0
  0
LINE
  5
9EDB
  8
0
 10
3591.7029578516448964
 20
208.6366049854995026
 30
0.0
 11
3591.6390114103000997
 21
209.3675161542956005
 31
0.0
  0
ARC
  5
9EDC
  8
0
 10
3591.2468087731840569
 20
209.3332028697267049
 30
0.0
 40
0.393700787474919
 50
5.0000000023726408
 51
87.9999999175599186
  0
LINE
  5
9EDD
  8
0
 10
3591.2605487330852156
 20
209.7266638252995961
 30
0.0
 11
3586.7642395776679223
 21
209.8857232842024132
 31
0.0
  0
ARC
  5
9EDE
  8
0
 10
3586.1507139538070987
 20
209.4915841101629894
 30
0.0
 40
0.3941620870730861
 50
51.9521192403427605
 51
89.4510596558102549
  0
ARC
  5
9EDF
  8
0
 10
3586.1476169788638799
 20
209.4876269836840095
 30
0.0
 40
0.3991870352090181
 50
29.1004374751147488
 51
51.9521192403427605
  0
ARC
  5
9EE0
  8
0
 10
3587.592127671281105
 20
210.2414920441435129
 30
0.0
 40
1.230397859108775
 50
207.059317672606511
 51
265.7545657310552087
  0
LINE
  5
9EE1
  8
0
 10
3587.5010425210448375
 20
209.0144702891994939
 30
0.0
 11
3591.6881892056439938
 21
208.8054113819995052
 31
0.0
  0
ARC
  5
9EE2
  8
0
 10
3594.2154999252370544
 20
208.6537616278029077
 30
0.0
 40
0.1968503937070261
 50
269.999649096946996
 51
354.999999991342122
  0
LINE
  5
9EE3
  8
0
 10
3594.4116012437630161
 20
208.6366049854995026
 30
0.0
 11
3594.4755476851919411
 21
209.3675161543305023
 31
0.0
  0
ARC
  5
9EE4
  8
0
 10
3594.8677503223211716
 20
209.3332028697170131
 30
0.0
 40
0.3937007874921001
 50
92.000000113803523
 51
174.9999999913420936
  0
LINE
  5
9EE5
  8
0
 10
3594.8540103622049173
 20
209.7266638252995961
 30
0.0
 11
3599.4060137791580019
 21
209.8856232964016044
 31
0.0
  0
LINE
  5
9EE6
  8
0
 10
3599.4061637785898711
 20
209.8856285344974992
 30
0.0
 11
3599.4249383574428975
 21
209.8862841572752131
 31
0.0
  0
ARC
  5
9EE7
  8
0
 10
3597.6178824753451408
 20
209.6262093090994938
 30
0.0
 40
0.1968503923999996
 50
6.0001832021004118
 51
90.0
  0
LINE
  5
9EE8
  8
0
 10
3597.8136544349040378
 20
209.6467864040878055
 30
0.0
 11
3597.880115580760048
 21
209.0144702891994939
 31
0.0
  0
LINE
  5
9EE9
  8
0
 10
3598.4706653744451614
 20
209.0144702891994939
 30
0.0
 11
3598.5412319744450542
 21
209.6858670331994858
 31
0.0
  0
ARC
  5
9EEA
  8
0
 10
3598.7370039936231478
 20
209.6652905768912092
 30
0.0
 40
0.1968503849301982
 50
91.9999857053865355
 51
174.0000034891625091
  0
ARC
  5
9EEB
  8
0
 10
3593.1158839536378764
 20
199.9345950048810892
 30
0.0
 40
9.9275990305086026
 50
87.5712917900516317
 51
90.338229274225796
  0
ARC
  5
9EEC
  8
0
 10
3593.5020197392009322
 20
209.0384874398287991
 30
0.0
 40
0.8155214237281478
 50
82.9874334366690363
 51
87.5712917900516317
  0
ARC
  5
9EED
  8
0
 10
3593.5931239499841467
 20
209.7791287172651096
 30
0.0
 40
0.0692979457640393
 50
71.9643246210871439
 51
82.9874334366690363
  0
ARC
  5
9EEE
  8
0
 10
3593.6136844663687953
 20
209.842273671511208
 30
0.0
 40
0.0028899637080757
 50
30.4282610618059692
 51
71.9643246210623602
  0
ARC
  5
9EEF
  8
0
 10
3593.615818052287068
 20
209.8435268539782044
 30
0.0
 40
0.0004155637468228
 50
321.5577189448026729
 51
30.4282610618500584
  0
ARC
  5
9EF0
  8
0
 10
3593.6125916232058444
 20
209.8460879690431966
 30
0.0
 40
0.0045349271678686
 50
282.8211709415725181
 51
321.5577189448026729
  0
ARC
  5
9EF1
  8
0
 10
3593.555421613335966
 20
210.0972930299581947
 30
0.0
 40
0.2621633275003933
 50
272.0288543439834825
 51
282.8211709415725181
  0
ARC
  5
9EF2
  8
0
 10
3593.6121995346879885
 20
209.6502405883250901
 30
0.0
 40
0.1910515900648642
 50
104.3950491827490055
 51
155.9815974606015061
  0
ARC
  5
9EF3
  8
0
 10
3592.9436988750298951
 20
209.8298753560376042
 30
0.0
 40
0.5043858902446769
 50
341.1989587758196194
 51
348.3477922993715197
  0
LINE
  5
9EF4
  8
0
 10
3593.4211724508440966
 20
209.6673204093995082
 30
0.0
 11
3593.3525551382449521
 21
209.0144702891994939
 31
0.0
  0
LINE
  5
9EF5
  8
0
 10
3593.3525551382449521
 20
209.0144702891994939
 30
0.0
 11
3592.762003957143861
 21
209.0144702891994939
 31
0.0
  0
LINE
  5
9EF6
  8
0
 10
3592.762003957143861
 20
209.0144702891994939
 30
0.0
 11
3592.6933866448448498
 21
209.6673204093995082
 31
0.0
  0
ARC
  5
9EF7
  8
0
 10
3592.9986751420519795
 20
199.9345950048810892
 30
0.0
 40
9.9275990305086026
 50
89.6617707257741898
 51
92.4287082099483825
  0
ARC
  5
9EF8
  8
0
 10
3592.6125393564880142
 20
209.0384874398287991
 30
0.0
 40
0.8155214237281478
 50
92.4287082099483825
 51
97.0125665633309637
  0
ARC
  5
9EF9
  8
0
 10
3592.5214351457047997
 20
209.7791287172651096
 30
0.0
 40
0.0692979457640393
 50
97.0125665633309637
 51
108.0356753789127993
  0
ARC
  5
9EFA
  8
0
 10
3592.5008746293210606
 20
209.842273671511208
 30
0.0
 40
0.0028899637080757
 50
108.0356753789375972
 51
149.5717389381939881
  0
ARC
  5
9EFB
  8
0
 10
3592.4987410434018784
 20
209.8435268539782044
 30
0.0
 40
0.0004155637468228
 50
149.5717389381499061
 51
218.4422810551972987
  0
ARC
  5
9EFC
  8
0
 10
3592.501967472483102
 20
209.8460879690431966
 30
0.0
 40
0.0045349271678686
 50
218.4422810551972987
 51
257.1788290584274819
  0
ARC
  5
9EFD
  8
0
 10
3592.5591374823538899
 20
210.0972930299581947
 30
0.0
 40
0.2621633275003933
 50
257.1788290584274819
 51
267.9711456560164038
  0
ARC
  5
9EFE
  8
0
 10
3592.5023595610018674
 20
209.6502405883250901
 30
0.0
 40
0.1910515900648642
 50
24.0184025393984584
 51
75.6049508172509519
  0
ARC
  5
9EFF
  8
0
 10
3592.5076131898717904
 20
209.6493441329722884
 30
0.0
 40
0.1866411612873924
 50
5.5269901932324741
 51
24.9262587315760307
  0
ARC
  5
9F00
  8
0
 10
3587.374073433266858
 20
209.6635531285812988
 30
0.0
 40
0.2004991739179976
 50
6.3897832453694861
 51
87.0227304716633654
  0
LINE
  5
9F01
  8
0
 10
3587.5733270622181408
 20
209.6858670276496071
 30
0.0
 11
3587.6439025884019429
 21
209.0144702891994939
 31
0.0
  0
LINE
  5
9F02
  8
0
 10
3588.2344449020438333
 20
209.0144702891994939
 30
0.0
 11
3588.3009046603970091
 21
209.6467864042990925
 31
0.0
  0
ARC
  5
9F03
  8
0
 10
3588.4992572947589906
 20
209.624894642312313
 30
0.0
 40
0.1995570514945807
 50
90.7269943022182588
 51
173.7018757277228076
  0
ARC
  5
9F04
  8
0
 10
3585.4026140700361793
 20
213.7854735916974107
 30
0.0
 40
0.1279531408908329
 50
89.8900048072690652
 51
179.9999903413061872
  0
LINE
  5
9F05
  8
0
 10
3585.2746609291439199
 20
213.785473613267186
 30
0.0
 11
3585.5163841764601784
 21
211.0169381584952077
 31
0.0
  0
ARC
  5
9F06
  8
0
 10
3586.7494932398331002
 20
211.1233252920725931
 30
0.0
 40
1.2376898579062581
 50
184.9310131195038878
 51
270.6826612551880089
  0
ARC
  5
9F07
  8
0
 10
3585.1446084426579546
 20
213.7854738657541986
 30
0.0
 40
0.1279546644461794
 50
180.0000559076644038
 51
184.9999813626376977
  0
LINE
  5
9F08
  8
0
 10
3588.2344449020438333
 20
209.0144702891994939
 30
0.0
 11
3587.6439025884019429
 21
209.0144702891994939
 31
0.0
  0
LINE
  5
9F09
  8
0
 10
3598.4706653744451614
 20
209.0144702891994939
 30
0.0
 11
3597.880115580760048
 21
209.0144702891994939
 31
0.0
  0
ENDSEC
  0
EOF
