  0
SECTION
  2
HEADER
  9
$ACADVER
  1
AC1009
  9
$INSBASE
 10
4343.8029235306894407
 20
118.3378932902106015
 30
0.0
  9
$EXTMIN
 10
4310.2997235432403613
 20
118.3321651284632026
 30
0.0
  9
$EXTMAX
 10
4377.3061235185386977
 20
151.1113187122687123
 30
0.0
  9
$LIMMIN
 10
0.0
 20
0.0
  9
$LIMMAX
 10
11.6929133858000007
 20
8.2677165353999982
  9
$ORTHOMODE
 70
     1
  9
$REGENMODE
 70
     1
  9
$FILLMODE
 70
     1
  9
$QTEXTMODE
 70
     0
  9
$MIRRTEXT
 70
     0
  9
$DRAGMODE
 70
     2
  9
$LTSCALE
 40
0.6431102362
  9
$OSMODE
 70
  4095
  9
$ATTMODE
 70
     1
  9
$TEXTSIZE
 40
0.2
  9
$TRACEWID
 40
0.05
  9
$TEXTSTYLE
  7
STANDARD
  9
$CLAYER
  8
0
  9
$CELTYPE
  6
BYLAYER
  9
$CECOLOR
 62
   256
  9
$DIMSCALE
 40
1.0
  9
$DIMASZ
 40
0.1875
  9
$DIMEXO
 40
0.0625
  9
$DIMDLI
 40
0.4443307087
  9
$DIMRND
 40
0.0
  9
$DIMDLE
 40
0.0
  9
$DIMEXE
 40
0.125
  9
$DIMTP
 40
0.01
  9
$DIMTM
 40
0.01
  9
$DIMTXT
 40
2.0
  9
$DIMCEN
 40
0.1052362205
  9
$DIMTSZ
 40
0.0
  9
$DIMTOL
 70
     1
  9
$DIMLIM
 70
     0
  9
$DIMTIH
 70
     1
  9
$DIMTOH
 70
     1
  9
$DIMSE1
 70
     0
  9
$DIMSE2
 70
     0
  9
$DIMTAD
 70
     0
  9
$DIMZIN
 70
     0
  9
$DIMBLK
  1

  9
$DIMASO
 70
     1
  9
$DIMSHO
 70
     1
  9
$DIMPOST
  1
\X
  9
$DIMAPOST
  1

  9
$DIMALT
 70
     1
  9
$DIMALTD
 70
     2
  9
$DIMALTF
 40
25.3999999999999986
  9
$DIMLFAC
 40
1.0
  9
$DIMTOFL
 70
     0
  9
$DIMTVP
 40
0.0
  9
$DIMTIX
 70
     0
  9
$DIMSOXD
 70
     0
  9
$DIMSAH
 70
     0
  9
$DIMBLK1
  1

  9
$DIMBLK2
  1

  9
$DIMSTYLE
  2
STANDARD
  9
$DIMCLRD
 70
     0
  9
$DIMCLRE
 70
     0
  9
$DIMCLRT
 70
     0
  9
$DIMTFAC
 40
1.0
  9
$DIMGAP
 40
0.09
  9
$LUNITS
 70
     2
  9
$LUPREC
 70
     4
  9
$SKETCHINC
 40
0.1
  9
$FILLETRAD
 40
0.0
  9
$AUNITS
 70
     0
  9
$AUPREC
 70
     0
  9
$MENU
  1
.
  9
$ELEVATION
 40
0.0
  9
$PELEVATION
 40
0.0
  9
$THICKNESS
 40
0.0
  9
$LIMCHECK
 70
     0
  9
$BLIPMODE
 70
     0
  9
$CHAMFERA
 40
0.0
  9
$CHAMFERB
 40
0.0
  9
$SKPOLY
 70
     0
  9
$TDCREATE
 40
2458060.468368056230247
  9
$TDUPDATE
 40
2459783.4186342591419816
  9
$TDINDWG
 40
0.3052038194
  9
$TDUSRTIMER
 40
0.3052038194
  9
$USRTIMER
 70
     1
  9
$ANGBASE
 50
0.0
  9
$ANGDIR
 70
     0
  9
$PDMODE
 70
     0
  9
$PDSIZE
 40
0.3125
  9
$PLINEWID
 40
0.0
  9
$COORDS
 70
     1
  9
$SPLFRAME
 70
     0
  9
$SPLINETYPE
 70
     6
  9
$SPLINESEGS
 70
     8
  9
$ATTDIA
 70
     1
  9
$ATTREQ
 70
     1
  9
$HANDLING
 70
     1
  9
$HANDSEED
  5
8AE8
  9
$SURFTAB1
 70
     6
  9
$SURFTAB2
 70
     6
  9
$SURFTYPE
 70
     6
  9
$SURFU
 70
     6
  9
$SURFV
 70
     6
  9
$UCSNAME
  2

  9
$UCSORG
 10
0.0
 20
0.0
 30
0.0
  9
$UCSXDIR
 10
1.0
 20
0.0
 30
0.0
  9
$UCSYDIR
 10
0.0
 20
1.0
 30
0.0
  9
$PUCSNAME
  2

  9
$PUCSORG
 10
0.0
 20
0.0
 30
0.0
  9
$PUCSXDIR
 10
1.0
 20
0.0
 30
0.0
  9
$PUCSYDIR
 10
0.0
 20
1.0
 30
0.0
  9
$USERI1
 70
     0
  9
$USERI2
 70
     0
  9
$USERI3
 70
     0
  9
$USERI4
 70
     0
  9
$USERI5
 70
     0
  9
$USERR1
 40
0.0
  9
$USERR2
 40
0.0
  9
$USERR3
 40
0.0
  9
$USERR4
 40
0.0
  9
$USERR5
 40
0.0
  9
$WORLDVIEW
 70
     1
  9
$SHADEDGE
 70
     3
  9
$SHADEDIF
 70
    70
  9
$TILEMODE
 70
     1
  9
$MAXACTVP
 70
    64
  9
$PLIMCHECK
 70
     0
  9
$PEXTMIN
 10
1.0000000000000000E+20
 20
1.0000000000000000E+20
 30
1.0000000000000000E+20
  9
$PEXTMAX
 10
-1.0000000000000000E+20
 20
-1.0000000000000000E+20
 30
-1.0000000000000000E+20
  9
$PLIMMIN
 10
0.0
 20
0.0
  9
$PLIMMAX
 10
12.0
 20
9.0
  9
$UNITMODE
 70
     0
  9
$VISRETAIN
 70
     1
  9
$PLINEGEN
 70
     0
  9
$PSLTSCALE
 70
     1
  0
ENDSEC
  0
SECTION
  2
TABLES
  0
TABLE
  2
VPORT
 70
     1
  0
VPORT
  2
*ACTIVE
 70
     0
 10
0.0
 20
0.0
 11
1.0
 21
1.0
 12
0.0
 22
0.0
 13
0.0
 23
0.0
 14
1.0
 24
1.0
 15
0.0
 25
0.0
 16
0.0
 26
0.0
 36
213.7018027034878003
 17
4343.802978515625
 27
134.7217389973370985
 37
0.0
 40
74.5943908926356869
 41
2.1481900452488678
 42
50.0
 43
0.0
 44
0.0
 50
0.0
 51
0.0
 71
     0
 72
   100
 73
     1
 74
     1
 75
     0
 76
     0
 77
     0
 78
     0
  0
ENDTAB
  0
TABLE
  2
LTYPE
 70
     2
  0
LTYPE
  2
CONTINUOUS
 70
     0
  3
Solid line
 72
    65
 73
     0
 40
0.0
  0
LTYPE
  2
PHANTOM2
 70
     0
  3
___ _ _ ___ _ _ ___ _ _ ___ _ _
 72
    65
 73
     6
 40
1.25
 49
0.625
 49
-0.125
 49
0.125
 49
-0.125
 49
0.125
 49
-0.125
  0
ENDTAB
  0
TABLE
  2
LAYER
 70
     2
  0
LAYER
  2
0
 70
     0
 62
   255
  6
CONTINUOUS
  0
LAYER
  2
DEFPOINTS
 70
     0
 62
     7
  6
CONTINUOUS
  0
ENDTAB
  0
TABLE
  2
STYLE
 70
     1
  0
STYLE
  2
STANDARD
 70
     0
 40
0.0
 41
0.8
 50
0.0
 71
     0
 42
0.2
  3
txt
  4

  0
ENDTAB
  0
TABLE
  2
VIEW
 70
     0
  0
ENDTAB
  0
TABLE
  2
UCS
 70
     0
  0
ENDTAB
  0
TABLE
  2
APPID
 70
     9
  0
APPID
  2
ACAD
 70
     0
  0
APPID
  2
ACAD_MLEADERVER
 70
     0
  0
APPID
  2
ACAD_EXEMPT_FROM_CAD_STANDARDS
 70
     0
  0
APPID
  2
ACAD_NAV_VCDISPLAY
 70
     0
  0
APPID
  2
ACAECLAYERSTANDARD
 70
     0
  0
APPID
  2
ACCMTRANSPARENCY
 70
     0
  0
APPID
  2
ACAD_DSTYLE_DIMJAG
 70
     0
  0
APPID
  2
ACAD_DSTYLE_DIMTALN
 70
     0
  0
APPID
  2
ACDBATTR
 70
     0
  0
ENDTAB
  0
TABLE
  2
DIMSTYLE
 70
     1
  0
DIMSTYLE
  2
STANDARD
 70
     0
  3

  4

  5

  6

  7

 40
1.0
 41
0.1875
 42
0.0625
 43
0.38
 44
0.125
 45
0.0
 46
0.0
 47
0.01
 48
0.01
140
0.15625
141
0.09
142
0.0
143
25.3999999999999986
144
1.0
145
0.0
146
1.0
147
0.09
 71
     1
 72
     0
 73
     1
 74
     1
 75
     0
 76
     0
 77
     0
 78
     4
170
     0
171
     2
172
     0
173
     0
174
     0
175
     0
176
     0
177
     0
178
     0
  0
ENDTAB
  0
ENDSEC
  0
SECTION
  2
BLOCKS
  0
BLOCK
  8
0
  2
$MODEL_SPACE
 70
     0
 10
0.0
 20
0.0
 30
0.0
  3
$MODEL_SPACE
  1

  0
ENDBLK
  5
21
  8
0
  0
BLOCK
 67
     1
  8
0
  2
$PAPER_SPACE
 70
     0
 10
0.0
 20
0.0
 30
0.0
  3
$PAPER_SPACE
  1

  0
ENDBLK
  5
1D
 67
     1
  8
0
  0
ENDSEC
  0
SECTION
  2
ENTITIES
  0
ATTDEF
  5
3930
  8
DEFPOINTS
 10
4343.7982888102496872
 20
118.3354984617966039
 30
0.0
 40
0.001
  1
K-1768T-GE58
  3

  2
MODELNUMBER
 70
     0
1001
ACDBATTR
1070
     0
1070
     1
  0
ATTDEF
  5
3931
  8
DEFPOINTS
 10
4343.7982888102496872
 20
118.3338317951298961
 30
0.0
 40
0.001
  1

  3

  2
TRADENAME
 70
     0
1001
ACDBATTR
1070
     0
1070
     1
  0
ATTDEF
  5
3932
  8
DEFPOINTS
 10
4343.7982888102496872
 20
118.3321651284632026
 30
0.0
 40
0.001
  1
BATH
  3

  2
PRODUCT
 70
     0
1001
ACDBATTR
1070
     0
1070
     1
  0
LINE
  5
849B
  8
0
 10
4311.4921819561386656
 20
142.708046306510596
 30
0.0
 11
4311.4921819561386656
 21
139.6910601834105989
 31
0.0
  0
LINE
  5
849C
  8
0
 10
4315.3418358140397686
 20
141.6489025885105946
 30
0.0
 11
4315.3632880123386713
 21
141.0344545610105911
 31
0.0
  0
LINE
  5
849D
  8
0
 10
4315.3665876126387957
 20
140.9399663720105877
 30
0.0
 11
4315.3759268838412027
 21
140.6725246358105892
 31
0.0
  0
LINE
  5
849E
  8
0
 10
4313.2617972566386015
 20
139.676475967410596
 30
0.0
 11
4313.2617972566386015
 21
141.2913917270105912
 31
0.0
  0
LINE
  5
849F
  8
0
 10
4314.3258072843400441
 20
141.6624836445105871
 30
0.0
 11
4314.3258085074057817
 21
143.1018620335973139
 31
0.0
  0
LINE
  5
84A0
  8
0
 10
4315.4143906933395556
 20
141.0153398831106131
 30
0.0
 11
4315.4143906933395556
 21
141.0189813287105949
 31
0.0
  0
LINE
  5
84A1
  8
0
 10
4315.4281702209400464
 20
140.4756742421106139
 30
0.0
 11
4315.4281702209400464
 21
140.6725246358105892
 31
0.0
  0
LINE
  5
84A2
  8
0
 10
4315.4399819004402161
 20
141.6567766043106076
 30
0.0
 11
4315.4399819035397741
 21
141.6624839292105946
 31
0.0
  0
LINE
  5
84A3
  8
0
 10
4315.4872246155400717
 20
141.672326225210611
 30
0.0
 11
4315.4872261532400444
 21
143.4820691494107052
 31
0.0
  0
LINE
  5
84A4
  8
0
 10
4316.1643913492389402
 20
141.6567766043106076
 30
0.0
 11
4316.1643913524403615
 21
141.6624835270106075
 31
0.0
  0
LINE
  5
84A5
  8
0
 10
4316.3533678270396194
 20
141.8366513482106086
 30
0.0
 11
4316.3533677303403238
 21
141.6624834220106095
 31
0.0
  0
LINE
  5
84A6
  8
0
 10
4317.2524841726399245
 20
141.5332269764107025
 30
0.0
 11
4317.2524838223398547
 21
141.6608411053105954
 31
0.0
  0
LINE
  5
84A7
  8
0
 10
4317.3573059999398538
 20
141.9334475434106082
 30
0.0
 11
4317.357306166840317
 21
141.8726248798105871
 31
0.0
  0
LINE
  5
84A8
  8
0
 10
4317.4163608892386037
 20
142.0168134282106109
 30
0.0
 11
4317.4163611180401858
 21
141.9334477055107016
 31
0.0
  0
LINE
  5
84A9
  8
0
 10
4317.4714809081397107
 20
141.3214440908105871
 30
0.0
 11
4317.4714815702391206
 21
141.0802114471105995
 31
0.0
  0
LINE
  5
84AA
  8
0
 10
4317.4950953841389492
 20
144.0798212334105983
 30
0.0
 11
4317.4950969421388436
 21
143.5121880792106026
 31
0.0
  0
LINE
  5
84AB
  8
0
 10
4317.5714440124402245
 20
141.5332278519105955
 30
0.0
 11
4317.5714436621401546
 21
141.6608419808106021
 31
0.0
  0
LINE
  5
84AC
  8
0
 10
4317.5738371861398264
 20
143.480692232310588
 30
0.0
 11
4317.5738377264387964
 21
143.2838418386106127
 31
0.0
  0
LINE
  5
84AD
  8
0
 10
4317.691947962638551
 20
143.2838421628106005
 30
0.0
 11
4317.6919481985396487
 21
143.1979180966106071
 31
0.0
  0
LINE
  5
84AE
  8
0
 10
4318.0896527650402277
 20
141.5332292743105995
 30
0.0
 11
4318.0896524147401578
 21
141.6608434032106061
 31
0.0
  0
LINE
  5
84AF
  8
0
 10
4319.2985882297398348
 20
142.0168202828106132
 30
0.0
 11
4319.3079338210400238
 21
141.9578142171106094
 31
0.0
  0
LINE
  5
84B0
  8
0
 10
4319.457174923139064
 20
141.9258988949106026
 30
0.0
 11
4319.4579787209386268
 21
141.9208238285106063
 31
0.0
  0
LINE
  5
84B1
  8
0
 10
4319.4542588645535943
 20
141.9445066208814978
 30
0.0
 11
4319.4553834284388358
 21
141.9372101173105989
 31
0.0
  0
LINE
  5
84B2
  8
0
 10
4319.4761754300398024
 20
141.9149111591106021
 30
0.0
 11
4319.47458622223985
 21
141.9249450773106105
 31
0.0
  0
LINE
  5
84B3
  8
0
 10
4319.473784973039983
 20
141.9300041606105935
 30
0.0
 11
4319.4714852536390026
 21
141.9445240971105875
 31
0.0
  0
LINE
  5
84B4
  8
0
 10
4319.4935722840400558
 20
141.9140486633106093
 30
0.0
 11
4319.4928856566084505
 21
141.9183839332708885
 31
0.0
  0
LINE
  5
84B5
  8
0
 10
4319.4910368351402212
 20
141.9300571121106032
 30
0.0
 11
4319.4899008417387449
 21
141.9372295905106114
 31
0.0
  0
LINE
  5
84B6
  8
0
 10
4319.5448021358397455
 20
141.9065178186106948
 30
0.0
 11
4319.5454085331402894
 21
141.9026890967105885
 31
0.0
  0
LINE
  5
84B7
  8
0
 10
4319.5630681223401552
 20
141.9001676879105958
 30
0.0
 11
4319.5618624254402675
 21
141.9077801999106043
 31
0.0
  0
LINE
  5
84B8
  8
0
 10
4319.574983709640037
 20
141.8939170618106118
 30
0.0
 11
4319.5751618511903871
 21
141.8927922434394873
 31
0.0
  0
LINE
  5
84B9
  8
0
 10
4319.5739956375391557
 20
141.9001557049107021
 30
0.0
 11
4319.5744422662392026
 21
141.8973357275106082
 31
0.0
  0
LINE
  5
84BA
  8
0
 10
4319.5721386616396558
 20
141.9118804206106006
 30
0.0
 11
4319.5728973761388261
 21
141.9070900000106121
 31
0.0
  0
LINE
  5
84BB
  8
0
 10
4319.5693559947394533
 20
141.9294497511106101
 30
0.0
 11
4319.5704505843386869
 21
141.9225386870107002
 31
0.0
  0
LINE
  5
84BC
  8
0
 10
4319.56555276923973
 20
141.9534626704106017
 30
0.0
 11
4319.5670220503398014
 21
141.9441858848107074
 31
0.0
  0
LINE
  5
84BD
  8
0
 10
4319.5801248927400593
 20
141.9014524067106038
 30
0.0
 11
4319.5795255699385962
 21
141.905236461610599
 31
0.0
  0
LINE
  5
84BE
  8
0
 10
4319.5924245374390011
 20
141.8927768071106925
 30
0.0
 11
4319.5921307603402965
 21
141.89463165291059
 31
0.0
  0
LINE
  5
84BF
  8
0
 10
4319.5918866946385606
 20
141.8961727980106104
 30
0.0
 11
4319.5909972404497239
 21
141.9017887398028961
 31
0.0
  0
LINE
  5
84C0
  8
0
 10
4319.5905022177403225
 20
141.9049142561106009
 30
0.0
 11
4319.5889915463876605
 21
141.9144529110351129
 31
0.0
  0
LINE
  5
84C1
  8
0
 10
4319.5882308126401767
 20
141.9192555891106053
 30
0.0
 11
4319.5860517823402915
 21
141.9330135207106025
 31
0.0
  0
LINE
  5
84C2
  8
0
 10
4319.5850005778402192
 20
141.9396507675106136
 30
0.0
 11
4319.5820767295281257
 21
141.9581114383857994
 31
0.0
  0
LINE
  5
84C3
  8
0
 10
4319.5929847023398906
 20
141.894605911310606
 30
0.0
 11
4319.593272428203818
 21
141.8927891581120946
 31
0.0
  0
LINE
  5
84C4
  8
0
 10
4319.5918588099402768
 20
141.9017147215105865
 30
0.0
 11
4319.5927261612387156
 21
141.8962383361105992
 31
0.0
  0
LINE
  5
84C5
  8
0
 10
4319.5898612817400135
 20
141.9143268548106107
 30
0.0
 11
4319.5913344701402821
 21
141.9050253429105908
 31
0.0
  0
LINE
  5
84C6
  8
0
 10
4319.5869307755401678
 20
141.9328296112105932
 30
0.0
 11
4319.589055580539025
 21
141.9194139315106042
 31
0.0
  0
LINE
  5
84C7
  8
0
 10
4319.5858173215410716
 20
141.9398597730105962
 30
0.0
 11
4319.5829662547403132
 21
141.9578608937106026
 31
0.0
  0
LINE
  5
84C8
  8
0
 10
4319.5917026899387565
 20
141.9663172354105996
 30
0.0
 11
4319.5931256981402839
 21
141.9573326145107046
 31
0.0
  0
LINE
  5
84C9
  8
0
 10
4319.5965304583396573
 20
141.9564589978106142
 30
0.0
 11
4319.5948891421394364
 21
141.9668219171105932
 31
0.0
  0
LINE
  5
84CA
  8
0
 10
4319.612850664432699
 20
141.970515514448806
 30
0.0
 11
4319.6249516630396101
 21
141.8941114033106032
 31
0.0
  0
LINE
  5
84CB
  8
0
 10
4310.8895377122398713
 20
118.3378932902106015
 30
0.0
 11
4376.7163093491399195
 21
118.3378932902106015
 31
0.0
  0
LINE
  5
84CC
  8
0
 10
4310.5347862570388315
 20
119.3221452587106057
 30
0.0
 11
4377.0710608043400498
 21
119.3221452587106057
 31
0.0
  0
LINE
  5
84CD
  8
0
 10
4319.3330069698404259
 20
141.925344083910602
 30
0.0
 11
4319.3236780152401479
 21
141.9321219782106027
 31
0.0
  0
LINE
  5
84CE
  8
0
 10
4319.5829662547403132
 20
141.9578608937106026
 30
0.0
 11
4319.5820767295399492
 21
141.9581114384106115
 31
0.0
  0
LINE
  5
84CF
  8
0
 10
4377.3061235185386977
 20
138.0229326603106017
 30
0.0
 11
4310.2997235432403613
 21
138.0229326603106017
 31
0.0
  0
LINE
  5
84D0
  8
0
 10
4315.4281702209400464
 20
140.4756742421106139
 30
0.0
 11
4316.1762017170403851
 21
140.4756742421106139
 31
0.0
  0
LINE
  5
84D1
  8
0
 10
4315.3759268838412027
 20
140.6725246358105892
 30
0.0
 11
4315.4281702209400464
 21
140.6725246358105892
 31
0.0
  0
LINE
  5
84D2
  8
0
 10
4316.2299225613433009
 20
140.9481151869105986
 30
0.0
 11
4315.3744642988385749
 21
140.9481151869105986
 31
0.0
  0
LINE
  5
84D3
  8
0
 10
4315.3711571659396213
 20
141.0268553444105919
 30
0.0
 11
4316.2332147720389912
 21
141.0268553444105919
 31
0.0
  0
LINE
  5
84D4
  8
0
 10
4316.2546542090385628
 20
141.6567766043106076
 30
0.0
 11
4315.3497177289400497
 21
141.6567766043106076
 31
0.0
  0
LINE
  5
84D5
  8
0
 10
4316.3533677303403238
 20
141.6624837118563107
 30
0.0
 11
4314.3258072843400441
 21
141.6624836445105871
 31
0.0
  0
LINE
  5
84D6
  8
0
 10
4316.7525539027219565
 20
142.0168104489713983
 30
0.0
 11
4319.8861362878396903
 21
142.0168178542105863
 31
0.0
  0
LINE
  5
84D7
  8
0
 10
4319.8861336087402378
 20
143.1979241197105921
 30
0.0
 11
4316.7526776874692587
 21
143.1979214125123008
 31
0.0
  0
LINE
  5
84D8
  8
0
 10
4319.5965304583396573
 20
141.9564589978106142
 30
0.0
 11
4319.614623096638752
 21
141.9593245744106014
 31
0.0
  0
LINE
  5
84D9
  8
0
 10
4319.3330069698404259
 20
141.925344083910602
 30
0.0
 11
4319.6129818082399652
 21
141.9696874981106021
 31
0.0
  0
LINE
  5
84DA
  8
0
 10
4319.6253808343399214
 20
141.971651300110608
 30
0.0
 11
4319.7016847534387125
 21
141.9837365872107
 31
0.0
  0
LINE
  5
84DB
  8
0
 10
4319.7140837779397771
 20
141.9857003889106011
 30
0.0
 11
4319.9158108597403043
 21
142.0176506442107041
 31
0.0
  0
LINE
  5
84DC
  8
0
 10
4377.3061235181394295
 20
138.0229326603106017
 30
0.0
 11
4377.2554991166398395
 21
139.4726476160105904
 31
0.0
  0
LINE
  5
84DD
  8
0
 10
4376.7163093491399195
 20
119.1646649437106049
 30
0.0
 11
4376.7163093491399195
 21
118.3378932902106015
 31
0.0
  0
LINE
  5
84DE
  8
0
 10
4377.3061235181394295
 20
119.5583657311105981
 30
0.0
 11
4377.3061235181394295
 21
137.8654523453105867
 31
0.0
  0
CIRCLE
  5
84DF
  8
0
 10
4342.8572377380396574
 20
118.5859247863105992
 30
0.0
 40
0.157480315
  0
CIRCLE
  5
84E0
  8
0
 10
4316.2824341773402921
 20
118.5859247863105992
 30
0.0
 40
0.1299212598
  0
ARC
  5
84E1
  8
0
 10
4315.4281428425911145
 20
140.9831414625002992
 30
0.0
 40
0.0350122821143884
 50
113.1276347234775983
 51
244.4226652869025997
  0
ARC
  5
84E2
  8
0
 10
4315.3500129423064209
 20
141.6485991759278988
 30
0.0
 40
0.0081827553969103
 50
92.0675372260078149
 51
177.8750132887010125
  0
ARC
  5
84E3
  8
0
 10
4315.3717650351609336
 20
141.0353587540379863
 30
0.0
 40
0.0085251088134997
 50
186.0883761092864859
 51
265.9111465198736255
  0
ARC
  5
84E4
  8
0
 10
4315.4065184806895559
 20
141.0189831317611038
 30
0.0
 40
0.0078722128560124
 50
359.9868769829308235
 51
90.0131230170007939
  0
ARC
  5
84E5
  8
0
 10
4315.406516677639047
 20
140.9559892027106116
 30
0.0
 40
0.0078740157
 50
270.0
 51
325.7728651648088771
  0
ARC
  5
84E6
  8
0
 10
4315.3744568377387623
 20
140.9402411687960921
 30
0.0
 40
0.0078740216495005
 50
89.9457088559328639
 51
181.9999810171754859
  0
ARC
  5
84E7
  8
0
 10
4316.7526335129396102
 20
141.524684471110703
 30
0.0
 40
0.4921259843
 50
90.0001101482125136
 51
98.6075787796142009
  0
ARC
  5
84E8
  8
0
 10
4316.7526350436401117
 20
141.5246698282107047
 30
0.0
 40
0.4921259843
 50
99.078798538702415
 51
130.9980487340164075
  0
ARC
  5
84E9
  8
0
 10
4315.8085222155059455
 20
142.6066469904313863
 30
0.0
 40
0.9458001743500291
 50
110.7196505062607059
 51
134.9355046137442002
  0
ARC
  5
84EA
  8
0
 10
4316.7526764022395582
 20
143.6900473968105985
 30
0.0
 40
0.4921259843
 50
260.9342160729813145
 51
270.0001496328986832
  0
ARC
  5
84EB
  8
0
 10
4316.7526787356400746
 20
143.6900250761106008
 30
0.0
 40
0.4921259843
 50
228.9996761084865966
 51
260.9167610234849803
  0
ARC
  5
84EC
  8
0
 10
4317.7706945175386863
 20
140.9531337175106103
 30
0.0
 40
3.1496062991999998
 50
90.0001163777273234
 51
94.8224322121195513
  0
ARC
  5
84ED
  8
0
 10
4317.7212458219946711
 20
141.5695563084128992
 30
0.0
 40
0.4701673151867894
 50
184.4316016743152034
 51
211.8524965236541107
  0
ARC
  5
84EE
  8
0
 10
4319.3468191940401084
 20
141.9639730213106077
 30
0.0
 40
0.0393700787
 50
188.9999513172014076
 51
233.9999513171096908
  0
ARC
  5
84EF
  8
0
 10
4317.5541521467393977
 20
143.4806921783105906
 30
0.0
 40
0.0196850394
 50
0.0001572664000899
 51
90.0001572559967968
  0
ARC
  5
84F0
  8
0
 10
4317.5069079658396731
 20
143.5121881116106124
 30
0.0
 40
0.0118110236
 50
180.0001572664000946
 51
270.0001572650119215
  0
ARC
  5
84F1
  8
0
 10
4317.5069064077388248
 20
144.0798212658106081
 30
0.0
 40
0.0118110236
 50
94.8224322070993395
 51
180.0001572664000946
  0
ARC
  5
84F2
  8
0
 10
4319.488471351388398
 20
142.3378030144046136
 30
0.0
 40
0.4130913580277792
 50
265.6550214475676057
 51
268.0737720200266949
  0
ARC
  5
84F3
  8
0
 10
4319.4923000963399318
 20
142.3313372253107048
 30
0.0
 40
0.4092079587
 50
280.8538815444770194
 51
283.2444016070808175
  0
ARC
  5
84F4
  8
0
 10
4319.4811674972388573
 20
142.3351392242105931
 30
0.0
 40
0.4052023216
 50
268.95605019382009
 51
271.3956665714018754
  0
ARC
  5
84F5
  8
0
 10
4319.4672083965397178
 20
142.3347173763106071
 30
0.0
 40
0.3937343856
 50
284.4641030458042223
 51
286.9621960984978273
  0
ARC
  5
84F6
  8
0
 10
4319.4623222998443453
 20
142.4863340466770865
 30
0.0
 40
0.5418874222400671
 50
269.1473914275611037
 51
270.9688813997095735
  0
ARC
  5
84F7
  8
0
 10
4319.5132936784566482
 20
142.3409244457236014
 30
0.0
 40
0.4308543881074426
 50
263.6441983032951271
 51
265.1272428321119037
  0
ARC
  5
84F8
  8
0
 10
4319.5219451225957528
 20
142.3313263216215887
 30
0.0
 40
0.4254229745615724
 50
273.0798554806391962
 51
275.3839671808694902
  0
ARC
  5
84F9
  8
0
 10
4319.5058089614349228
 20
142.3367485815616078
 30
0.0
 40
0.4228770000402361
 50
265.9816472108832954
 51
268.3418160581779262
  0
ARC
  5
84FA
  8
0
 10
4319.5168980585249301
 20
142.3302618548476062
 30
0.0
 40
0.422012498329975
 50
277.5214888917063831
 51
279.8362310823994221
  0
ARC
  5
84FB
  8
0
 10
4319.509713121439745
 20
142.3304628538105874
 30
0.0
 40
0.4186364083
 50
280.810178377113516
 51
280.9251199377252988
  0
ARC
  5
84FC
  8
0
 10
4319.5391295200706736
 20
142.3318630785375092
 30
0.0
 40
0.4323586092616688
 50
273.1739453984388888
 51
275.4408439040162762
  0
ARC
  5
84FD
  8
0
 10
4319.5411594912857254
 20
142.3313331251015939
 30
0.0
 40
0.432425924504228
 50
274.354931612190228
 51
276.6181330885819989
  0
ARC
  5
84FE
  8
0
 10
4319.5305388283632055
 20
142.3412938028239125
 30
0.0
 40
0.4387642199253709
 50
263.0739875667165961
 51
264.534232792461296
  0
ARC
  5
84FF
  8
0
 10
4319.5652099224807898
 20
142.3345293476749021
 30
0.0
 40
0.4407206749971906
 50
271.2707428949613018
 51
273.502016797474198
  0
ARC
  5
8500
  8
0
 10
4319.5889778415994442
 20
142.362266087001899
 30
0.0
 40
0.4699174728420367
 50
254.8592705525142037
 51
256.2932068994497854
  0
ARC
  5
8501
  8
0
 10
4319.6060498253273181
 20
142.3652827281185864
 30
0.0
 40
0.4717370260229007
 50
254.0851505364850027
 51
255.5220803009680992
  0
ARC
  5
8502
  8
0
 10
4319.6188311276137028
 20
142.3538271975174894
 30
0.0
 40
0.4570738051770433
 50
260.7561751361001257
 51
262.9924575135877944
  0
ARC
  5
8503
  8
0
 10
4319.6131509925899081
 20
142.3465645016894996
 30
0.0
 40
0.4508933987606543
 50
265.0751552317548771
 51
267.2969074155146814
  0
ARC
  5
8504
  8
0
 10
4319.6150804993276324
 20
142.3733597716241945
 30
0.0
 40
0.479030008018936
 50
250.8551118551592936
 51
253.143747814287309
  0
ARC
  5
8505
  8
0
 10
4319.557456702039417
 20
142.6513159009105891
 30
0.0
 40
0.6830502597
 50
274.6516775867759748
 51
275.7070602083163067
  0
ARC
  5
8506
  8
0
 10
4319.6356721597630894
 20
142.3577009912816038
 30
0.0
 40
0.4559348529769975
 50
260.6835852238714892
 51
262.9262931913743842
  0
ARC
  5
8507
  8
0
 10
4319.6372699492767424
 20
142.3556431564246054
 30
0.0
 40
0.4531487198495027
 50
261.8331543424051802
 51
264.0761753953137827
  0
ARC
  5
8508
  8
0
 10
4319.6619613871680485
 20
142.3682830869875033
 30
0.0
 40
0.4550409840278875
 50
258.3984436831188987
 51
259.4281606188869205
  0
ARC
  5
8509
  8
0
 10
4319.6615798205402825
 20
142.3662256555105898
 30
0.0
 40
0.4529484708
 50
259.4278591103138751
 51
260.6806693696868251
  0
ARC
  5
850A
  8
0
 10
4319.6321865299942147
 20
142.3772989516041889
 30
0.0
 40
0.4790217909506773
 50
250.7916406378240026
 51
252.2465657423551875
  0
ARC
  5
850B
  8
0
 10
4319.6419455909481258
 20
142.386527361471309
 30
0.0
 40
0.4865094309260922
 50
247.4511613509968981
 51
249.7786923205231062
  0
ARC
  5
850C
  8
0
 10
4319.6787972253387125
 20
142.3740806594105948
 30
0.0
 40
0.4507126936
 50
258.125126798504084
 51
258.2392841191222033
  0
ARC
  5
850D
  8
0
 10
4319.6591757965079523
 20
142.391470729680492
 30
0.0
 40
0.4847566635189722
 50
247.2205430748238086
 51
249.5618700154388989
  0
ARC
  5
850E
  8
0
 10
4319.6868924340833473
 20
142.3814834313882045
 30
0.0
 40
0.4534292152451779
 50
254.6708320231848859
 51
257.0139438144050246
  0
ARC
  5
850F
  8
0
 10
4319.7051078231388601
 20
142.3866907669105899
 30
0.0
 40
0.4437211054
 50
255.3821683550092132
 51
255.8360530717079087
  0
ARC
  5
8510
  8
0
 10
4319.8861348008385903
 20
142.6073687445106088
 30
0.0
 40
0.5905522989
 50
270.0001030505936797
 51
90.0001572796027034
  0
ARC
  5
8511
  8
0
 10
4377.0639548967892551
 20
119.5642818899324027
 30
0.0
 40
0.2422408761987183
 50
271.6809587661995806
 51
358.6005473429895005
  0
ARC
  5
8512
  8
0
 10
4376.8741903260397521
 20
119.1646649437106049
 30
0.0
 40
0.157480315
 50
89.9999820956099938
 51
180.0010942519998025
  0
ARC
  5
8513
  8
0
 10
4377.1411886138130285
 20
137.8580324958053893
 30
0.0
 40
0.1651017166232235
 50
2.5758017830183602
 51
87.1686098934854954
  0
CIRCLE
  5
8514
  8
0
 10
4372.3847963757389152
 20
118.5859247863105992
 30
0.0
 40
0.1299212598
  0
LINE
  5
8515
  8
0
 10
4319.5898612817400135
 20
141.9143268548106107
 30
0.0
 11
4319.5889915463876605
 21
141.9144529110351129
 31
0.0
  0
LINE
  5
8516
  8
0
 10
4319.5918588099402768
 20
141.9017147215105865
 30
0.0
 11
4319.5909972404497239
 21
141.9017887398028961
 31
0.0
  0
LINE
  5
8517
  8
0
 10
4319.5929847023398906
 20
141.894605911310606
 30
0.0
 11
4319.5921307603402965
 21
141.89463165291059
 31
0.0
  0
LINE
  5
8518
  8
0
 10
4319.5918866946385606
 20
141.8961727980106104
 30
0.0
 11
4319.5927261612387156
 21
141.8962383361105992
 31
0.0
  0
LINE
  5
8519
  8
0
 10
4377.0145857539582721
 20
139.7081972629106019
 30
0.0
 11
4310.5912613074206092
 21
139.7081972629106019
 31
0.0
  0
ARC
  5
851A
  8
0
 10
4377.0024178250450859
 20
139.4547778258894937
 30
0.0
 40
0.253711390272703
 50
4.0388884140133374
 51
87.2510555676538075
  0
LINE
  5
851B
  8
0
 10
4310.2997235432403613
 20
138.0229326603106017
 30
0.0
 11
4310.3503479447399513
 21
139.4726476160105904
 31
0.0
  0
LINE
  5
851C
  8
0
 10
4310.8895377122398713
 20
119.1646649437106049
 30
0.0
 11
4310.8895377122398713
 21
118.3378932902106015
 31
0.0
  0
LINE
  5
851D
  8
0
 10
4310.2997235432403613
 20
119.5583657311105981
 30
0.0
 11
4310.2997235432403613
 21
137.8654523453105867
 31
0.0
  0
ARC
  5
851E
  8
0
 10
4310.5418921645887167
 20
119.5642818899324027
 30
0.0
 40
0.2422408761987183
 50
181.3994526570103858
 51
268.3190412338003057
  0
ARC
  5
851F
  8
0
 10
4310.7316567353400387
 20
119.1646649437106049
 30
0.0
 40
0.157480315
 50
359.9989057480001975
 51
90.0000179043900204
  0
ARC
  5
8520
  8
0
 10
4310.4646584475667623
 20
137.8580324958053893
 30
0.0
 40
0.1651017166232235
 50
92.8313901065145046
 51
177.4241982169816083
  0
ARC
  5
8521
  8
0
 10
4310.6034292363337954
 20
139.4547778258894937
 30
0.0
 40
0.253711390272703
 50
92.7489444323462067
 51
175.9611115859867141
  0
LINE
  5
8522
  8
0
 10
4311.886531757463672
 20
143.1018620335973139
 30
0.0
 11
4314.4218043167065844
 21
143.1018620335973139
 31
0.0
  0
ARC
  5
8523
  8
0
 10
4311.9321254570959354
 20
142.6618563384807885
 30
0.0
 40
0.4423616135937439
 50
95.9159157070396731
 51
174.0064351344263969
  0
ARC
  5
8524
  8
0
 10
4315.4759429645955606
 20
143.4799841232556901
 30
0.0
 40
0.0114742180578352
 50
10.4696118790507597
 51
100.2447840224410953
  0
ARC
  5
8525
  8
0
 10
4314.4848925886763027
 20
144.9559666780349971
 30
0.0
 40
1.855177663348091
 50
268.051189998914424
 51
282.4343551940747261
  0
ARC
  5
8526
  8
0
 10
4314.7710802612937186
 20
143.6790024475758116
 30
0.0
 40
0.5465632215505437
 50
281.9607772135007053
 51
312.5228559123444256
  0
ARC
  5
8527
  8
0
 10
4315.4745351873925756
 20
141.6751731382119885
 30
0.0
 40
0.0130048644868757
 50
282.6451608274495015
 51
347.3548980744781147
  0
LINE
  5
8528
  8
0
 10
4313.6560544487401785
 20
141.6850855081106033
 30
0.0
 11
4314.3258073035449343
 21
141.6850849390091867
 31
0.0
  0
ARC
  5
8529
  8
0
 10
4313.6728812824685519
 20
141.2739769984318912
 30
0.0
 40
0.4114527300476468
 50
92.3438306062018057
 51
177.5742326540269005
  0
LINE
  5
852A
  8
0
 10
4316.1171488777126797
 20
141.672326140050302
 30
0.0
 11
4316.1171473400136165
 21
143.4820690642503109
 31
0.0
  0
ARC
  5
852B
  8
0
 10
4316.1284305286571907
 20
143.4799840380954095
 30
0.0
 40
0.0114742180578352
 50
79.7552159775589189
 51
169.5303881209491976
  0
ARC
  5
852C
  8
0
 10
4315.8565940116359343
 20
142.6706522782806132
 30
0.0
 40
0.8651190254850014
 50
48.5008028830774407
 51
71.5439253109157818
  0
ARC
  5
852D
  8
0
 10
4316.1321802436141297
 20
141.7387983387893939
 30
0.0
 40
0.0170747128280591
 50
208.3175658609096104
 51
278.3405277968528253
  0
ARC
  5
852E
  8
0
 10
4315.8033759715526685
 20
142.6203018439838957
 30
0.0
 40
0.9575309068639279
 50
290.2412806054280168
 51
310.858329724203827
  0
LINE
  5
852F
  8
0
 10
4315.25102104223879
 20
143.370669510784893
 30
0.0
 11
4315.2509946861464414
 21
151.1113187122687123
 31
0.0
  0
LINE
  5
8530
  8
0
 10
4315.2509946861464414
 20
151.1113187122687123
 30
0.0
 11
4316.3533890632334078
 21
151.1112865392524895
 31
0.0
  0
LINE
  5
8531
  8
0
 10
4316.3533890632334078
 20
151.1112865392524895
 30
0.0
 11
4316.3533890632334078
 21
150.126200172218887
 31
0.0
  0
LINE
  5
8532
  8
0
 10
4316.3250543906160601
 20
150.1291993791143113
 30
0.0
 11
4316.3655952929420891
 21
150.1249081506452967
 31
0.0
  0
LINE
  5
8533
  8
0
 10
4316.3242362563760253
 20
150.0285932351993949
 30
0.0
 11
4316.3728000486253222
 21
150.042557417136095
 31
0.0
  0
ARC
  5
8534
  8
0
 10
4316.4645625780140108
 20
150.0915966841382101
 30
0.0
 40
0.0982709726132183
 50
171.9856945399189954
 51
198.0925870778519879
  0
ARC
  5
8535
  8
0
 10
4316.2407512360132387
 20
150.0718616510889092
 30
0.0
 40
0.1308443935795243
 50
355.2726856201114742
 51
14.80559841248939
  0
ARC
  5
8536
  8
0
 10
4316.3655485751205561
 20
150.1245037982724
 30
0.0
 40
0.0004070422534776
 50
54.1976512454224135
 51
83.409416809537916
  0
ARC
  5
8537
  8
0
 10
4316.3644328331920406
 20
150.1232289798954014
 30
0.0
 40
0.0020997101164208
 50
24.1081011293932583
 51
49.8505723141290176
  0
ARC
  5
8538
  8
0
 10
4316.3463328576608546
 20
150.1151293981116908
 30
0.0
 40
0.0219292925454906
 50
19.7726947387734384
 51
24.1081011293940008
  0
ARC
  5
8539
  8
0
 10
4316.3345239877398853
 20
150.1108842994030965
 30
0.0
 40
0.0344780084890049
 50
7.121163259818637
 51
19.7726947387734384
  0
ARC
  5
853A
  8
0
 10
4316.3726961601823859
 20
150.0429104734155885
 30
0.0
 40
0.0003670036547507
 50
286.579154366724083
 51
302.9893118037446129
  0
ARC
  5
853B
  8
0
 10
4316.3725241347965493
 20
150.0431754774924116
 30
0.0
 40
0.0006829465199482
 50
302.9893118037962836
 51
332.8627405182321013
  0
ARC
  5
853C
  8
0
 10
4316.3690646579298118
 20
150.0449486210036127
 30
0.0
 40
0.0045703644412038
 50
332.8627405182321013
 51
347.9613220478383937
  0
ARC
  5
853D
  8
0
 10
4316.3486919313099861
 20
150.0492933539088085
 30
0.0
 40
0.0254012236151506
 50
347.9613220478383937
 51
359.494289784185014
  0
ARC
  5
853E
  8
0
 10
4315.9698958893795862
 20
150.0526368113908973
 30
0.0
 40
0.4042120208348131
 50
359.494289784185014
 51
2.3627402530546782
  0
ARC
  5
853F
  8
0
 10
4316.04883715896176
 20
150.0558940061742987
 30
0.0
 40
0.325203582292068
 50
2.3627402530546782
 51
7.823112700963331
  0
ARC
  5
8540
  8
0
 10
4315.8412130509022973
 20
150.0273677107877859
 30
0.0
 40
0.5347781985408985
 50
7.823112700963331
 51
9.4486111097752392
  0
ARC
  5
8541
  8
0
 10
4316.4045503117149565
 20
150.1144069093807047
 30
0.0
 40
0.0405034063853799
 50
164.9487296810762018
 51
181.5661158922042091
  0
ARC
  5
8542
  8
0
 10
4317.1488995828849511
 20
150.1347579307467015
 30
0.0
 40
0.7851308310489697
 50
181.5661158922042091
 51
183.3290391205945014
  0
ARC
  5
8543
  8
0
 10
4316.6402635897056825
 20
150.1051715081661939
 30
0.0
 40
0.2756350705575634
 50
183.3290391205945014
 51
188.144821552531198
  0
ARC
  5
8544
  8
0
 10
4316.7901427288779814
 20
150.1266221047175975
 30
0.0
 40
0.4270414259443596
 50
188.144821552531198
 51
190.4702907630195057
  0
ARC
  5
8545
  8
0
 10
4316.3912396459945739
 20
150.0529037136984982
 30
0.0
 40
0.0213838477976568
 50
190.4702907630195057
 51
209.1450137364062982
  0
ARC
  5
8546
  8
0
 10
4316.2858011650569097
 20
150.1154608749158967
 30
0.0
 40
0.0547746727087151
 50
12.9147905186316798
 51
19.3427358438421493
  0
ARC
  5
8547
  8
0
 10
4316.3196364880022884
 20
150.1273381760298946
 30
0.0
 40
0.0189152337768411
 50
19.3427358438406216
 51
34.4504993390127083
  0
ARC
  5
8548
  8
0
 10
4316.3295484488571674
 20
150.1341378770516997
 30
0.0
 40
0.0068951297014383
 50
34.4504993390110315
 51
72.7849114113915476
  0
ARC
  5
8549
  8
0
 10
4316.3447129558780944
 20
150.1278889357413959
 30
0.0
 40
0.0183569184902187
 50
135.6370809639456922
 51
152.3452535775161039
  0
ARC
  5
854A
  8
0
 10
4316.3762930432349094
 20
150.1094511787611907
 30
0.0
 40
0.0549125754211856
 50
150.5985683520565033
 51
158.9225354257683023
  0
ARC
  5
854B
  8
0
 10
4316.4615433705375835
 20
150.0801402858652125
 30
0.0
 40
0.1450380511116787
 50
160.2297211304295956
 51
179.7050061598652917
  0
ARC
  5
854C
  8
0
 10
4316.4688765164983124
 20
150.076689113545001
 30
0.0
 40
0.1524270919551749
 50
178.4218476949847911
 51
198.3930334136699116
  0
ARC
  5
854D
  8
0
 10
4316.3762992335568924
 20
150.0465304544933076
 30
0.0
 40
0.055066300302684
 50
199.0103285420933901
 51
215.1044834043865137
  0
ARC
  5
854E
  8
0
 10
4316.2280973616652773
 20
150.0543069783240071
 30
0.0
 40
0.1140790971028962
 50
343.8260597459640735
 51
349.3298160950259899
  0
ARC
  5
854F
  8
0
 10
4316.322617266879206
 20
150.0268930201768001
 30
0.0
 40
0.0156639682692754
 50
320.9851557981456267
 51
343.8260597459640735
  0
ARC
  5
8550
  8
0
 10
4316.3299535505793756
 20
150.020949067053607
 30
0.0
 40
0.0062219537999192
 50
282.019449077006584
 51
320.9851557981456267
  0
LINE
  5
8551
  8
0
 10
4316.2662099487197338
 20
150.0050046012721054
 30
0.0
 11
4316.3224715775268123
 21
149.998921566906489
 31
0.0
  0
ARC
  5
8552
  8
0
 10
4316.3223048920617657
 20
149.9973799027982011
 30
0.0
 40
0.0015506489827731
 50
54.1886167443571765
 51
83.8291241840748853
  0
ARC
  5
8553
  8
0
 10
4316.3204698501285748
 20
149.9948366195849019
 30
0.0
 40
0.0046868359029735
 50
37.1798522959403712
 51
54.1886167443545688
  0
ARC
  5
8554
  8
0
 10
4316.3150860056211968
 20
149.990753042332301
 30
0.0
 40
0.0114441567373243
 50
23.583643893698099
 51
37.1798522959390709
  0
ARC
  5
8555
  8
0
 10
4316.2706551316869081
 20
149.9713567734580124
 30
0.0
 40
0.0599242331064052
 50
8.8689536544861394
 51
23.583643893698099
  0
ARC
  5
8556
  8
0
 10
4315.3862689087809485
 20
149.8333565109624885
 30
0.0
 40
0.9550125325016532
 50
7.6864440749674374
 51
8.8689536544861394
  0
ARC
  5
8557
  8
0
 10
4316.1969463686764357
 20
149.9427691012396053
 30
0.0
 40
0.1369849908562514
 50
357.2839240717304961
 51
7.6864440749674374
  0
ARC
  5
8558
  8
0
 10
4315.9963985608974326
 20
149.9522830909403979
 30
0.0
 40
0.3377583436814899
 50
355.678704666355884
 51
357.2839240717304961
  0
ARC
  5
8559
  8
0
 10
4316.302067491100388
 20
149.929185474030902
 30
0.0
 40
0.031217979621363
 50
342.5539432433495222
 51
355.678704666355884
  0
ARC
  5
855A
  8
0
 10
4316.3220360293698832
 20
149.9229100810769921
 30
0.0
 40
0.0102865898591458
 50
329.4254357397476838
 51
342.5539432433503748
  0
ARC
  5
855B
  8
0
 10
4316.3288723832320102
 20
149.9188711679788923
 30
0.0
 40
0.0023462779548618
 50
279.7477017414429952
 51
329.4254357397277886
  0
LINE
  5
855C
  8
0
 10
4316.3292696314838395
 20
149.9165587635880001
 30
0.0
 11
4316.2665472831886291
 21
149.8983023889468882
 31
0.0
  0
ARC
  5
855D
  8
0
 10
4316.2918107215982673
 20
149.9218082497849025
 30
0.0
 40
0.0345074892457892
 50
222.9360332010301136
 51
250.1181504785103016
  0
ARC
  5
855E
  8
0
 10
4316.283940438423997
 20
149.9000452943467963
 30
0.0
 40
0.0113651560303872
 50
250.1181504785103016
 51
286.8868951846393998
  0
ARC
  5
855F
  8
0
 10
4316.2834883429495676
 20
149.9096216110764885
 30
0.0
 40
0.0207929969585575
 50
280.3998597420920191
 51
307.7215480156173726
  0
ARC
  5
8560
  8
0
 10
4316.2662617118021444
 20
149.9266208249264025
 30
0.0
 40
0.0448949676394773
 50
311.841688870338487
 51
328.5116982501078837
  0
ARC
  5
8561
  8
0
 10
4316.2570082238680698
 20
149.9297265116647111
 30
0.0
 40
0.0544518812178513
 50
330.8113897495520064
 51
339.0771514653329177
  0
ARC
  5
8562
  8
0
 10
4316.3656862362922766
 20
149.9816290872965112
 30
0.0
 40
0.0478161699180445
 50
158.6162287349478106
 51
182.0307928170682885
  0
ARC
  5
8563
  8
0
 10
4316.5403483361878898
 20
149.976329297953896
 30
0.0
 40
0.2224774527905229
 50
179.0714555668855041
 51
189.353643756538105
  0
ARC
  5
8564
  8
0
 10
4316.3928309125749365
 20
149.9482396179674879
 30
0.0
 40
0.0724526935296346
 50
186.3943065063537858
 51
201.2111385806468036
  0
ARC
  5
8565
  8
0
 10
4316.3429835149418068
 20
149.9288939373093115
 30
0.0
 40
0.0189829038259022
 50
201.2111385806468036
 51
221.190382882042087
  0
ARC
  5
8566
  8
0
 10
4316.2454943411839849
 20
149.9494451831901927
 30
0.0
 40
0.0839340037863295
 50
350.1255422978525189
 51
22.0015821893695396
  0
ARC
  5
8567
  8
0
 10
4316.3941930929977389
 20
149.9652408556191858
 30
0.0
 40
0.0725843178698737
 50
167.5496504933761912
 51
204.5774739938472067
  0
ARC
  5
8568
  8
0
 10
4316.2747930085770349
 20
149.9841282800819897
 30
0.0
 40
0.0339564404985249
 50
29.5660098732294507
 51
51.7305837212429083
  0
ARC
  5
8569
  8
0
 10
4316.2844476809132175
 20
149.996366640959792
 30
0.0
 40
0.0183682983746746
 50
51.7305837212446917
 51
83.0738586921061142
  0
ARC
  5
856A
  8
0
 10
4316.2843165229805891
 20
149.9952869408112974
 30
0.0
 40
0.019455935636537
 50
83.0738586921061142
 51
106.2332311138828942
  0
ARC
  5
856B
  8
0
 10
4316.2892043401679985
 20
149.9867568823052011
 30
0.0
 40
0.0291039844238029
 50
110.7824335501005066
 51
131.8208718752597974
  0
ARC
  5
856C
  8
0
 10
4316.3012328751319728
 20
149.9720846710804096
 30
0.0
 40
0.0480658629208286
 50
130.8440470212158004
 51
136.7728773327887097
  0
ARC
  5
856D
  8
0
 10
4316.3174164937863679
 20
149.9588666112819055
 30
0.0
 40
0.0689262241674556
 50
137.9805966977025093
 51
157.7112387408191978
  0
ARC
  5
856E
  8
0
 10
4316.3342692582828022
 20
149.951833489066388
 30
0.0
 40
0.0871873817553911
 50
157.6351335886328116
 51
189.1784445969973945
  0
ARC
  5
856F
  8
0
 10
4316.3239728765929613
 20
149.948955633144493
 30
0.0
 40
0.0765731671254818
 50
188.2815307571665073
 51
221.4144658191235919
  0
LINE
  5
8570
  8
0
 10
4316.3249485677943085
 20
149.8767516903097885
 30
0.0
 11
4316.3654894701203375
 21
149.8724604618408023
 31
0.0
  0
LINE
  5
8571
  8
0
 10
4316.3241304335542736
 20
149.7761455463949005
 30
0.0
 11
4316.3726942258026611
 21
149.7901097283316005
 31
0.0
  0
ARC
  5
8572
  8
0
 10
4316.4644567551922592
 20
149.8391489953336873
 30
0.0
 40
0.0982709726132183
 50
171.9856945399189954
 51
198.0925870778519879
  0
ARC
  5
8573
  8
0
 10
4316.2406454131905775
 20
149.8194139622843863
 30
0.0
 40
0.1308443935795243
 50
355.2726856201114742
 51
14.80559841248939
  0
ARC
  5
8574
  8
0
 10
4316.3654427522988044
 20
149.8720561094679908
 30
0.0
 40
0.0004070422534776
 50
54.1976512454224135
 51
83.409416809537916
  0
ARC
  5
8575
  8
0
 10
4316.3643270103702889
 20
149.8707812910911912
 30
0.0
 40
0.0020997101164208
 50
24.1081011293932583
 51
49.8505723141290176
  0
ARC
  5
8576
  8
0
 10
4316.346227034839103
 20
149.86268170930731
 30
0.0
 40
0.0219292925454906
 50
19.7726947387734384
 51
24.1081011293940008
  0
ARC
  5
8577
  8
0
 10
4316.3344181649190432
 20
149.8584366105986874
 30
0.0
 40
0.0344780084890049
 50
7.121163259818637
 51
19.7726947387734384
  0
ARC
  5
8578
  8
0
 10
4316.3725903373588153
 20
149.7904627846112078
 30
0.0
 40
0.0003670036547507
 50
286.579154366724083
 51
302.9893118037446129
  0
ARC
  5
8579
  8
0
 10
4316.3724183119738882
 20
149.7907277886884003
 30
0.0
 40
0.0006829465199482
 50
302.9893118037962836
 51
332.8627405182321013
  0
ARC
  5
857A
  8
0
 10
4316.3689588351080602
 20
149.7925009321992036
 30
0.0
 40
0.0045703644412038
 50
332.8627405182321013
 51
347.9613220478383937
  0
ARC
  5
857B
  8
0
 10
4316.348586108489144
 20
149.7968456651043141
 30
0.0
 40
0.0254012236151506
 50
347.9613220478383937
 51
359.494289784185014
  0
ARC
  5
857C
  8
0
 10
4315.969790066558744
 20
149.8001891225868007
 30
0.0
 40
0.4042120208348131
 50
359.494289784185014
 51
2.3627402530546782
  0
ARC
  5
857D
  8
0
 10
4316.0487313361400084
 20
149.8034463173702022
 30
0.0
 40
0.325203582292068
 50
2.3627402530546782
 51
7.823112700963331
  0
ARC
  5
857E
  8
0
 10
4315.8411072280796361
 20
149.7749200219834051
 30
0.0
 40
0.5347781985408985
 50
7.823112700963331
 51
9.4486111097752392
  0
ARC
  5
857F
  8
0
 10
4316.4044444888941143
 20
149.8619592205762956
 30
0.0
 40
0.0405034063853799
 50
164.9487296810762018
 51
181.5661158922042091
  0
ARC
  5
8580
  8
0
 10
4317.1487937600631994
 20
149.8823102419422071
 30
0.0
 40
0.7851308310489697
 50
181.5661158922042091
 51
183.3290391205945014
  0
ARC
  5
8581
  8
0
 10
4316.6401577668839309
 20
149.8527238193620121
 30
0.0
 40
0.2756350705575634
 50
183.3290391205945014
 51
188.144821552531198
  0
ARC
  5
8582
  8
0
 10
4316.7900369060562298
 20
149.874174415913501
 30
0.0
 40
0.4270414259443596
 50
188.144821552531198
 51
190.4702907630195057
  0
ARC
  5
8583
  8
0
 10
4316.3911338231728223
 20
149.8004560248940038
 30
0.0
 40
0.0213838477976568
 50
190.4702907630195057
 51
209.1450137364062982
  0
ARC
  5
8584
  8
0
 10
4316.285695342235158
 20
149.8630131861114876
 30
0.0
 40
0.0547746727087151
 50
12.9147905186316798
 51
19.3427358438421493
  0
ARC
  5
8585
  8
0
 10
4316.3195306651787178
 20
149.8748904872254002
 30
0.0
 40
0.0189152337768411
 50
19.3427358438406216
 51
34.4504993390127083
  0
ARC
  5
8586
  8
0
 10
4316.3294426260354157
 20
149.8816901882472052
 30
0.0
 40
0.0068951297014383
 50
34.4504993390117065
 51
72.7849114113915476
  0
ARC
  5
8587
  8
0
 10
4316.3446071330563427
 20
149.8754412469372994
 30
0.0
 40
0.0183569184902187
 50
135.6370809639456922
 51
152.3452535775161039
  0
ARC
  5
8588
  8
0
 10
4316.3761872204131578
 20
149.8570034899570942
 30
0.0
 40
0.0549125754211856
 50
150.5985683520565033
 51
158.9225354257683023
  0
ARC
  5
8589
  8
0
 10
4316.4614375477140129
 20
149.8276925970606896
 30
0.0
 40
0.1450380511116787
 50
160.2297211304295956
 51
179.7050061598652917
  0
ARC
  5
858A
  8
0
 10
4316.4687706936756513
 20
149.8242414247405065
 30
0.0
 40
0.1524270919551749
 50
178.4218476949847911
 51
198.3930334136699116
  0
ARC
  5
858B
  8
0
 10
4316.3761934107360503
 20
149.7940827656888985
 30
0.0
 40
0.055066300302684
 50
199.0103285420933901
 51
215.1044834043865137
  0
ARC
  5
858C
  8
0
 10
4316.2279915388417066
 20
149.801859289519598
 30
0.0
 40
0.1140790971028962
 50
343.8260597459640735
 51
349.3298160950259899
  0
ARC
  5
858D
  8
0
 10
4316.3225114440592733
 20
149.7744453313723909
 30
0.0
 40
0.0156639682692754
 50
320.9851557981456267
 51
343.8260597459640735
  0
ARC
  5
858E
  8
0
 10
4316.3298477277567144
 20
149.7685013782491978
 30
0.0
 40
0.0062219537999192
 50
282.019449077006584
 51
320.9851557981456267
  0
LINE
  5
858F
  8
0
 10
4316.2661041258970727
 20
149.7525569124676963
 30
0.0
 11
4316.3223657547050607
 21
149.7464738781023925
 31
0.0
  0
ARC
  5
8590
  8
0
 10
4316.3221990692391046
 20
149.7449322139937067
 30
0.0
 40
0.0015506489827731
 50
54.1886167443571765
 51
83.8291241840748853
  0
ARC
  5
8591
  8
0
 10
4316.3203640273068231
 20
149.7423889307804075
 30
0.0
 40
0.0046868359029735
 50
37.1798522959403712
 51
54.1886167443545688
  0
ARC
  5
8592
  8
0
 10
4316.3149801828003547
 20
149.7383053535282045
 30
0.0
 40
0.0114441567373243
 50
23.583643893698099
 51
37.1798522959390709
  0
ARC
  5
8593
  8
0
 10
4316.270549308866066
 20
149.7189090846534896
 30
0.0
 40
0.0599242331064052
 50
8.8689536544861394
 51
23.583643893698099
  0
ARC
  5
8594
  8
0
 10
4315.3861630859601064
 20
149.5809088221581078
 30
0.0
 40
0.9550125325016532
 50
7.6864440749674374
 51
8.8689536544861394
  0
ARC
  5
8595
  8
0
 10
4316.196840545852865
 20
149.6903214124351109
 30
0.0
 40
0.1369849908562514
 50
357.2839240717304961
 51
7.6864440749674374
  0
ARC
  5
8596
  8
0
 10
4315.996292738075681
 20
149.6998354021359035
 30
0.0
 40
0.3377583436814899
 50
355.678704666355884
 51
357.2839240717304961
  0
ARC
  5
8597
  8
0
 10
4316.3019616682786364
 20
149.6767377852268055
 30
0.0
 40
0.031217979621363
 50
342.5539432433495222
 51
355.678704666355884
  0
ARC
  5
8598
  8
0
 10
4316.3219302065481315
 20
149.6704623922728956
 30
0.0
 40
0.0102865898591458
 50
329.4254357397476838
 51
342.5539432433503748
  0
ARC
  5
8599
  8
0
 10
4316.3287665604102585
 20
149.6664234791743979
 30
0.0
 40
0.0023462779548618
 50
279.7477017414429952
 51
329.4254357397277886
  0
LINE
  5
859A
  8
0
 10
4316.3291638086620878
 20
149.6641110747835057
 30
0.0
 11
4316.2664414603659679
 21
149.6458547001425075
 31
0.0
  0
ARC
  5
859B
  8
0
 10
4316.2917048987756061
 20
149.669360560980806
 30
0.0
 40
0.0345074892457892
 50
222.9360332010301136
 51
250.1181504785103016
  0
ARC
  5
859C
  8
0
 10
4316.2838346156022453
 20
149.6475976055423871
 30
0.0
 40
0.0113651560303872
 50
250.1181504785103016
 51
286.8868951846393998
  0
ARC
  5
859D
  8
0
 10
4316.283382520127816
 20
149.6571739222721078
 30
0.0
 40
0.0207929969585575
 50
280.3998597420920191
 51
307.7215480156173726
  0
ARC
  5
859E
  8
0
 10
4316.2661558889776643
 20
149.6741731361219081
 30
0.0
 40
0.0448949676394773
 50
311.841688870338487
 51
328.5116982501078837
  0
ARC
  5
859F
  8
0
 10
4316.2569024010472276
 20
149.6772788228603019
 30
0.0
 40
0.0544518812178513
 50
330.8113897495520064
 51
339.0771514653329177
  0
ARC
  5
85A0
  8
0
 10
4316.3655804134696155
 20
149.7291813984919884
 30
0.0
 40
0.0478161699180445
 50
158.6162287349478106
 51
182.0307928170682885
  0
ARC
  5
85A1
  8
0
 10
4316.5402425133661382
 20
149.7238816091494868
 30
0.0
 40
0.2224774527905229
 50
179.0714555668855041
 51
189.353643756538105
  0
ARC
  5
85A2
  8
0
 10
4316.3927250897540944
 20
149.6957919291631072
 30
0.0
 40
0.0724526935296346
 50
186.3943065063537858
 51
201.2111385806468036
  0
ARC
  5
85A3
  8
0
 10
4316.3428776921209646
 20
149.6764462485047886
 30
0.0
 40
0.0189829038259022
 50
201.2111385806468036
 51
221.190382882042087
  0
ARC
  5
85A4
  8
0
 10
4316.2453885183622333
 20
149.6969974943856982
 30
0.0
 40
0.0839340037863295
 50
350.1255422978525189
 51
22.0015821893695396
  0
ARC
  5
85A5
  8
0
 10
4316.3940872701750777
 20
149.7127931668150893
 30
0.0
 40
0.0725843178698737
 50
167.5496504933761912
 51
204.5774739938472067
  0
ARC
  5
85A6
  8
0
 10
4316.2746871857561928
 20
149.731680591277609
 30
0.0
 40
0.0339564404985249
 50
29.5660098732294507
 51
51.7305837212429083
  0
ARC
  5
85A7
  8
0
 10
4316.2843418580905563
 20
149.7439189521552976
 30
0.0
 40
0.0183682983746746
 50
51.7305837212446917
 51
83.0738586921061142
  0
ARC
  5
85A8
  8
0
 10
4316.2842107001588374
 20
149.7428392520068883
 30
0.0
 40
0.019455935636537
 50
83.0738586921061142
 51
106.2332311138828942
  0
ARC
  5
85A9
  8
0
 10
4316.2890985173462468
 20
149.7343091935007067
 30
0.0
 40
0.0291039844238029
 50
110.7824335501005066
 51
131.8208718752597974
  0
ARC
  5
85AA
  8
0
 10
4316.3011270523102212
 20
149.7196369822760005
 30
0.0
 40
0.0480658629208286
 50
130.8440470212158004
 51
136.7728773327887097
  0
ARC
  5
85AB
  8
0
 10
4316.3173106709646163
 20
149.7064189224774964
 30
0.0
 40
0.0689262241674556
 50
137.9805966977025093
 51
157.7112387408191978
  0
ARC
  5
85AC
  8
0
 10
4316.334163435460141
 20
149.6993858002620073
 30
0.0
 40
0.0871873817553911
 50
157.6351335886328116
 51
189.1784445969973945
  0
ARC
  5
85AD
  8
0
 10
4316.3238670537712096
 20
149.6965079443403965
 30
0.0
 40
0.0765731671254818
 50
188.2815307571665073
 51
221.4144658191235919
  0
LINE
  5
85AE
  8
0
 10
4316.3248688105331894
 20
149.6243055922811891
 30
0.0
 11
4316.3654097128592184
 21
149.6200143638122029
 31
0.0
  0
LINE
  5
85AF
  8
0
 10
4316.3240506762931545
 20
149.523699448366699
 30
0.0
 11
4316.372614468543361
 21
149.5376636303033138
 31
0.0
  0
ARC
  5
85B0
  8
0
 10
4316.4643769979320496
 20
149.5867028973055142
 30
0.0
 40
0.0982709726132183
 50
171.9856945399189954
 51
198.0925870778519879
  0
ARC
  5
85B1
  8
0
 10
4316.2405656559303679
 20
149.5669678642560996
 30
0.0
 40
0.1308443935795243
 50
355.2726856201114742
 51
14.80559841248939
  0
ARC
  5
85B2
  8
0
 10
4316.3653629950385948
 20
149.6196100114397041
 30
0.0
 40
0.0004070422534776
 50
54.1976512454224135
 51
83.409416809537916
  0
ARC
  5
85B3
  8
0
 10
4316.3642472531091698
 20
149.6183351930625918
 30
0.0
 40
0.0020997101164208
 50
24.1081011293932583
 51
49.8505723141290176
  0
ARC
  5
85B4
  8
0
 10
4316.3461472775770744
 20
149.6102356112787106
 30
0.0
 40
0.0219292925454906
 50
19.7726947387734384
 51
24.1081011293940008
  0
ARC
  5
85B5
  8
0
 10
4316.3343384076579241
 20
149.6059905125704006
 30
0.0
 40
0.0344780084890049
 50
7.121163259818637
 51
19.7726947387734384
  0
ARC
  5
85B6
  8
0
 10
4316.3725105800976962
 20
149.5380166865824947
 30
0.0
 40
0.0003670036547507
 50
286.579154366724083
 51
302.9893118037446129
  0
ARC
  5
85B7
  8
0
 10
4316.3723385547127691
 20
149.5382816906596872
 30
0.0
 40
0.0006829465199482
 50
302.9893118037962836
 51
332.8627405182321013
  0
ARC
  5
85B8
  8
0
 10
4316.3688790778478506
 20
149.5400548341708884
 30
0.0
 40
0.0045703644412038
 50
332.8627405182321013
 51
347.9613220478383937
  0
ARC
  5
85B9
  8
0
 10
4316.3485063512289344
 20
149.5443995670759989
 30
0.0
 40
0.0254012236151506
 50
347.9613220478383937
 51
359.494289784185014
  0
ARC
  5
85BA
  8
0
 10
4315.9697103092967154
 20
149.5477430245580877
 30
0.0
 40
0.4042120208348131
 50
359.494289784185014
 51
2.3627402530546782
  0
ARC
  5
85BB
  8
0
 10
4316.0486515788788893
 20
149.5510002193416028
 30
0.0
 40
0.325203582292068
 50
2.3627402530546782
 51
7.823112700963331
  0
ARC
  5
85BC
  8
0
 10
4315.841027470820336
 20
149.52247392395509
 30
0.0
 40
0.5347781985408985
 50
7.823112700963331
 51
9.4486111097752392
  0
ARC
  5
85BD
  8
0
 10
4316.4043647316329952
 20
149.6095131225480088
 30
0.0
 40
0.0405034063853799
 50
164.9487296810762018
 51
181.5661158922042091
  0
ARC
  5
85BE
  8
0
 10
4317.1487140028029899
 20
149.6298641439138919
 30
0.0
 40
0.7851308310489697
 50
181.5661158922042091
 51
183.3290391205945014
  0
ARC
  5
85BF
  8
0
 10
4316.6400780096228118
 20
149.6002777213334127
 30
0.0
 40
0.2756350705575634
 50
183.3290391205945014
 51
188.144821552531198
  0
ARC
  5
85C0
  8
0
 10
4316.7899571487951107
 20
149.6217283178849016
 30
0.0
 40
0.4270414259443596
 50
188.144821552531198
 51
190.4702907630195057
  0
ARC
  5
85C1
  8
0
 10
4316.3910540659117032
 20
149.5480099268658023
 30
0.0
 40
0.0213838477976568
 50
190.4702907630195057
 51
209.1450137364062982
  0
ARC
  5
85C2
  8
0
 10
4316.2856155849749484
 20
149.6105670880832008
 30
0.0
 40
0.0547746727087151
 50
12.9147905186316798
 51
19.3427358438421493
  0
ARC
  5
85C3
  8
0
 10
4316.3194509079194177
 20
149.6224443891971987
 30
0.0
 40
0.0189152337768411
 50
19.3427358438406216
 51
34.4504993390127083
  0
ARC
  5
85C4
  8
0
 10
4316.3293628687742967
 20
149.6292440902186058
 30
0.0
 40
0.0068951297014383
 50
34.4504993390110315
 51
72.7849114113915476
  0
ARC
  5
85C5
  8
0
 10
4316.3445273757952236
 20
149.6229951489087
 30
0.0
 40
0.0183569184902187
 50
135.6370809639456922
 51
152.3452535775161039
  0
ARC
  5
85C6
  8
0
 10
4316.3761074631529482
 20
149.6045573919284948
 30
0.0
 40
0.0549125754211856
 50
150.5985683520565033
 51
158.9225354257683023
  0
ARC
  5
85C7
  8
0
 10
4316.4613577904538033
 20
149.5752464990324881
 30
0.0
 40
0.1450380511116787
 50
160.2297211304295956
 51
179.7050061598652917
  0
ARC
  5
85C8
  8
0
 10
4316.4686909364163512
 20
149.5717953267121914
 30
0.0
 40
0.1524270919551749
 50
178.4218476949847911
 51
198.3930334136699116
  0
ARC
  5
85C9
  8
0
 10
4316.3761136534749312
 20
149.5416366676606117
 30
0.0
 40
0.055066300302684
 50
199.0103285420933901
 51
215.1044834043865137
  0
ARC
  5
85CA
  8
0
 10
4316.2279117815805876
 20
149.5494131914909985
 30
0.0
 40
0.1140790971028962
 50
343.8260597459640735
 51
349.3298160950259899
  0
ARC
  5
85CB
  8
0
 10
4316.3224316867981543
 20
149.5219992333441041
 30
0.0
 40
0.0156639682692754
 50
320.9851557981456267
 51
343.8260597459640735
  0
ARC
  5
85CC
  8
0
 10
4316.3297679704955954
 20
149.5160552802205984
 30
0.0
 40
0.0062219537999192
 50
282.019449077006584
 51
320.9851557981456267
  0
LINE
  5
85CD
  8
0
 10
4316.2660243686359536
 20
149.5001108144394095
 30
0.0
 11
4316.3222859974430321
 21
149.4940277800737931
 31
0.0
  0
ARC
  5
85CE
  8
0
 10
4316.322119311978895
 20
149.4924861159653915
 30
0.0
 40
0.0015506489827731
 50
54.1886167443571765
 51
83.8291241840748853
  0
ARC
  5
85CF
  8
0
 10
4316.320284270045704
 20
149.4899428327520923
 30
0.0
 40
0.0046868359029735
 50
37.1798522959403712
 51
54.1886167443545688
  0
ARC
  5
85D0
  8
0
 10
4316.3149004255392356
 20
149.4858592554996051
 30
0.0
 40
0.0114441567373243
 50
23.583643893698099
 51
37.1798522959390709
  0
ARC
  5
85D1
  8
0
 10
4316.2704695516040374
 20
149.4664629866252881
 30
0.0
 40
0.0599242331064052
 50
8.8689536544861394
 51
23.583643893698099
  0
ARC
  5
85D2
  8
0
 10
4315.3860833286989873
 20
149.3284627241297926
 30
0.0
 40
0.9550125325016532
 50
7.6864440749674374
 51
8.8689536544861394
  0
ARC
  5
85D3
  8
0
 10
4316.1967607885917459
 20
149.4378753144067957
 30
0.0
 40
0.1369849908562514
 50
357.2839240717304961
 51
7.6864440749674374
  0
ARC
  5
85D4
  8
0
 10
4315.9962129808136524
 20
149.4473893041075883
 30
0.0
 40
0.3377583436814899
 50
355.678704666355884
 51
357.2839240717304961
  0
ARC
  5
85D5
  8
0
 10
4316.3018819110184268
 20
149.4242916871982061
 30
0.0
 40
0.031217979621363
 50
342.5539432433495222
 51
355.678704666355884
  0
ARC
  5
85D6
  8
0
 10
4316.3218504492879219
 20
149.4180162942442962
 30
0.0
 40
0.0102865898591458
 50
329.4254357397476838
 51
342.5539432433503748
  0
ARC
  5
85D7
  8
0
 10
4316.32868680314823
 20
149.4139773811461964
 30
0.0
 40
0.0023462779548618
 50
279.7477017414429952
 51
329.4254357397277886
  0
LINE
  5
85D8
  8
0
 10
4316.3290840514018782
 20
149.4116649767551905
 30
0.0
 11
4316.2663617031057584
 21
149.393408602113908
 31
0.0
  0
ARC
  5
85D9
  8
0
 10
4316.2916251415153965
 20
149.4169144629522066
 30
0.0
 40
0.0345074892457892
 50
222.9360332010301136
 51
250.1181504785103016
  0
ARC
  5
85DA
  8
0
 10
4316.2837548583411262
 20
149.3951515075141003
 30
0.0
 40
0.0113651560303872
 50
250.1181504785103016
 51
286.8868951846393998
  0
ARC
  5
85DB
  8
0
 10
4316.2833027628676064
 20
149.4047278242433947
 30
0.0
 40
0.0207929969585575
 50
280.3998597420920191
 51
307.7215480156173726
  0
ARC
  5
85DC
  8
0
 10
4316.2660761317183642
 20
149.4217270380937066
 30
0.0
 40
0.0448949676394773
 50
311.841688870338487
 51
328.5116982501078837
  0
ARC
  5
85DD
  8
0
 10
4316.2568226437861085
 20
149.4248327248315888
 30
0.0
 40
0.0544518812178513
 50
330.8113897495520064
 51
339.0771514653329177
  0
ARC
  5
85DE
  8
0
 10
4316.3655006562103154
 20
149.476735300463389
 30
0.0
 40
0.0478161699180445
 50
158.6162287349478106
 51
182.0307928170682885
  0
ARC
  5
85DF
  8
0
 10
4316.5401627561059286
 20
149.4714355111210864
 30
0.0
 40
0.2224774527905229
 50
179.0714555668855041
 51
189.353643756538105
  0
ARC
  5
85E0
  8
0
 10
4316.3926453324929753
 20
149.443345831134792
 30
0.0
 40
0.0724526935296346
 50
186.3943065063537858
 51
201.2111385806468036
  0
ARC
  5
85E1
  8
0
 10
4316.3427979348598456
 20
149.4240001504765019
 30
0.0
 40
0.0189829038259022
 50
201.2111385806468036
 51
221.190382882042087
  0
ARC
  5
85E2
  8
0
 10
4316.2453087611011142
 20
149.4445513963574967
 30
0.0
 40
0.0839340037863295
 50
350.1255422978525189
 51
22.0015821893695396
  0
ARC
  5
85E3
  8
0
 10
4316.3940075129139586
 20
149.4603470687864899
 30
0.0
 40
0.0725843178698737
 50
167.5496504933761912
 51
204.5774739938472067
  0
ARC
  5
85E4
  8
0
 10
4316.2746074284950737
 20
149.4792344932492938
 30
0.0
 40
0.0339564404985249
 50
29.5660098732294507
 51
51.7305837212429083
  0
ARC
  5
85E5
  8
0
 10
4316.2842621008303468
 20
149.4914728541266982
 30
0.0
 40
0.0183682983746746
 50
51.7305837212446917
 51
83.0738586921061142
  0
ARC
  5
85E6
  8
0
 10
4316.2841309428977183
 20
149.4903931539782889
 30
0.0
 40
0.019455935636537
 50
83.0738586921061142
 51
106.2332311138828942
  0
ARC
  5
85E7
  8
0
 10
4316.2890187600860372
 20
149.4818630954725052
 30
0.0
 40
0.0291039844238029
 50
110.7824335501005066
 51
131.8208718752597974
  0
ARC
  5
85E8
  8
0
 10
4316.3010472950500116
 20
149.4671908842477137
 30
0.0
 40
0.0480658629208286
 50
130.8440470212158004
 51
136.7728773327887097
  0
ARC
  5
85E9
  8
0
 10
4316.3172309137025877
 20
149.453972824448897
 30
0.0
 40
0.0689262241674556
 50
137.9805966977025093
 51
157.7112387408191978
  0
ARC
  5
85EA
  8
0
 10
4316.334083678199022
 20
149.4469397022336921
 30
0.0
 40
0.0871873817553911
 50
157.6351335886328116
 51
189.1784445969973945
  0
ARC
  5
85EB
  8
0
 10
4316.3237872965100905
 20
149.4440618463117971
 30
0.0
 40
0.0765731671254818
 50
188.2815307571665073
 51
221.4144658191235919
  0
LINE
  5
85EC
  8
0
 10
4316.3247847064749294
 20
149.3718484132531046
 30
0.0
 11
4316.3653256088009584
 21
149.3675571847842036
 31
0.0
  0
LINE
  5
85ED
  8
0
 10
4316.3239665722348946
 20
149.2712422693385861
 30
0.0
 11
4316.372530364483282
 21
149.2852064512748882
 31
0.0
  0
ARC
  5
85EE
  8
0
 10
4316.4642928938737896
 20
149.3342457182774012
 30
0.0
 40
0.0982709726132183
 50
171.9856945399189954
 51
198.0925870778519879
  0
ARC
  5
85EF
  8
0
 10
4316.2404815518711985
 20
149.3145106852279866
 30
0.0
 40
0.1308443935795243
 50
355.2726856201114742
 51
14.80559841248939
  0
ARC
  5
85F0
  8
0
 10
4316.3652788909803348
 20
149.3671528324115911
 30
0.0
 40
0.0004070422534776
 50
54.1976512454224135
 51
83.409416809537916
  0
ARC
  5
85F1
  8
0
 10
4316.3641631490509099
 20
149.3658780140345925
 30
0.0
 40
0.0020997101164208
 50
24.1081011293932583
 51
49.8505723141290176
  0
ARC
  5
85F2
  8
0
 10
4316.3460631735188144
 20
149.3577784322505977
 30
0.0
 40
0.0219292925454906
 50
19.7726947387734384
 51
24.1081011293940008
  0
ARC
  5
85F3
  8
0
 10
4316.3342543035987546
 20
149.3535333335422877
 30
0.0
 40
0.0344780084890049
 50
7.121163259818637
 51
19.7726947387734384
  0
ARC
  5
85F4
  8
0
 10
4316.3724264760403457
 20
149.2855595075544954
 30
0.0
 40
0.0003670036547507
 50
286.579154366724083
 51
302.9893118037446129
  0
ARC
  5
85F5
  8
0
 10
4316.3722544506554186
 20
149.285824511631688
 30
0.0
 40
0.0006829465199482
 50
302.9893118037962836
 51
332.8627405182321013
  0
ARC
  5
85F6
  8
0
 10
4316.3687949737886811
 20
149.2875976551428039
 30
0.0
 40
0.0045703644412038
 50
332.8627405182321013
 51
347.9613220478383937
  0
ARC
  5
85F7
  8
0
 10
4316.3484222471706744
 20
149.291942388047886
 30
0.0
 40
0.0254012236151506
 50
347.9613220478383937
 51
359.494289784185014
  0
ARC
  5
85F8
  8
0
 10
4315.9696262052393649
 20
149.2952858455300884
 30
0.0
 40
0.4042120208348131
 50
359.494289784185014
 51
2.3627402530546782
  0
ARC
  5
85F9
  8
0
 10
4316.0485674748206293
 20
149.2985430403134899
 30
0.0
 40
0.325203582292068
 50
2.3627402530546782
 51
7.823112700963331
  0
ARC
  5
85FA
  8
0
 10
4315.840943366762076
 20
149.2700167449270054
 30
0.0
 40
0.5347781985408985
 50
7.823112700963331
 51
9.4486111097752392
  0
ARC
  5
85FB
  8
0
 10
4316.4042806275738258
 20
149.3570559435196117
 30
0.0
 40
0.0405034063853799
 50
164.9487296810762018
 51
181.5661158922042091
  0
ARC
  5
85FC
  8
0
 10
4317.1486298987438204
 20
149.3774069648854947
 30
0.0
 40
0.7851308310489697
 50
181.5661158922042091
 51
183.3290391205945014
  0
ARC
  5
85FD
  8
0
 10
4316.6399939055636423
 20
149.3478205423054135
 30
0.0
 40
0.2756350705575634
 50
183.3290391205945014
 51
188.144821552531198
  0
ARC
  5
85FE
  8
0
 10
4316.7898730447359412
 20
149.3692711388567886
 30
0.0
 40
0.4270414259443596
 50
188.144821552531198
 51
190.4702907630195057
  0
ARC
  5
85FF
  8
0
 10
4316.3909699618543527
 20
149.2955527478374051
 30
0.0
 40
0.0213838477976568
 50
190.4702907630195057
 51
209.1450137364062982
  0
ARC
  5
8600
  8
0
 10
4316.2855314809166885
 20
149.3581099090550879
 30
0.0
 40
0.0547746727087151
 50
12.9147905186316798
 51
19.3427358438421493
  0
ARC
  5
8601
  8
0
 10
4316.3193668038611577
 20
149.3699872101691142
 30
0.0
 40
0.0189152337768411
 50
19.3427358438406216
 51
34.4504993390127083
  0
ARC
  5
8602
  8
0
 10
4316.3292787647151272
 20
149.3767869111906066
 30
0.0
 40
0.0068951297014383
 50
34.4504993390110315
 51
72.7849114113915476
  0
ARC
  5
8603
  8
0
 10
4316.3444432717369637
 20
149.3705379698805871
 30
0.0
 40
0.0183569184902187
 50
135.6370809639456922
 51
152.3452535775161039
  0
ARC
  5
8604
  8
0
 10
4316.3760233590937787
 20
149.3521002129004103
 30
0.0
 40
0.0549125754211856
 50
150.5985683520565033
 51
158.9225354257683023
  0
ARC
  5
8605
  8
0
 10
4316.4612736863946338
 20
149.322789320004091
 30
0.0
 40
0.1450380511116787
 50
160.2297211304295956
 51
179.7050061598652917
  0
ARC
  5
8606
  8
0
 10
4316.4686068323580912
 20
149.3193381476841921
 30
0.0
 40
0.1524270919551749
 50
178.4218476949847911
 51
198.3930334136699116
  0
ARC
  5
8607
  8
0
 10
4316.3760295494157617
 20
149.2891794886324988
 30
0.0
 40
0.055066300302684
 50
199.0103285420933901
 51
215.1044834043865137
  0
ARC
  5
8608
  8
0
 10
4316.2278276775232371
 20
149.296956012462914
 30
0.0
 40
0.1140790971028962
 50
343.8260597459640735
 51
349.3298160950259899
  0
ARC
  5
8609
  8
0
 10
4316.3223475827389848
 20
149.2695420543159912
 30
0.0
 40
0.0156639682692754
 50
320.9851557981456267
 51
343.8260597459640735
  0
ARC
  5
860A
  8
0
 10
4316.3296838664382449
 20
149.2635981011925139
 30
0.0
 40
0.0062219537999192
 50
282.019449077006584
 51
320.9851557981456267
  0
LINE
  5
860B
  8
0
 10
4316.2659402645776936
 20
149.2476536354112966
 30
0.0
 11
4316.3222018933856816
 21
149.2415706010457939
 31
0.0
  0
ARC
  5
860C
  8
0
 10
4316.3220352079197255
 20
149.240028936937307
 30
0.0
 40
0.0015506489827731
 50
54.1886167443571765
 51
83.8291241840748853
  0
ARC
  5
860D
  8
0
 10
4316.3202001659883535
 20
149.2374856537240078
 30
0.0
 40
0.0046868359029735
 50
37.1798522959403712
 51
54.1886167443545688
  0
ARC
  5
860E
  8
0
 10
4316.3148163214791566
 20
149.2334020764714921
 30
0.0
 40
0.0114441567373243
 50
23.583643893698099
 51
37.1798522959390709
  0
ARC
  5
860F
  8
0
 10
4316.2703854475466869
 20
149.2140058075972036
 30
0.0
 40
0.0599242331064052
 50
8.8689536544861394
 51
23.583643893698099
  0
ARC
  5
8610
  8
0
 10
4315.3859992246398178
 20
149.0760055451013955
 30
0.0
 40
0.9550125325016532
 50
7.6864440749674374
 51
8.8689536544861394
  0
ARC
  5
8611
  8
0
 10
4316.1966766845343955
 20
149.1854181353783986
 30
0.0
 40
0.1369849908562514
 50
357.2839240717304961
 51
7.6864440749674374
  0
ARC
  5
8612
  8
0
 10
4315.9961288767563019
 20
149.194932125079589
 30
0.0
 40
0.3377583436814899
 50
355.678704666355884
 51
357.2839240717304961
  0
ARC
  5
8613
  8
0
 10
4316.3017978069601668
 20
149.1718345081700932
 30
0.0
 40
0.031217979621363
 50
342.5539432433495222
 51
355.678704666355884
  0
ARC
  5
8614
  8
0
 10
4316.321766345229662
 20
149.1655591152162117
 30
0.0
 40
0.0102865898591458
 50
329.4254357397476838
 51
342.5539432433503748
  0
ARC
  5
8615
  8
0
 10
4316.3286026990908795
 20
149.1615202021181119
 30
0.0
 40
0.0023462779548618
 50
279.7477017414429952
 51
329.4254357397277886
  0
LINE
  5
8616
  8
0
 10
4316.3289999473427088
 20
149.159207797727106
 30
0.0
 11
4316.2662775990465889
 21
149.1409514230857951
 31
0.0
  0
ARC
  5
8617
  8
0
 10
4316.2915410374571366
 20
149.1644572839240936
 30
0.0
 40
0.0345074892457892
 50
222.9360332010301136
 51
250.1181504785103016
  0
ARC
  5
8618
  8
0
 10
4316.2836707542828663
 20
149.1426943284859874
 30
0.0
 40
0.0113651560303872
 50
250.1181504785103016
 51
286.8868951846393998
  0
ARC
  5
8619
  8
0
 10
4316.2832186588093464
 20
149.1522706452153955
 30
0.0
 40
0.0207929969585575
 50
280.3998597420920191
 51
307.7215480156173726
  0
ARC
  5
861A
  8
0
 10
4316.2659920276601042
 20
149.1692698590655937
 30
0.0
 40
0.0448949676394773
 50
311.841688870338487
 51
328.5116982501078837
  0
ARC
  5
861B
  8
0
 10
4316.2567385397278485
 20
149.1723755458035896
 30
0.0
 40
0.0544518812178513
 50
330.8113897495520064
 51
339.0771514653329177
  0
ARC
  5
861C
  8
0
 10
4316.3654165521511459
 20
149.2242781214353045
 30
0.0
 40
0.0478161699180445
 50
158.6162287349478106
 51
182.0307928170682885
  0
ARC
  5
861D
  8
0
 10
4316.5400786520467591
 20
149.2189783320930871
 30
0.0
 40
0.2224774527905229
 50
179.0714555668855041
 51
189.353643756538105
  0
ARC
  5
861E
  8
0
 10
4316.3925612284338058
 20
149.1908886521063948
 30
0.0
 40
0.0724526935296346
 50
186.3943065063537858
 51
201.2111385806468036
  0
ARC
  5
861F
  8
0
 10
4316.3427138308015856
 20
149.1715429714485026
 30
0.0
 40
0.0189829038259022
 50
201.2111385806468036
 51
221.190382882042087
  0
ARC
  5
8620
  8
0
 10
4316.2452246570428542
 20
149.1920942173294122
 30
0.0
 40
0.0839340037863295
 50
350.1255422978525189
 51
22.0015821893695396
  0
ARC
  5
8621
  8
0
 10
4316.3939234088556987
 20
149.2078898897584054
 30
0.0
 40
0.0725843178698737
 50
167.5496504933761912
 51
204.5774739938472067
  0
ARC
  5
8622
  8
0
 10
4316.2745233244368137
 20
149.2267773142212093
 30
0.0
 40
0.0339564404985249
 50
29.5660098732294507
 51
51.7305837212429083
  0
ARC
  5
8623
  8
0
 10
4316.2841779967720868
 20
149.2390156750986137
 30
0.0
 40
0.0183682983746746
 50
51.7305837212446917
 51
83.0738586921061142
  0
ARC
  5
8624
  8
0
 10
4316.2840468388403679
 20
149.2379359749502044
 30
0.0
 40
0.019455935636537
 50
83.0738586921061142
 51
106.2332311138828942
  0
ARC
  5
8625
  8
0
 10
4316.2889346560277772
 20
149.229405916444307
 30
0.0
 40
0.0291039844238029
 50
110.7824335501005066
 51
131.8208718752597974
  0
ARC
  5
8626
  8
0
 10
4316.3009631909908421
 20
149.2147337052196008
 30
0.0
 40
0.0480658629208286
 50
130.8440470212158004
 51
136.7728773327887097
  0
ARC
  5
8627
  8
0
 10
4316.3171468096452372
 20
149.2015156454208125
 30
0.0
 40
0.0689262241674556
 50
137.9805966977025093
 51
157.7112387408191978
  0
ARC
  5
8628
  8
0
 10
4316.333999574140762
 20
149.1944825232056075
 30
0.0
 40
0.0871873817553911
 50
157.6351335886328116
 51
189.1784445969973945
  0
ARC
  5
8629
  8
0
 10
4316.3237031924509211
 20
149.1916046672837126
 30
0.0
 40
0.0765731671254818
 50
188.2815307571665073
 51
221.4144658191235919
  0
LINE
  5
862A
  8
0
 10
4316.3246962622661158
 20
149.1193817603376885
 30
0.0
 11
4316.3652371645921448
 21
149.1150905318687023
 31
0.0
  0
LINE
  5
862B
  8
0
 10
4316.323878128026081
 20
149.0187756164231985
 30
0.0
 11
4316.3724419202735589
 21
149.0327397983595858
 31
0.0
  0
ARC
  5
862C
  8
0
 10
4316.4642044496640665
 20
149.0817790653620136
 30
0.0
 40
0.0982709726132183
 50
171.9856945399189954
 51
198.0925870778519879
  0
ARC
  5
862D
  8
0
 10
4316.2403931076632944
 20
149.0620440323124001
 30
0.0
 40
0.1308443935795243
 50
355.2726856201114742
 51
14.80559841248939
  0
ARC
  5
862E
  8
0
 10
4316.3651904467706117
 20
149.1146861794958909
 30
0.0
 40
0.0004070422534776
 50
54.1976512454224135
 51
83.409416809537916
  0
ARC
  5
862F
  8
0
 10
4316.3640747048420963
 20
149.1134113611192049
 30
0.0
 40
0.0020997101164208
 50
24.1081011293932583
 51
49.8505723141290176
  0
ARC
  5
8630
  8
0
 10
4316.3459747293100008
 20
149.1053117793352101
 30
0.0
 40
0.0219292925454906
 50
19.7726947387734384
 51
24.1081011293940008
  0
ARC
  5
8631
  8
0
 10
4316.334165859389941
 20
149.1010666806265874
 30
0.0
 40
0.0344780084890049
 50
7.121163259818637
 51
19.7726947387734384
  0
ARC
  5
8632
  8
0
 10
4316.3723380318324416
 20
149.0330928546391078
 30
0.0
 40
0.0003670036547507
 50
286.579154366724083
 51
302.9893118037446129
  0
ARC
  5
8633
  8
0
 10
4316.3721660064456955
 20
149.0333578587161867
 30
0.0
 40
0.0006829465199482
 50
302.9893118037962836
 51
332.8627405182321013
  0
ARC
  5
8634
  8
0
 10
4316.368706529578958
 20
149.0351310022271036
 30
0.0
 40
0.0045703644412038
 50
332.8627405182321013
 51
347.9613220478383937
  0
ARC
  5
8635
  8
0
 10
4316.3483338029600418
 20
149.039475735132612
 30
0.0
 40
0.0254012236151506
 50
347.9613220478383937
 51
359.494289784185014
  0
ARC
  5
8636
  8
0
 10
4315.9695377610296418
 20
149.0428191926147008
 30
0.0
 40
0.4042120208348131
 50
359.494289784185014
 51
2.3627402530546782
  0
ARC
  5
8637
  8
0
 10
4316.0484790306109062
 20
149.0460763873981023
 30
0.0
 40
0.325203582292068
 50
2.3627402530546782
 51
7.823112700963331
  0
ARC
  5
8638
  8
0
 10
4315.8408549225523529
 20
149.0175500920115894
 30
0.0
 40
0.5347781985408985
 50
7.823112700963331
 51
9.4486111097752392
  0
ARC
  5
8639
  8
0
 10
4316.4041921833650122
 20
149.1045892906041956
 30
0.0
 40
0.0405034063853799
 50
164.9487296810762018
 51
181.5661158922042091
  0
ARC
  5
863A
  8
0
 10
4317.1485414545340973
 20
149.1249403119701071
 30
0.0
 40
0.7851308310489697
 50
181.5661158922042091
 51
183.3290391205945014
  0
ARC
  5
863B
  8
0
 10
4316.6399054613557382
 20
149.0953538893899122
 30
0.0
 40
0.2756350705575634
 50
183.3290391205945014
 51
188.144821552531198
  0
ARC
  5
863C
  8
0
 10
4316.7897846005280371
 20
149.116804485941401
 30
0.0
 40
0.4270414259443596
 50
188.144821552531198
 51
190.4702907630195057
  0
ARC
  5
863D
  8
0
 10
4316.3908815176446296
 20
149.0430860949219891
 30
0.0
 40
0.0213838477976568
 50
190.4702907630195057
 51
209.1450137364062982
  0
ARC
  5
863E
  8
0
 10
4316.2854430367069654
 20
149.1056432561397003
 30
0.0
 40
0.0547746727087151
 50
12.9147905186316798
 51
19.3427358438421493
  0
ARC
  5
863F
  8
0
 10
4316.3192783596514346
 20
149.1175205572534139
 30
0.0
 40
0.0189152337768411
 50
19.3427358438406216
 51
34.4504993390127083
  0
ARC
  5
8640
  8
0
 10
4316.3291903205072231
 20
149.1243202582751906
 30
0.0
 40
0.0068951297014383
 50
34.4504993390110315
 51
72.7849114113915476
  0
ARC
  5
8641
  8
0
 10
4316.3443548275281501
 20
149.1180713169651995
 30
0.0
 40
0.0183569184902187
 50
135.6370809639456922
 51
152.3452535775161039
  0
ARC
  5
8642
  8
0
 10
4316.3759349148840556
 20
149.0996335599849942
 30
0.0
 40
0.0549125754211856
 50
150.5985683520565033
 51
158.9225354257683023
  0
ARC
  5
8643
  8
0
 10
4316.4611852421867297
 20
149.0703226670887034
 30
0.0
 40
0.1450380511116787
 50
160.2297211304295956
 51
179.7050061598652917
  0
ARC
  5
8644
  8
0
 10
4316.4685183881465491
 20
149.0668714947688045
 30
0.0
 40
0.1524270919551749
 50
178.4218476949847911
 51
198.3930334136699116
  0
ARC
  5
8645
  8
0
 10
4316.3759411052069481
 20
149.0367128357167985
 30
0.0
 40
0.055066300302684
 50
199.0103285420933901
 51
215.1044834043865137
  0
ARC
  5
8646
  8
0
 10
4316.227739233315333
 20
149.044489359547498
 30
0.0
 40
0.1140790971028962
 50
343.8260597459640735
 51
349.3298160950259899
  0
ARC
  5
8647
  8
0
 10
4316.3222591385292617
 20
149.0170754014006036
 30
0.0
 40
0.0156639682692754
 50
320.9851557981456267
 51
343.8260597459640735
  0
ARC
  5
8648
  8
0
 10
4316.3295954222294313
 20
149.0111314482770979
 30
0.0
 40
0.0062219537999192
 50
282.019449077006584
 51
320.9851557981456267
  0
LINE
  5
8649
  8
0
 10
4316.2658518203697895
 20
148.9951869824955963
 30
0.0
 11
4316.322113449176868
 21
148.9891039481304063
 31
0.0
  0
ARC
  5
864A
  8
0
 10
4316.3219467637118214
 20
148.9875622840216067
 30
0.0
 40
0.0015506489827731
 50
54.1886167443571765
 51
83.8291241840748853
  0
ARC
  5
864B
  8
0
 10
4316.3201117217786305
 20
148.9850190008085917
 30
0.0
 40
0.0046868359029735
 50
37.1798522959403712
 51
54.1886167443545688
  0
ARC
  5
864C
  8
0
 10
4316.3147278772712525
 20
148.9809354235561045
 30
0.0
 40
0.0114441567373243
 50
23.583643893698099
 51
37.1798522959390709
  0
ARC
  5
864D
  8
0
 10
4316.2702970033369638
 20
148.9615391546815033
 30
0.0
 40
0.0599242331064052
 50
8.8689536544861394
 51
23.583643893698099
  0
ARC
  5
864E
  8
0
 10
4315.3859107804319137
 20
148.8235388921860078
 30
0.0
 40
0.9550125325016532
 50
7.6864440749674374
 51
8.8689536544861394
  0
ARC
  5
864F
  8
0
 10
4316.1965882403255819
 20
148.932951482463011
 30
0.0
 40
0.1369849908562514
 50
357.2839240717304961
 51
7.6864440749674374
  0
ARC
  5
8650
  8
0
 10
4315.9960404325465788
 20
148.9424654721638035
 30
0.0
 40
0.3377583436814899
 50
355.678704666355884
 51
357.2839240717304961
  0
ARC
  5
8651
  8
0
 10
4316.3017093627504437
 20
148.9193678552547055
 30
0.0
 40
0.031217979621363
 50
342.5539432433495222
 51
355.678704666355884
  0
ARC
  5
8652
  8
0
 10
4316.3216779010199389
 20
148.9130924623007957
 30
0.0
 40
0.0102865898591458
 50
329.4254357397476838
 51
342.5539432433503748
  0
ARC
  5
8653
  8
0
 10
4316.3285142548820659
 20
148.9090535492026959
 30
0.0
 40
0.0023462779548618
 50
279.7477017414429952
 51
329.4254357397277886
  0
LINE
  5
8654
  8
0
 10
4316.3289115031329857
 20
148.9067411448114058
 30
0.0
 11
4316.2661891548377753
 21
148.8884847701704075
 31
0.0
  0
ARC
  5
8655
  8
0
 10
4316.291452593248323
 20
148.911990631008706
 30
0.0
 40
0.0345074892457892
 50
222.9360332010301136
 51
250.1181504785103016
  0
ARC
  5
8656
  8
0
 10
4316.2835823100731432
 20
148.8902276755702871
 30
0.0
 40
0.0113651560303872
 50
250.1181504785103016
 51
286.8868951846393998
  0
ARC
  5
8657
  8
0
 10
4316.2831302145996233
 20
148.8998039923000078
 30
0.0
 40
0.0207929969585575
 50
280.3998597420920191
 51
307.7215480156173726
  0
ARC
  5
8658
  8
0
 10
4316.2659035834503811
 20
148.9168032061498934
 30
0.0
 40
0.0448949676394773
 50
311.841688870338487
 51
328.5116982501078837
  0
ARC
  5
8659
  8
0
 10
4316.2566500955190349
 20
148.919908892888202
 30
0.0
 40
0.0544518812178513
 50
330.8113897495520064
 51
339.0771514653329177
  0
ARC
  5
865A
  8
0
 10
4316.3653281079423323
 20
148.9718114685198884
 30
0.0
 40
0.0478161699180445
 50
158.6162287349478106
 51
182.0307928170682885
  0
ARC
  5
865B
  8
0
 10
4316.5399902078379455
 20
148.9665116791773869
 30
0.0
 40
0.2224774527905229
 50
179.0714555668855041
 51
189.353643756538105
  0
ARC
  5
865C
  8
0
 10
4316.3924727842249922
 20
148.9384219991910072
 30
0.0
 40
0.0724526935296346
 50
186.3943065063537858
 51
201.2111385806468036
  0
ARC
  5
865D
  8
0
 10
4316.342625386590953
 20
148.9190763185326887
 30
0.0
 40
0.0189829038259022
 50
201.2111385806468036
 51
221.190382882042087
  0
ARC
  5
865E
  8
0
 10
4316.2451362128340406
 20
148.939627564413712
 30
0.0
 40
0.0839340037863295
 50
350.1255422978525189
 51
22.0015821893695396
  0
ARC
  5
865F
  8
0
 10
4316.3938349646477945
 20
148.9554232368429894
 30
0.0
 40
0.0725843178698737
 50
167.5496504933761912
 51
204.5774739938472067
  0
ARC
  5
8660
  8
0
 10
4316.2744348802261811
 20
148.974310661305509
 30
0.0
 40
0.0339564404985249
 50
29.5660098732294507
 51
51.7305837212429083
  0
ARC
  5
8661
  8
0
 10
4316.2840895525632732
 20
148.9865490221833113
 30
0.0
 40
0.0183682983746746
 50
51.7305837212446917
 51
83.0738586921061142
  0
ARC
  5
8662
  8
0
 10
4316.2839583946306448
 20
148.9854693220347883
 30
0.0
 40
0.019455935636537
 50
83.0738586921061142
 51
106.2332311138828942
  0
ARC
  5
8663
  8
0
 10
4316.2888462118180541
 20
148.9769392635290046
 30
0.0
 40
0.0291039844238029
 50
110.7824335501005066
 51
131.8208718752597974
  0
ARC
  5
8664
  8
0
 10
4316.3008747467820285
 20
148.9622670523039005
 30
0.0
 40
0.0480658629208286
 50
130.8440470212158004
 51
136.7728773327887097
  0
ARC
  5
8665
  8
0
 10
4316.3170583654364236
 20
148.9490489925053964
 30
0.0
 40
0.0689262241674556
 50
137.9805966977025093
 51
157.7112387408191978
  0
ARC
  5
8666
  8
0
 10
4316.3339111299319484
 20
148.9420158702903052
 30
0.0
 40
0.0871873817553911
 50
157.6351335886328116
 51
189.1784445969973945
  0
ARC
  5
8667
  8
0
 10
4316.3236147482430169
 20
148.9391380143682966
 30
0.0
 40
0.0765731671254818
 50
188.2815307571665073
 51
221.4144658191235919
  0
LINE
  5
8668
  8
0
 10
4316.3246034871699521
 20
148.8669071995643947
 30
0.0
 11
4316.3651443894950717
 21
148.8626159710954084
 31
0.0
  0
LINE
  5
8669
  8
0
 10
4316.3237853529290078
 20
148.7663010556495067
 30
0.0
 11
4316.3723491451783048
 21
148.7802652375862067
 31
0.0
  0
ARC
  5
866A
  8
0
 10
4316.4641116745679028
 20
148.8293045045882934
 30
0.0
 40
0.0982709726132183
 50
171.9856945399189954
 51
198.0925870778519879
  0
ARC
  5
866B
  8
0
 10
4316.2403003325662212
 20
148.8095694715389925
 30
0.0
 40
0.1308443935795243
 50
355.2726856201114742
 51
14.80559841248939
  0
ARC
  5
866C
  8
0
 10
4316.3650976716744481
 20
148.862211618722597
 30
0.0
 40
0.0004070422534776
 50
54.1976512454224135
 51
83.409416809537916
  0
ARC
  5
866D
  8
0
 10
4316.3639819297450231
 20
148.8609368003455131
 30
0.0
 40
0.0020997101164208
 50
24.1081011293932583
 51
49.8505723141290176
  0
ARC
  5
866E
  8
0
 10
4316.3458819542129277
 20
148.8528372185618878
 30
0.0
 40
0.0219292925454906
 50
19.7726947387734384
 51
24.1081011293940008
  0
ARC
  5
866F
  8
0
 10
4316.3340730842937774
 20
148.8485921198532935
 30
0.0
 40
0.0344780084890049
 50
7.121163259818637
 51
19.7726947387734384
  0
ARC
  5
8670
  8
0
 10
4316.3722452567353685
 20
148.7806182938655013
 30
0.0
 40
0.0003670036547507
 50
286.579154366724083
 51
302.9893118037446129
  0
ARC
  5
8671
  8
0
 10
4316.3720732313486224
 20
148.7808832979426086
 30
0.0
 40
0.0006829465199482
 50
302.9893118037962836
 51
332.8627405182321013
  0
ARC
  5
8672
  8
0
 10
4316.3686137544827943
 20
148.7826564414538097
 30
0.0
 40
0.0045703644412038
 50
332.8627405182321013
 51
347.9613220478383937
  0
ARC
  5
8673
  8
0
 10
4316.3482410278638781
 20
148.7870011743590055
 30
0.0
 40
0.0254012236151506
 50
347.9613220478383937
 51
359.494289784185014
  0
ARC
  5
8674
  8
0
 10
4315.9694449859343877
 20
148.790344631841009
 30
0.0
 40
0.4042120208348131
 50
359.494289784185014
 51
2.3627402530546782
  0
ARC
  5
8675
  8
0
 10
4316.0483862555147425
 20
148.7936018266244957
 30
0.0
 40
0.325203582292068
 50
2.3627402530546782
 51
7.823112700963331
  0
ARC
  5
8676
  8
0
 10
4315.8407621474552798
 20
148.7650755312380113
 30
0.0
 40
0.5347781985408985
 50
7.823112700963331
 51
9.4486111097752392
  0
ARC
  5
8677
  8
0
 10
4316.4040994082688485
 20
148.8521147298309018
 30
0.0
 40
0.0405034063853799
 50
164.9487296810762018
 51
181.5661158922042091
  0
ARC
  5
8678
  8
0
 10
4317.1484486794379336
 20
148.8724657511968132
 30
0.0
 40
0.7851308310489697
 50
181.5661158922042091
 51
183.3290391205945014
  0
ARC
  5
8679
  8
0
 10
4316.6398126862586651
 20
148.8428793286163057
 30
0.0
 40
0.2756350705575634
 50
183.3290391205945014
 51
188.144821552531198
  0
ARC
  5
867A
  8
0
 10
4316.7896918254300545
 20
148.8643299251677945
 30
0.0
 40
0.4270414259443596
 50
188.144821552531198
 51
190.4702907630195057
  0
ARC
  5
867B
  8
0
 10
4316.3907887425475565
 20
148.7906115341486952
 30
0.0
 40
0.0213838477976568
 50
190.4702907630195057
 51
209.1450137364062982
  0
ARC
  5
867C
  8
0
 10
4316.2853502616108017
 20
148.8531686953660937
 30
0.0
 40
0.0547746727087151
 50
12.9147905186316798
 51
19.3427358438421493
  0
ARC
  5
867D
  8
0
 10
4316.3191855845552709
 20
148.8650459964800916
 30
0.0
 40
0.0189152337768411
 50
19.3427358438406216
 51
34.4504993390127083
  0
ARC
  5
867E
  8
0
 10
4316.3290975454101499
 20
148.8718456975018967
 30
0.0
 40
0.0068951297014383
 50
34.4504993390110315
 51
72.7849114113915476
  0
ARC
  5
867F
  8
0
 10
4316.3442620524310769
 20
148.8655967561915929
 30
0.0
 40
0.0183569184902187
 50
135.6370809639456922
 51
152.3452535775161039
  0
ARC
  5
8680
  8
0
 10
4316.3758421397869824
 20
148.8471589992113877
 30
0.0
 40
0.0549125754211856
 50
150.5985683520565033
 51
158.9225354257683023
  0
ARC
  5
8681
  8
0
 10
4316.4610924670896566
 20
148.8178481063154095
 30
0.0
 40
0.1450380511116787
 50
160.2297211304295956
 51
179.7050061598652917
  0
ARC
  5
8682
  8
0
 10
4316.4684256130512949
 20
148.8143969339951127
 30
0.0
 40
0.1524270919551749
 50
178.4218476949847911
 51
198.3930334136699116
  0
ARC
  5
8683
  8
0
 10
4316.375848330109875
 20
148.7842382749435046
 30
0.0
 40
0.055066300302684
 50
199.0103285420933901
 51
215.1044834043865137
  0
ARC
  5
8684
  8
0
 10
4316.2276464582182598
 20
148.7920147987742041
 30
0.0
 40
0.1140790971028962
 50
343.8260597459640735
 51
349.3298160950259899
  0
ARC
  5
8685
  8
0
 10
4316.322166363433098
 20
148.7646008406269971
 30
0.0
 40
0.0156639682692754
 50
320.9851557981456267
 51
343.8260597459640735
  0
ARC
  5
8686
  8
0
 10
4316.3295026471323581
 20
148.7586568875034914
 30
0.0
 40
0.0062219537999192
 50
282.019449077006584
 51
320.9851557981456267
  0
LINE
  5
8687
  8
0
 10
4316.2657590452727163
 20
148.7427124217223025
 30
0.0
 11
4316.3220206740788853
 21
148.736629387356686
 31
0.0
  0
ARC
  5
8688
  8
0
 10
4316.3218539886138387
 20
148.7350877232483128
 30
0.0
 40
0.0015506489827731
 50
54.1886167443571765
 51
83.8291241840748853
  0
ARC
  5
8689
  8
0
 10
4316.3200189466815573
 20
148.7325444400350136
 30
0.0
 40
0.0046868359029735
 50
37.1798522959403712
 51
54.1886167443545688
  0
ARC
  5
868A
  8
0
 10
4316.3146351021741793
 20
148.728460862782498
 30
0.0
 40
0.0114441567373243
 50
23.583643893698099
 51
37.1798522959390709
  0
ARC
  5
868B
  8
0
 10
4316.2702042282408001
 20
148.7090645939082094
 30
0.0
 40
0.0599242331064052
 50
8.8689536544861394
 51
23.583643893698099
  0
ARC
  5
868C
  8
0
 10
4315.3858180053348406
 20
148.571064331412714
 30
0.0
 40
0.9550125325016532
 50
7.6864440749674374
 51
8.8689536544861394
  0
ARC
  5
868D
  8
0
 10
4316.1964954652275992
 20
148.6804769216896887
 30
0.0
 40
0.1369849908562514
 50
357.2839240717304961
 51
7.6864440749674374
  0
ARC
  5
868E
  8
0
 10
4315.9959476574513246
 20
148.6899909113905096
 30
0.0
 40
0.3377583436814899
 50
355.678704666355884
 51
357.2839240717304961
  0
ARC
  5
868F
  8
0
 10
4316.3016165876533705
 20
148.666893294481099
 30
0.0
 40
0.031217979621363
 50
342.5539432433495222
 51
355.678704666355884
  0
ARC
  5
8690
  8
0
 10
4316.3215851259237752
 20
148.6606179015271891
 30
0.0
 40
0.0102865898591458
 50
329.4254357397476838
 51
342.5539432433503748
  0
ARC
  5
8691
  8
0
 10
4316.3284214797840832
 20
148.6565789884290893
 30
0.0
 40
0.0023462779548618
 50
279.7477017414429952
 51
329.4254357397277886
  0
LINE
  5
8692
  8
0
 10
4316.328818728036822
 20
148.6542665840381119
 30
0.0
 11
4316.2660963797407021
 21
148.6360102093971136
 31
0.0
  0
ARC
  5
8693
  8
0
 10
4316.2913598181503403
 20
148.6595160702350995
 30
0.0
 40
0.0345074892457892
 50
222.9360332010301136
 51
250.1181504785103016
  0
ARC
  5
8694
  8
0
 10
4316.2834895349769795
 20
148.6377531147969933
 30
0.0
 40
0.0113651560303872
 50
250.1181504785103016
 51
286.8868951846393998
  0
ARC
  5
8695
  8
0
 10
4316.2830374395025501
 20
148.647329431526714
 30
0.0
 40
0.0207929969585575
 50
280.3998597420920191
 51
307.7215480156173726
  0
ARC
  5
8696
  8
0
 10
4316.2658108083542174
 20
148.6643286453764858
 30
0.0
 40
0.0448949676394773
 50
311.841688870338487
 51
328.5116982501078837
  0
ARC
  5
8697
  8
0
 10
4316.2565573204210523
 20
148.6674343321149081
 30
0.0
 40
0.0544518812178513
 50
330.8113897495520064
 51
339.0771514653329177
  0
ARC
  5
8698
  8
0
 10
4316.3652353328461686
 20
148.7193369077465945
 30
0.0
 40
0.0478161699180445
 50
158.6162287349478106
 51
182.0307928170682885
  0
ARC
  5
8699
  8
0
 10
4316.5398974327408723
 20
148.7140371184040077
 30
0.0
 40
0.2224774527905229
 50
179.0714555668855041
 51
189.353643756538105
  0
ARC
  5
869A
  8
0
 10
4316.3923800091288285
 20
148.6859474384177133
 30
0.0
 40
0.0724526935296346
 50
186.3943065063537858
 51
201.2111385806468036
  0
ARC
  5
869B
  8
0
 10
4316.3425326114947893
 20
148.6666017577593948
 30
0.0
 40
0.0189829038259022
 50
201.2111385806468036
 51
221.190382882042087
  0
ARC
  5
869C
  8
0
 10
4316.2450434377369675
 20
148.6871530036403897
 30
0.0
 40
0.0839340037863295
 50
350.1255422978525189
 51
22.0015821893695396
  0
ARC
  5
869D
  8
0
 10
4316.3937421895507214
 20
148.7029486760694112
 30
0.0
 40
0.0725843178698737
 50
167.5496504933761912
 51
204.5774739938472067
  0
ARC
  5
869E
  8
0
 10
4316.2743421051300174
 20
148.7218361005321867
 30
0.0
 40
0.0339564404985249
 50
29.5660098732294507
 51
51.7305837212429083
  0
ARC
  5
869F
  8
0
 10
4316.2839967774671095
 20
148.7340744614099037
 30
0.0
 40
0.0183682983746746
 50
51.7305837212446917
 51
83.0738586921061142
  0
ARC
  5
86A0
  8
0
 10
4316.2838656195335716
 20
148.7329947612614944
 30
0.0
 40
0.019455935636537
 50
83.0738586921061142
 51
106.2332311138828942
  0
ARC
  5
86A1
  8
0
 10
4316.288753436720981
 20
148.7244647027553128
 30
0.0
 40
0.0291039844238029
 50
110.7824335501005066
 51
131.8208718752597974
  0
ARC
  5
86A2
  8
0
 10
4316.3007819716858648
 20
148.7097924915306066
 30
0.0
 40
0.0480658629208286
 50
130.8440470212158004
 51
136.7728773327887097
  0
ARC
  5
86A3
  8
0
 10
4316.3169655903393505
 20
148.6965744317317899
 30
0.0
 40
0.0689262241674556
 50
137.9805966977025093
 51
157.7112387408191978
  0
ARC
  5
86A4
  8
0
 10
4316.3338183548357847
 20
148.6895413095166134
 30
0.0
 40
0.0871873817553911
 50
157.6351335886328116
 51
189.1784445969973945
  0
ARC
  5
86A5
  8
0
 10
4316.3235219731459438
 20
148.6866634535946901
 30
0.0
 40
0.0765731671254818
 50
188.2815307571665073
 51
221.4144658191235919
  0
LINE
  5
86A6
  8
0
 10
4316.3246034871690426
 20
148.6149386955979139
 30
0.0
 11
4316.3651443894950717
 21
148.6106474671288993
 31
0.0
  0
LINE
  5
86A7
  8
0
 10
4316.3237853529290078
 20
148.5143325516833102
 30
0.0
 11
4316.3723491451783048
 21
148.5282967336200102
 31
0.0
  0
ARC
  5
86A8
  8
0
 10
4316.4641116745679028
 20
148.5773360006220969
 30
0.0
 40
0.0982709726132183
 50
171.9856945399189954
 51
198.0925870778519879
  0
ARC
  5
86A9
  8
0
 10
4316.2403003325662212
 20
148.557600967572796
 30
0.0
 40
0.1308443935795243
 50
355.2726856201114742
 51
14.80559841248939
  0
ARC
  5
86AA
  8
0
 10
4316.3650976716753576
 20
148.6102431147562868
 30
0.0
 40
0.0004070422534776
 50
54.1976512454224135
 51
83.409416809537916
  0
ARC
  5
86AB
  8
0
 10
4316.3639819297450231
 20
148.6089682963792882
 30
0.0
 40
0.0020997101164208
 50
24.1081011293932583
 51
49.8505723141290176
  0
ARC
  5
86AC
  8
0
 10
4316.3458819542129277
 20
148.6008687145952933
 30
0.0
 40
0.0219292925454906
 50
19.7726947387734384
 51
24.1081011293940008
  0
ARC
  5
86AD
  8
0
 10
4316.3340730842937774
 20
148.596623615887097
 30
0.0
 40
0.0344780084890049
 50
7.121163259818637
 51
19.7726947387734384
  0
ARC
  5
86AE
  8
0
 10
4316.3722452567353685
 20
148.5286497898991911
 30
0.0
 40
0.0003670036547507
 50
286.579154366724083
 51
302.9893118037446129
  0
ARC
  5
86AF
  8
0
 10
4316.3720732313486224
 20
148.5289147939764121
 30
0.0
 40
0.0006829465199482
 50
302.9893118037962836
 51
332.8627405182321013
  0
ARC
  5
86B0
  8
0
 10
4316.3686137544827943
 20
148.5306879374876132
 30
0.0
 40
0.0045703644412038
 50
332.8627405182321013
 51
347.9613220478383937
  0
ARC
  5
86B1
  8
0
 10
4316.3482410278638781
 20
148.5350326703926953
 30
0.0
 40
0.0254012236151506
 50
347.9613220478383937
 51
359.494289784185014
  0
ARC
  5
86B2
  8
0
 10
4315.9694449859343877
 20
148.5383761278748125
 30
0.0
 40
0.4042120208348131
 50
359.494289784185014
 51
2.3627402530546782
  0
ARC
  5
86B3
  8
0
 10
4316.0483862555147425
 20
148.5416333226582992
 30
0.0
 40
0.325203582292068
 50
2.3627402530546782
 51
7.823112700963331
  0
ARC
  5
86B4
  8
0
 10
4315.8407621474552798
 20
148.5131070272717011
 30
0.0
 40
0.5347781985408985
 50
7.823112700963331
 51
9.4486111097752392
  0
ARC
  5
86B5
  8
0
 10
4316.4040994082688485
 20
148.6001462258647052
 30
0.0
 40
0.0405034063853799
 50
164.9487296810762018
 51
181.5661158922042091
  0
ARC
  5
86B6
  8
0
 10
4317.1484486794379336
 20
148.6204972472305883
 30
0.0
 40
0.7851308310489697
 50
181.5661158922042091
 51
183.3290391205945014
  0
ARC
  5
86B7
  8
0
 10
4316.6398126862586651
 20
148.5909108246501091
 30
0.0
 40
0.2756350705575634
 50
183.3290391205945014
 51
188.144821552531198
  0
ARC
  5
86B8
  8
0
 10
4316.7896918254318734
 20
148.6123614212015127
 30
0.0
 40
0.4270414259443596
 50
188.144821552531198
 51
190.4702907630195057
  0
ARC
  5
86B9
  8
0
 10
4316.3907887425475565
 20
148.5386430301824134
 30
0.0
 40
0.0213838477976568
 50
190.4702907630195057
 51
209.1450137364062982
  0
ARC
  5
86BA
  8
0
 10
4316.2853502616108017
 20
148.601200191399812
 30
0.0
 40
0.0547746727087151
 50
12.9147905186316798
 51
19.3427358438421493
  0
ARC
  5
86BB
  8
0
 10
4316.3191855845552709
 20
148.6130774925138098
 30
0.0
 40
0.0189152337768411
 50
19.3427358438406216
 51
34.4504993390127083
  0
ARC
  5
86BC
  8
0
 10
4316.3290975454110594
 20
148.6198771935355865
 30
0.0
 40
0.0068951297014383
 50
34.4504993390110315
 51
72.7849114113915476
  0
ARC
  5
86BD
  8
0
 10
4316.3442620524310769
 20
148.6136282522253964
 30
0.0
 40
0.0183569184902187
 50
135.6370809639456922
 51
152.3452535775161039
  0
ARC
  5
86BE
  8
0
 10
4316.3758421397878919
 20
148.5951904952451059
 30
0.0
 40
0.0549125754211856
 50
150.5985683520565033
 51
158.9225354257683023
  0
ARC
  5
86BF
  8
0
 10
4316.4610924670896566
 20
148.565879602349213
 30
0.0
 40
0.1450380511116787
 50
160.2297211304295956
 51
179.7050061598652917
  0
ARC
  5
86C0
  8
0
 10
4316.4684256130512949
 20
148.5624284300288878
 30
0.0
 40
0.1524270919551749
 50
178.4218476949847911
 51
198.3930334136699116
  0
ARC
  5
86C1
  8
0
 10
4316.375848330109875
 20
148.5322697709773081
 30
0.0
 40
0.055066300302684
 50
199.0103285420933901
 51
215.1044834043865137
  0
ARC
  5
86C2
  8
0
 10
4316.2276464582182598
 20
148.5400462948076097
 30
0.0
 40
0.1140790971028962
 50
343.8260597459640735
 51
349.3298160950259899
  0
ARC
  5
86C3
  8
0
 10
4316.322166363433098
 20
148.5126323366606869
 30
0.0
 40
0.0156639682692754
 50
320.9851557981456267
 51
343.8260597459640735
  0
ARC
  5
86C4
  8
0
 10
4316.3295026471323581
 20
148.5066883835372096
 30
0.0
 40
0.0062219537999192
 50
282.019449077006584
 51
320.9851557981456267
  0
LINE
  5
86C5
  8
0
 10
4316.2657590452727163
 20
148.4907439177561059
 30
0.0
 11
4316.3220206740788853
 21
148.4846608833904895
 31
0.0
  0
ARC
  5
86C6
  8
0
 10
4316.3218539886138387
 20
148.4831192192820879
 30
0.0
 40
0.0015506489827731
 50
54.1886167443571765
 51
83.8291241840748853
  0
ARC
  5
86C7
  8
0
 10
4316.3200189466815573
 20
148.4805759360687887
 30
0.0
 40
0.0046868359029735
 50
37.1798522959403712
 51
54.1886167443545688
  0
ARC
  5
86C8
  8
0
 10
4316.3146351021741793
 20
148.4764923588163015
 30
0.0
 40
0.0114441567373243
 50
23.583643893698099
 51
37.1798522959390709
  0
ARC
  5
86C9
  8
0
 10
4316.2702042282408001
 20
148.4570960899418992
 30
0.0
 40
0.0599242331064052
 50
8.8689536544861394
 51
23.583643893698099
  0
ARC
  5
86CA
  8
0
 10
4315.3858180053348406
 20
148.319095827446489
 30
0.0
 40
0.9550125325016532
 50
7.6864440749674374
 51
8.8689536544861394
  0
ARC
  5
86CB
  8
0
 10
4316.1964954652275992
 20
148.4285084177234921
 30
0.0
 40
0.1369849908562514
 50
357.2839240717304961
 51
7.6864440749674374
  0
ARC
  5
86CC
  8
0
 10
4315.9959476574513246
 20
148.4380224074243131
 30
0.0
 40
0.3377583436814899
 50
355.678704666355884
 51
357.2839240717304961
  0
ARC
  5
86CD
  8
0
 10
4316.3016165876533705
 20
148.4149247905149025
 30
0.0
 40
0.031217979621363
 50
342.5539432433495222
 51
355.678704666355884
  0
ARC
  5
86CE
  8
0
 10
4316.3215851259237752
 20
148.4086493975609073
 30
0.0
 40
0.0102865898591458
 50
329.4254357397476838
 51
342.5539432433503748
  0
ARC
  5
86CF
  8
0
 10
4316.3284214797840832
 20
148.4046104844628076
 30
0.0
 40
0.0023462779548618
 50
279.7477017414429952
 51
329.4254357397277886
  0
LINE
  5
86D0
  8
0
 10
4316.328818728036822
 20
148.4022980800718869
 30
0.0
 11
4316.2660963797407021
 21
148.3840417054306045
 31
0.0
  0
ARC
  5
86D1
  8
0
 10
4316.2913598181503403
 20
148.407547566268903
 30
0.0
 40
0.0345074892457892
 50
222.9360332010301136
 51
250.1181504785103016
  0
ARC
  5
86D2
  8
0
 10
4316.2834895349769795
 20
148.3857846108307967
 30
0.0
 40
0.0113651560303872
 50
250.1181504785103016
 51
286.8868951846393998
  0
ARC
  5
86D3
  8
0
 10
4316.2830374395025501
 20
148.3953609275600911
 30
0.0
 40
0.0207929969585575
 50
280.3998597420920191
 51
307.7215480156173726
  0
ARC
  5
86D4
  8
0
 10
4316.2658108083542174
 20
148.4123601414102893
 30
0.0
 40
0.0448949676394773
 50
311.8416888703890208
 51
328.5116982501078837
  0
ARC
  5
86D5
  8
0
 10
4316.2565573204210523
 20
148.4154658281483137
 30
0.0
 40
0.0544518812178513
 50
330.8113897495520064
 51
339.0771514653329177
  0
ARC
  5
86D6
  8
0
 10
4316.3652353328461686
 20
148.4673684037803127
 30
0.0
 40
0.0478161699180445
 50
158.6162287349478106
 51
182.0307928170682885
  0
ARC
  5
86D7
  8
0
 10
4316.5398974327417818
 20
148.4620686144378112
 30
0.0
 40
0.2224774527905229
 50
179.0714555668855041
 51
189.353643756538105
  0
ARC
  5
86D8
  8
0
 10
4316.3923800091288285
 20
148.4339789344514031
 30
0.0
 40
0.0724526935296346
 50
186.3943065063537858
 51
201.2111385806468036
  0
ARC
  5
86D9
  8
0
 10
4316.3425326114947893
 20
148.4146332537931983
 30
0.0
 40
0.0189829038259022
 50
201.2111385806468036
 51
221.190382882042087
  0
ARC
  5
86DA
  8
0
 10
4316.2450434377369675
 20
148.4351844996741079
 30
0.0
 40
0.0839340037863295
 50
350.1255422978525189
 51
22.0015821893695396
  0
ARC
  5
86DB
  8
0
 10
4316.3937421895507214
 20
148.4509801721031863
 30
0.0
 40
0.0725843178698737
 50
167.5496504933761912
 51
204.5774739938472067
  0
ARC
  5
86DC
  8
0
 10
4316.2743421051300174
 20
148.4698675965659902
 30
0.0
 40
0.0339564404985249
 50
29.5660098732294507
 51
51.7305837212429083
  0
ARC
  5
86DD
  8
0
 10
4316.2839967774671095
 20
148.4821059574433946
 30
0.0
 40
0.0183682983746746
 50
51.7305837212446917
 51
83.0738586921061142
  0
ARC
  5
86DE
  8
0
 10
4316.2838656195353906
 20
148.4810262572952979
 30
0.0
 40
0.019455935636537
 50
83.0738586921061142
 51
106.2332311138828942
  0
ARC
  5
86DF
  8
0
 10
4316.2887534367218905
 20
148.4724961987890879
 30
0.0
 40
0.0291039844238029
 50
110.7824335501005066
 51
131.8208718752597974
  0
ARC
  5
86E0
  8
0
 10
4316.3007819716858648
 20
148.4578239875642964
 30
0.0
 40
0.0480658629208286
 50
130.8440470212158004
 51
136.7728773327887097
  0
ARC
  5
86E1
  8
0
 10
4316.3169655903393505
 20
148.4446059277655081
 30
0.0
 40
0.0689262241674556
 50
137.9805966977025093
 51
157.7112387408191978
  0
ARC
  5
86E2
  8
0
 10
4316.3338183548357847
 20
148.4375728055503885
 30
0.0
 40
0.0871873817553911
 50
157.6351335886328116
 51
189.1784445969973945
  0
ARC
  5
86E3
  8
0
 10
4316.3235219731459438
 20
148.4346949496284083
 30
0.0
 40
0.0765731671254818
 50
188.2815307571665073
 51
221.4144658191235919
  0
LINE
  5
86E4
  8
0
 10
4316.3245018645402524
 20
148.3624342596336874
 30
0.0
 11
4316.3650427668662815
 21
148.3581430311645875
 31
0.0
  0
LINE
  5
86E5
  8
0
 10
4316.3236837303002176
 20
148.261828115719112
 30
0.0
 11
4316.372247522550424
 21
148.275792297655812
 31
0.0
  0
ARC
  5
86E6
  8
0
 10
4316.4640100519391126
 20
148.3248315646578988
 30
0.0
 40
0.0982709726132183
 50
171.9856945399189954
 51
198.0925870778519879
  0
ARC
  5
86E7
  8
0
 10
4316.240198709937431
 20
148.3050965316085978
 30
0.0
 40
0.1308443935795243
 50
355.2726856201114742
 51
14.80559841248939
  0
ARC
  5
86E8
  8
0
 10
4316.3649960490447484
 20
148.3577386787920886
 30
0.0
 40
0.0004070422534776
 50
54.1976512454224135
 51
83.409416809537916
  0
ARC
  5
86E9
  8
0
 10
4316.3638803071162329
 20
148.35646386041509
 30
0.0
 40
0.0020997101164208
 50
24.1081011293932583
 51
49.8505723141290176
  0
ARC
  5
86EA
  8
0
 10
4316.345780331585047
 20
148.3483642786310952
 30
0.0
 40
0.0219292925454906
 50
19.7726947387734384
 51
24.1081011293940008
  0
ARC
  5
86EB
  8
0
 10
4316.3339714616649871
 20
148.3441191799228136
 30
0.0
 40
0.0344780084890049
 50
7.121163259818637
 51
19.7726947387734384
  0
ARC
  5
86EC
  8
0
 10
4316.3721436341047593
 20
148.276145353934993
 30
0.0
 40
0.0003670036547507
 50
286.579154366724083
 51
302.9893118037446129
  0
ARC
  5
86ED
  8
0
 10
4316.3719716087198321
 20
148.2764103580121002
 30
0.0
 40
0.0006829465199482
 50
302.9893118037962836
 51
332.8627405182321013
  0
ARC
  5
86EE
  8
0
 10
4316.3685121318540041
 20
148.2781835015233867
 30
0.0
 40
0.0045703644412038
 50
332.8627405182321013
 51
347.9613220478383937
  0
ARC
  5
86EF
  8
0
 10
4316.3481394052359974
 20
148.2825282344284972
 30
0.0
 40
0.0254012236151506
 50
347.9613220478383937
 51
359.494289784185014
  0
ARC
  5
86F0
  8
0
 10
4315.9693433633037785
 20
148.2858716919105859
 30
0.0
 40
0.4042120208348131
 50
359.494289784185014
 51
2.3627402530546782
  0
ARC
  5
86F1
  8
0
 10
4316.0482846328859523
 20
148.2891288866939874
 30
0.0
 40
0.325203582292068
 50
2.3627402530546782
 51
7.823112700963331
  0
ARC
  5
86F2
  8
0
 10
4315.8406605248273991
 20
148.260602591307503
 30
0.0
 40
0.5347781985408985
 50
7.823112700963331
 51
9.4486111097752392
  0
ARC
  5
86F3
  8
0
 10
4316.4039977856400583
 20
148.3476417899003934
 30
0.0
 40
0.0405034063853799
 50
164.9487296810762018
 51
181.5661158922042091
  0
ARC
  5
86F4
  8
0
 10
4317.1483470568091434
 20
148.3679928112663902
 30
0.0
 40
0.7851308310489697
 50
181.5661158922042091
 51
183.3290391205945014
  0
ARC
  5
86F5
  8
0
 10
4316.6397110636289653
 20
148.338406388685911
 30
0.0
 40
0.2756350705575634
 50
183.3290391205945014
 51
188.144821552531198
  0
ARC
  5
86F6
  8
0
 10
4316.7895902028021737
 20
148.3598569852372862
 30
0.0
 40
0.4270414259443596
 50
188.144821552531198
 51
190.4702907630195057
  0
ARC
  5
86F7
  8
0
 10
4316.3906871199187663
 20
148.2861385942179027
 30
0.0
 40
0.0213838477976568
 50
190.4702907630195057
 51
209.1450137364062982
  0
ARC
  5
86F8
  8
0
 10
4316.2852486389820115
 20
148.3486957554356138
 30
0.0
 40
0.0547746727087151
 50
12.9147905186316798
 51
19.3427358438421493
  0
ARC
  5
86F9
  8
0
 10
4316.3190839619273902
 20
148.3605730565496117
 30
0.0
 40
0.0189152337768411
 50
19.3427358438406216
 51
34.4504993390127083
  0
ARC
  5
86FA
  8
0
 10
4316.3289959227813597
 20
148.3673727575711041
 30
0.0
 40
0.0068951297014383
 50
34.4504993390110315
 51
72.7849114113915476
  0
ARC
  5
86FB
  8
0
 10
4316.3441604298022867
 20
148.361123816261113
 30
0.0
 40
0.0183569184902187
 50
135.6370809639456922
 51
152.3452535775161039
  0
ARC
  5
86FC
  8
0
 10
4316.3757405171591017
 20
148.3426860592809078
 30
0.0
 40
0.0549125754211856
 50
150.5985683520565033
 51
158.9225354257683023
  0
ARC
  5
86FD
  8
0
 10
4316.4609908444608664
 20
148.3133751663849011
 30
0.0
 40
0.1450380511116787
 50
160.2297211304295956
 51
179.7050061598652917
  0
ARC
  5
86FE
  8
0
 10
4316.4683239904234142
 20
148.3099239940646896
 30
0.0
 40
0.1524270919551749
 50
178.4218476949847911
 51
198.3930334136699116
  0
ARC
  5
86FF
  8
0
 10
4316.3757467074819942
 20
148.2797653350129963
 30
0.0
 40
0.055066300302684
 50
199.0103285420933901
 51
215.1044834043865137
  0
ARC
  5
8700
  8
0
 10
4316.2275448355876506
 20
148.2875418588434115
 30
0.0
 40
0.1140790971028962
 50
343.8260597459640735
 51
349.3298160950259899
  0
ARC
  5
8701
  8
0
 10
4316.3220647408052173
 20
148.2601279006964887
 30
0.0
 40
0.0156639682692754
 50
320.9851557981456267
 51
343.8260597459640735
  0
ARC
  5
8702
  8
0
 10
4316.3294010245026584
 20
148.2541839475730114
 30
0.0
 40
0.0062219537999192
 50
282.019449077006584
 51
320.9851557981456267
  0
LINE
  5
8703
  8
0
 10
4316.2656574226430166
 20
148.2382394817919078
 30
0.0
 11
4316.3219190514510046
 21
148.2321564474262914
 31
0.0
  0
ARC
  5
8704
  8
0
 10
4316.3217523659850485
 20
148.2306147833178898
 30
0.0
 40
0.0015506489827731
 50
54.1886167443571765
 51
83.8291241840748853
  0
ARC
  5
8705
  8
0
 10
4316.3199173240536766
 20
148.2280715001045905
 30
0.0
 40
0.0046868359029735
 50
37.1798522959403712
 51
54.1886167443545688
  0
ARC
  5
8706
  8
0
 10
4316.3145334795453891
 20
148.2239879228519897
 30
0.0
 40
0.0114441567373243
 50
23.583643893698099
 51
37.1798522959390709
  0
ARC
  5
8707
  8
0
 10
4316.2701026056120099
 20
148.2045916539777011
 30
0.0
 40
0.0599242331064052
 50
8.8689536544861394
 51
23.583643893698099
  0
ARC
  5
8708
  8
0
 10
4315.3857163827060504
 20
148.0665913914822909
 30
0.0
 40
0.9550125325016532
 50
7.6864440749674374
 51
8.8689536544861394
  0
ARC
  5
8709
  8
0
 10
4316.1963938425997185
 20
148.176003981759294
 30
0.0
 40
0.1369849908562514
 50
357.2839240717304961
 51
7.6864440749674374
  0
ARC
  5
870A
  8
0
 10
4315.9958460348207154
 20
148.1855179714600865
 30
0.0
 40
0.3377583436814899
 50
355.678704666355884
 51
357.2839240717304961
  0
ARC
  5
870B
  8
0
 10
4316.3015149650245803
 20
148.1624203545505907
 30
0.0
 40
0.031217979621363
 50
342.5539432433495222
 51
355.678704666355884
  0
ARC
  5
870C
  8
0
 10
4316.321483503294985
 20
148.1561449615967092
 30
0.0
 40
0.0102865898591458
 50
329.4254357397476838
 51
342.5539432433503748
  0
ARC
  5
870D
  8
0
 10
4316.3283198571562025
 20
148.1521060484986094
 30
0.0
 40
0.0023462779548618
 50
279.7477017414429952
 51
329.4254357397277886
  0
LINE
  5
870E
  8
0
 10
4316.3287171054089413
 20
148.1497936441076888
 30
0.0
 11
4316.2659947571119119
 21
148.1315372694662926
 31
0.0
  0
ARC
  5
870F
  8
0
 10
4316.2912581955215501
 20
148.1550431303045912
 30
0.0
 40
0.0345074892457892
 50
222.9360332010301136
 51
250.1181504785103016
  0
ARC
  5
8710
  8
0
 10
4316.2833879123481893
 20
148.1332801748665133
 30
0.0
 40
0.0113651560303872
 50
250.1181504785103016
 51
286.8868951846393998
  0
ARC
  5
8711
  8
0
 10
4316.2829358168737599
 20
148.142856491595893
 30
0.0
 40
0.0207929969585575
 50
280.3998597420920191
 51
307.7215480156173726
  0
ARC
  5
8712
  8
0
 10
4316.2657091857254272
 20
148.1598557054460912
 30
0.0
 40
0.0448949676394773
 50
311.8416888703890208
 51
328.5116982501078837
  0
ARC
  5
8713
  8
0
 10
4316.2564556977931716
 20
148.1629613921840871
 30
0.0
 40
0.0544518812178513
 50
330.8113897495520064
 51
339.0771514653329177
  0
ARC
  5
8714
  8
0
 10
4316.3651337102155594
 20
148.214863967815802
 30
0.0
 40
0.0478161699180445
 50
158.6162287349478106
 51
182.0307928170682885
  0
ARC
  5
8715
  8
0
 10
4316.5397958101120821
 20
148.2095641784736131
 30
0.0
 40
0.2224774527905229
 50
179.0714555668855041
 51
189.353643756538105
  0
ARC
  5
8716
  8
0
 10
4316.3922783865000383
 20
148.1814744984868923
 30
0.0
 40
0.0724526935296346
 50
186.3943065063537858
 51
201.2111385806468036
  0
ARC
  5
8717
  8
0
 10
4316.3424309888669086
 20
148.1621288178290001
 30
0.0
 40
0.0189829038259022
 50
201.2111385806468036
 51
221.190382882042087
  0
ARC
  5
8718
  8
0
 10
4316.2449418151081773
 20
148.1826800637099097
 30
0.0
 40
0.0839340037863295
 50
350.1255422978525189
 51
22.0015821893695396
  0
ARC
  5
8719
  8
0
 10
4316.3936405669210217
 20
148.1984757361389029
 30
0.0
 40
0.0725843178698737
 50
167.5496504933761912
 51
204.5774739938472067
  0
ARC
  5
871A
  8
0
 10
4316.2742404825021367
 20
148.2173631606017068
 30
0.0
 40
0.0339564404985249
 50
29.5660098732294507
 51
51.7305837212429083
  0
ARC
  5
871B
  8
0
 10
4316.2838951548374098
 20
148.2296015214791964
 30
0.0
 40
0.0183682983746746
 50
51.7305837212446917
 51
83.0738586921061142
  0
ARC
  5
871C
  8
0
 10
4316.2837639969056909
 20
148.2285218213307019
 30
0.0
 40
0.019455935636537
 50
83.0738586921061142
 51
106.2332311138828942
  0
ARC
  5
871D
  8
0
 10
4316.2886518140931003
 20
148.2199917628248897
 30
0.0
 40
0.0291039844238029
 50
110.7824335501005066
 51
131.8208718752597974
  0
ARC
  5
871E
  8
0
 10
4316.3006803490579841
 20
148.205319551600212
 30
0.0
 40
0.0480658629208286
 50
130.8440470212158004
 51
136.7728773327887097
  0
ARC
  5
871F
  8
0
 10
4316.3168639677096508
 20
148.19210149180131
 30
0.0
 40
0.0689262241674556
 50
137.9805966977025093
 51
157.7112387408191978
  0
ARC
  5
8720
  8
0
 10
4316.3337167322069945
 20
148.1850683695861903
 30
0.0
 40
0.0871873817553911
 50
157.6351335886328116
 51
189.1784445969973945
  0
ARC
  5
8721
  8
0
 10
4316.3234203505162441
 20
148.1821905136642954
 30
0.0
 40
0.0765731671254818
 50
188.2815307571665073
 51
221.4144658191235919
  0
LINE
  5
8722
  8
0
 10
4316.3243935849550326
 20
148.111730164613391
 30
0.0
 11
4316.3706396329826021
 21
148.1010168522921049
 31
0.0
  0
ARC
  5
8723
  8
0
 10
4316.3705355469501228
 20
148.1005675451579009
 30
0.0
 40
0.0004612058139384
 50
32.2218630931533596
 51
76.9569913536696646
  0
ARC
  5
8724
  8
0
 10
4316.3669774192312616
 20
148.0983249759480032
 30
0.0
 40
0.0046670814112849
 50
22.0480930462746088
 51
32.2218630931533596
  0
ARC
  5
8725
  8
0
 10
4316.3618941499089487
 20
148.0962662368380052
 30
0.0
 40
0.0101514258314626
 50
1.7515280380296221
 51
22.0480930462715889
  0
ARC
  5
8726
  8
0
 10
4316.1831565174179559
 20
148.0772433780520032
 30
0.0
 40
0.1898711532493336
 50
359.3135720002119911
 51
5.844122759130836
  0
ARC
  5
8727
  8
0
 10
4315.9157726935845858
 20
148.0755503505968136
 30
0.0
 40
0.4572417210405499
 50
356.0363208143614884
 51
359.927114176478824
  0
ARC
  5
8728
  8
0
 10
4316.166220241377232
 20
148.0566142248698895
 30
0.0
 40
0.206090331968126
 50
350.923999400129901
 51
356.4752725030658098
  0
ARC
  5
8729
  8
0
 10
4316.3391316933311828
 20
148.0292469944596974
 30
0.0
 40
0.0310277252321204
 50
342.3693837467303069
 51
350.4600708217653846
  0
ARC
  5
872A
  8
0
 10
4316.3602254729921697
 20
148.0232762468766055
 30
0.0
 40
0.0091430532803539
 50
329.6444162082515845
 51
337.9874509348292122
  0
ARC
  5
872B
  8
0
 10
4316.3676078454645904
 20
148.0189975471697039
 30
0.0
 40
0.000611681133061
 50
276.8391280928668721
 51
326.0190341065451776
  0
LINE
  5
872C
  8
0
 10
4316.3676806857083648
 20
148.0183902185044929
 30
0.0
 11
4316.3247166590217603
 21
148.0115527176191961
 31
0.0
  0
ARC
  5
872D
  8
0
 10
4316.460021427378706
 20
148.0591560241122977
 30
0.0
 40
0.1434344976952244
 50
182.8528152249917014
 51
199.3830360079774096
  0
ARC
  5
872E
  8
0
 10
4316.487627421457546
 20
148.0605316916924039
 30
0.0
 40
0.1710747467960523
 50
162.5859094428807055
 51
182.8528152249917014
  0
ARC
  5
872F
  8
0
 10
4316.3623667758483862
 20
148.0998198313957062
 30
0.0
 40
0.039797226786908
 50
141.4204534610614985
 51
162.5859094428807055
  0
ARC
  5
8730
  8
0
 10
4316.3182019469186343
 20
148.1067452753322868
 30
0.0
 40
0.0221478055392531
 50
3.3580263516357389
 51
53.8865075527086432
  0
ARC
  5
8731
  8
0
 10
4316.4129300503191189
 20
148.0853521012566034
 30
0.0
 40
0.0454632004500981
 50
159.7336651706795863
 51
175.3236735946885005
  0
ARC
  5
8732
  8
0
 10
4314.9771041594785856
 20
148.2028012302911861
 30
0.0
 40
1.3951582927663799
 50
354.6279195228091794
 51
355.3236735946883869
  0
ARC
  5
8733
  8
0
 10
4316.5844892070317655
 20
148.0516488291565906
 30
0.0
 40
0.2193180122525745
 50
174.6279195228090941
 51
181.3674855193108897
  0
ARC
  5
8734
  8
0
 10
4318.7002155218606276
 20
148.1021547235415028
 30
0.0
 40
2.3356470709359192
 50
181.3674855193108897
 51
181.8299519991541047
  0
ARC
  5
8735
  8
0
 10
4316.3988444024553246
 20
148.028626947349494
 30
0.0
 40
0.0331016613716861
 50
181.8299519991541047
 51
198.1009618511502026
  0
ARC
  5
8736
  8
0
 10
4316.4881694957393847
 20
148.0551959362572916
 30
0.0
 40
0.1213033363254957
 50
167.4108022159761049
 51
188.3833334064817961
  0
ARC
  5
8737
  8
0
 10
4316.2750049182068324
 20
148.0630232426929922
 30
0.0
 40
0.0965877911854578
 50
344.684101290184401
 51
11.1100383368287794
  0
LINE
  5
8738
  8
0
 10
4316.2668101538329211
 20
147.9898926516870006
 30
0.0
 11
4316.3282355450892283
 21
147.974381277181692
 31
0.0
  0
ARC
  5
8739
  8
0
 10
4316.3278536125080791
 20
147.9728688155869918
 30
0.0
 40
0.0015599399257902
 50
46.9457166496118035
 51
75.8277394040337498
  0
ARC
  5
873A
  8
0
 10
4316.3252859483900465
 20
147.9701205577883059
 30
0.0
 40
0.0053210328457576
 50
15.6725057968165302
 51
46.9457166496115192
  0
ARC
  5
873B
  8
0
 10
4316.2389563138913218
 20
147.9458990855260936
 30
0.0
 40
0.0949842109696961
 50
11.4164593589028502
 51
15.6725057968165302
  0
ARC
  5
873C
  8
0
 10
4316.2601651539289378
 20
147.9501818785604996
 30
0.0
 40
0.0733472700597143
 50
355.7294722968305791
 51
11.4164593589028502
  0
ARC
  5
873D
  8
0
 10
4316.13775632688521
 20
147.9431514647816925
 30
0.0
 40
0.1955587442110287
 50
347.6612962027671756
 51
0.4595672529411995
  0
ARC
  5
873E
  8
0
 10
4316.3001061456598109
 20
147.9078020595588896
 30
0.0
 40
0.0294055784689551
 50
330.4282428981709927
 51
347.3501189457181226
  0
ARC
  5
873F
  8
0
 10
4316.3216216582331981
 20
147.8960919427578915
 30
0.0
 40
0.0049326971506724
 50
305.4222107929870731
 51
325.3869706849923205
  0
ARC
  5
8740
  8
0
 10
4316.3237515231303405
 20
147.893097390809686
 30
0.0
 40
0.0012579637111595
 50
240.9788608369597114
 51
305.4222107929870731
  0
ARC
  5
8741
  8
0
 10
4316.3352732805597043
 20
147.9659239083754017
 30
0.0
 40
0.0115463687195877
 50
131.7010017966831867
 51
159.7747324213615912
  0
ARC
  5
8742
  8
0
 10
4316.3819370551973407
 20
147.9487316138732922
 30
0.0
 40
0.0612764687960409
 50
159.7747324213615912
 51
171.2255207509487036
  0
ARC
  5
8743
  8
0
 10
4316.602813250089639
 20
147.9146389061201887
 30
0.0
 40
0.2847683169517454
 50
171.2255207509487036
 51
176.2017735313507103
  0
ARC
  5
8744
  8
0
 10
4316.4898608097773831
 20
147.9221376871851135
 30
0.0
 40
0.1715672326367048
 50
176.2017735313507103
 51
183.1928420787074003
  0
ARC
  5
8745
  8
0
 10
4316.4489820662865895
 20
147.9198573334846003
 30
0.0
 40
0.1306249356524662
 50
183.1928420787074003
 51
188.8943490692867897
  0
ARC
  5
8746
  8
0
 10
4316.3437468462107063
 20
147.9033885712225924
 30
0.0
 40
0.0241088726630132
 50
188.8943490692861076
 51
201.4267746502322893
  0
ARC
  5
8747
  8
0
 10
4316.3274110113597999
 20
147.8969778196841958
 30
0.0
 40
0.0065601622951048
 50
201.4267746502314935
 51
229.393298638000914
  0
LINE
  5
8748
  8
0
 10
4316.3237269873407058
 20
147.8918396663987096
 30
0.0
 11
4316.2653472797201175
 21
147.8838856231269858
 31
0.0
  0
ARC
  5
8749
  8
0
 10
4316.2976282242889283
 20
147.9122335266009998
 30
0.0
 40
0.0429611803109392
 50
221.2883782925941034
 51
236.5570555292775907
  0
ARC
  5
874A
  8
0
 10
4316.2846636656313422
 20
147.8918828538477044
 30
0.0
 40
0.0188392056609157
 50
235.3486476247171879
 51
261.8996786329154816
  0
ARC
  5
874B
  8
0
 10
4316.2842785645862023
 20
147.8891771016556049
 30
0.0
 40
0.0161061857668449
 50
261.8996786329154816
 51
290.8156086014383277
  0
ARC
  5
874C
  8
0
 10
4316.280840622011965
 20
147.8982201275395028
 30
0.0
 40
0.0257806762586462
 50
290.8156086014383277
 51
321.0494694627424792
  0
ARC
  5
874D
  8
0
 10
4316.2668047809020209
 20
147.9095660761767022
 30
0.0
 40
0.0438288170528518
 50
321.0494694627424792
 51
332.5837701122040926
  0
ARC
  5
874E
  8
0
 10
4316.3129404327200973
 20
147.9258721418395908
 30
0.0
 40
0.0634663372679609
 50
205.8335513385449929
 51
221.4186293565180961
  0
ARC
  5
874F
  8
0
 10
4316.3349159390782006
 20
147.9365113969068943
 30
0.0
 40
0.0878818370179935
 50
186.1770170102207089
 51
205.8335513385443107
  0
ARC
  5
8750
  8
0
 10
4316.3326508740192367
 20
147.9362662513636053
 30
0.0
 40
0.0856035446622087
 50
158.5483243873505046
 51
186.1770170102207089
  0
ARC
  5
8751
  8
0
 10
4316.3210779672235731
 20
147.9408136689667117
 30
0.0
 40
0.0731692703150952
 50
137.8742900008483048
 51
158.5483243873505046
  0
ARC
  5
8752
  8
0
 10
4316.2872804045582598
 20
147.9730694795929935
 30
0.0
 40
0.0264962315292331
 50
105.4796721216458053
 51
140.5854315430813983
  0
ARC
  5
8753
  8
0
 10
4316.284123676672607
 20
147.9827436529930935
 30
0.0
 40
0.0163369507083888
 50
75.2471697707150611
 51
103.8654239957352985
  0
ARC
  5
8754
  8
0
 10
4316.2788498021200212
 20
147.9718649011444995
 30
0.0
 40
0.0282961292315605
 50
16.7293365181178295
 51
70.5244165974089441
  0
ARC
  5
8755
  8
0
 10
4316.2557152369899995
 20
147.9358724603008
 30
0.0
 40
0.0738036217036679
 50
340.0280127939295198
 51
15.6236351097037804
  0
ARC
  5
8756
  8
0
 10
4316.3897289802216619
 20
147.9307846614231039
 30
0.0
 40
0.0677074034776081
 50
158.3639362001075881
 51
197.2877117035097001
  0
ARC
  5
8757
  8
0
 10
4316.3750882488229763
 20
147.9989359395746931
 30
0.0
 40
0.0381779751748926
 50
156.7846775365404994
 51
167.3741548932557066
  0
ARC
  5
8758
  8
0
 10
4316.325158665969866
 20
148.0101201736634948
 30
0.0
 40
0.0129889119295611
 50
305.8870473629925186
 51
347.3741548932557066
  0
ARC
  5
8759
  8
0
 10
4316.3323213507801484
 20
148.0019894916470946
 30
0.0
 40
0.0024347853249598
 50
222.7422702365151963
 51
280.6812482730102829
  0
ARC
  5
875A
  8
0
 10
4316.3728024139563786
 20
148.0293742185901067
 30
0.0
 40
0.0512820214534911
 50
200.3356697323654885
 51
214.4874783622227028
  0
LINE
  5
875B
  8
0
 10
4316.3242782863162574
 20
147.8591968477213925
 30
0.0
 11
4316.3705243343429174
 21
147.8484835353997084
 31
0.0
  0
ARC
  5
875C
  8
0
 10
4316.3704202483113477
 20
147.8480342282659024
 30
0.0
 40
0.0004612058139384
 50
32.2218630931533596
 51
76.9569913536696646
  0
ARC
  5
875D
  8
0
 10
4316.3668621205906675
 20
147.845791659055692
 30
0.0
 40
0.0046670814112849
 50
22.0480930462746088
 51
32.2218630931533596
  0
ARC
  5
875E
  8
0
 10
4316.3617788512692641
 20
147.843732919945694
 30
0.0
 40
0.0101514258314626
 50
1.7515280380296221
 51
22.0480930462715889
  0
ARC
  5
875F
  8
0
 10
4316.1830412187782713
 20
147.824710061159692
 30
0.0
 40
0.1898711532493336
 50
359.3135720002119911
 51
5.844122759130836
  0
ARC
  5
8760
  8
0
 10
4315.9156573949449012
 20
147.8230170337047866
 30
0.0
 40
0.4572417210405499
 50
356.0363208143614884
 51
359.927114176478824
  0
ARC
  5
8761
  8
0
 10
4316.1661049427366379
 20
147.804080907977891
 30
0.0
 40
0.206090331968126
 50
350.923999400129901
 51
356.4752725030658098
  0
ARC
  5
8762
  8
0
 10
4316.3390163946896791
 20
147.7767136775673862
 30
0.0
 40
0.0310277252321204
 50
342.3693837467303069
 51
350.4600708217653846
  0
ARC
  5
8763
  8
0
 10
4316.3601101743506661
 20
147.7707429299842943
 30
0.0
 40
0.0091430532803539
 50
329.6444162082515845
 51
337.9874509348292122
  0
ARC
  5
8764
  8
0
 10
4316.3674925468249057
 20
147.7664642302773927
 30
0.0
 40
0.000611681133061
 50
276.8391280928668721
 51
326.0190341065451776
  0
LINE
  5
8765
  8
0
 10
4316.3675653870686801
 20
147.7658569016122101
 30
0.0
 11
4316.3246013603829851
 21
147.7590194007273112
 31
0.0
  0
ARC
  5
8766
  8
0
 10
4316.4599061287399309
 20
147.8066227072202992
 30
0.0
 40
0.1434344976952244
 50
182.8528152249917014
 51
199.3830360079774096
  0
ARC
  5
8767
  8
0
 10
4316.4875121228178614
 20
147.8079983748004054
 30
0.0
 40
0.1710747467960523
 50
162.5859094428807055
 51
182.8528152249917014
  0
ARC
  5
8768
  8
0
 10
4316.362251477207792
 20
147.8472865145037076
 30
0.0
 40
0.039797226786908
 50
141.4204534610614985
 51
162.5859094428807055
  0
ARC
  5
8769
  8
0
 10
4316.3180866482789497
 20
147.8542119584400041
 30
0.0
 40
0.0221478055392531
 50
3.3580263516357389
 51
53.8865075527086432
  0
ARC
  5
876A
  8
0
 10
4316.4128147516803438
 20
147.8328187843642922
 30
0.0
 40
0.0454632004500981
 50
159.7336651706795863
 51
175.3236735946885005
  0
ARC
  5
876B
  8
0
 10
4314.9769888608398105
 20
147.9502679133991876
 30
0.0
 40
1.3951582927663799
 50
354.6279195228091794
 51
355.3236735946883869
  0
ARC
  5
876C
  8
0
 10
4316.5843739083929904
 20
147.7991155122645921
 30
0.0
 40
0.2193180122525745
 50
174.6279195228090941
 51
181.3674855193108897
  0
ARC
  5
876D
  8
0
 10
4318.7001002232218525
 20
147.8496214066491916
 30
0.0
 40
2.3356470709359192
 50
181.3674855193108897
 51
181.8299519991541047
  0
ARC
  5
876E
  8
0
 10
4316.39872910381564
 20
147.7760936304570976
 30
0.0
 40
0.0331016613716861
 50
181.8299519991541047
 51
198.1009618511502026
  0
ARC
  5
876F
  8
0
 10
4316.4880541970978811
 20
147.8026626193650088
 30
0.0
 40
0.1213033363254957
 50
167.4108022159761049
 51
188.3833334064817961
  0
ARC
  5
8770
  8
0
 10
4316.2748896195671477
 20
147.8104899258007094
 30
0.0
 40
0.0965877911854578
 50
344.684101290184401
 51
11.1100383368287794
  0
LINE
  5
8771
  8
0
 10
4316.2666948551941459
 20
147.737359334795002
 30
0.0
 11
4316.3281202464486341
 21
147.7218479602892955
 31
0.0
  0
ARC
  5
8772
  8
0
 10
4316.3277383138683945
 20
147.7203354986945953
 30
0.0
 40
0.0015599399257902
 50
46.9457166496118035
 51
75.8277394040337498
  0
ARC
  5
8773
  8
0
 10
4316.3251706497503619
 20
147.7175872408963073
 30
0.0
 40
0.0053210328457576
 50
15.6725057968165302
 51
46.9457166496115192
  0
ARC
  5
8774
  8
0
 10
4316.2388410152507277
 20
147.6933657686338108
 30
0.0
 40
0.0949842109696961
 50
11.4164593589028502
 51
15.6725057968165302
  0
ARC
  5
8775
  8
0
 10
4316.2600498552892532
 20
147.6976485616681884
 30
0.0
 40
0.0733472700597143
 50
355.7294722968305791
 51
11.4164593589028502
  0
ARC
  5
8776
  8
0
 10
4316.1376410282446159
 20
147.690618147889694
 30
0.0
 40
0.1955587442110287
 50
347.6612962027671756
 51
0.4595672529411995
  0
ARC
  5
8777
  8
0
 10
4316.2999908470201262
 20
147.6552687426664932
 30
0.0
 40
0.0294055784689551
 50
330.4282428981709927
 51
347.3501189457181226
  0
ARC
  5
8778
  8
0
 10
4316.321506359592604
 20
147.6435586258656087
 30
0.0
 40
0.0049326971506724
 50
305.4222107929870731
 51
325.3869706849923205
  0
ARC
  5
8779
  8
0
 10
4316.3236362244906559
 20
147.6405640739174032
 30
0.0
 40
0.0012579637111595
 50
240.9788608369597114
 51
305.4222107929870731
  0
ARC
  5
877A
  8
0
 10
4316.3351579819209292
 20
147.7133905914834031
 30
0.0
 40
0.0115463687195877
 50
131.7010017966831867
 51
159.7747324213615912
  0
ARC
  5
877B
  8
0
 10
4316.381821756557656
 20
147.6961982969812084
 30
0.0
 40
0.0612764687960409
 50
159.7747324213615912
 51
171.2255207509487036
  0
ARC
  5
877C
  8
0
 10
4316.6026979514499544
 20
147.662105589227906
 30
0.0
 40
0.2847683169517454
 50
171.2255207509487036
 51
176.2017735313507103
  0
ARC
  5
877D
  8
0
 10
4316.489745511136789
 20
147.6696043702930865
 30
0.0
 40
0.1715672326367048
 50
176.2017735313507103
 51
183.1928420787066045
  0
ARC
  5
877E
  8
0
 10
4316.4488667676469049
 20
147.6673240165922891
 30
0.0
 40
0.1306249356524662
 50
183.1928420787074003
 51
188.8943490692867897
  0
ARC
  5
877F
  8
0
 10
4316.3436315475719312
 20
147.6508552543305939
 30
0.0
 40
0.0241088726630132
 50
188.8943490692861076
 51
201.4267746502322893
  0
ARC
  5
8780
  8
0
 10
4316.3272957127201153
 20
147.6444445027921972
 30
0.0
 40
0.0065601622951048
 50
201.4267746502314935
 51
229.393298638000914
  0
LINE
  5
8781
  8
0
 10
4316.3236116887010212
 20
147.6393063495067111
 30
0.0
 11
4316.2652319810804329
 21
147.6313523062345894
 31
0.0
  0
ARC
  5
8782
  8
0
 10
4316.2975129256501532
 20
147.6597002097090012
 30
0.0
 40
0.0429611803109392
 50
221.2883782925941034
 51
236.5570555292775907
  0
ARC
  5
8783
  8
0
 10
4316.2845483669916575
 20
147.6393495369555922
 30
0.0
 40
0.0188392056609157
 50
235.3486476247171879
 51
261.8996786329154816
  0
ARC
  5
8784
  8
0
 10
4316.2841632659456081
 20
147.6366437847632085
 30
0.0
 40
0.0161061857668449
 50
261.8996786329154816
 51
290.8156086014383277
  0
ARC
  5
8785
  8
0
 10
4316.2807253233722804
 20
147.6456868106471916
 30
0.0
 40
0.0257806762586462
 50
290.8156086014383277
 51
321.0494694627424792
  0
ARC
  5
8786
  8
0
 10
4316.2666894822632457
 20
147.6570327592847036
 30
0.0
 40
0.0438288170528518
 50
321.0494694627424792
 51
332.5837701122040926
  0
ARC
  5
8787
  8
0
 10
4316.3128251340813222
 20
147.673338824947308
 30
0.0
 40
0.0634663372679609
 50
205.8335513385449929
 51
221.4186293565180961
  0
ARC
  5
8788
  8
0
 10
4316.3348006404376065
 20
147.6839780800148105
 30
0.0
 40
0.0878818370179935
 50
186.1770170102207089
 51
205.8335513385443107
  0
ARC
  5
8789
  8
0
 10
4316.3325355753786425
 20
147.6837329344712941
 30
0.0
 40
0.0856035446622087
 50
158.5483243873505046
 51
186.1770170102207089
  0
ARC
  5
878A
  8
0
 10
4316.3209626685847979
 20
147.6882803520744005
 30
0.0
 40
0.0731692703150952
 50
137.8742900008483048
 51
158.5483243873505046
  0
ARC
  5
878B
  8
0
 10
4316.2871651059176656
 20
147.7205361627009097
 30
0.0
 40
0.0264962315292331
 50
105.4796721216458053
 51
140.5854315430813983
  0
ARC
  5
878C
  8
0
 10
4316.2840083780329223
 20
147.7302103361008108
 30
0.0
 40
0.0163369507083888
 50
75.2471697707150611
 51
103.8654239957352985
  0
ARC
  5
878D
  8
0
 10
4316.2787345034812461
 20
147.7193315842521883
 30
0.0
 40
0.0282961292315605
 50
16.7293365181178295
 51
70.5244165974089441
  0
ARC
  5
878E
  8
0
 10
4316.2555999383503149
 20
147.6833391434084888
 30
0.0
 40
0.0738036217036679
 50
340.0280127939295198
 51
15.6236351097037804
  0
ARC
  5
878F
  8
0
 10
4316.3896136815819773
 20
147.6782513445311054
 30
0.0
 40
0.0677074034776081
 50
158.3639362001075881
 51
197.2877117035097001
  0
ARC
  5
8790
  8
0
 10
4316.3749729501823822
 20
147.7464026226824103
 30
0.0
 40
0.0381779751748926
 50
156.7846775365404994
 51
167.3741548932557066
  0
ARC
  5
8791
  8
0
 10
4316.3250433673310908
 20
147.7575868567712121
 30
0.0
 40
0.0129889119295611
 50
305.8870473629925186
 51
347.3741548932557066
  0
ARC
  5
8792
  8
0
 10
4316.3322060521395542
 20
147.7494561747548119
 30
0.0
 40
0.0024347853249598
 50
222.7422702365151963
 51
280.6812482730102829
  0
ARC
  5
8793
  8
0
 10
4316.3726871153157845
 20
147.7768409016981082
 30
0.0
 40
0.0512820214534911
 50
200.3356697323654885
 51
214.4874783622227028
  0
LINE
  5
8794
  8
0
 10
4316.3241581004376712
 20
147.6066618788860865
 30
0.0
 11
4316.3704041484652407
 21
147.5959485665648003
 31
0.0
  0
ARC
  5
8795
  8
0
 10
4316.3703000624327615
 20
147.595499259430909
 30
0.0
 40
0.0004612058139384
 50
32.2218630931533596
 51
76.9569913536696646
  0
ARC
  5
8796
  8
0
 10
4316.3667419347111718
 20
147.5932566902206986
 30
0.0
 40
0.0046670814112849
 50
22.0480930462746088
 51
32.2218630931533596
  0
ARC
  5
8797
  8
0
 10
4316.3616586653897684
 20
147.5911979511107006
 30
0.0
 40
0.0101514258314626
 50
1.7515280380296221
 51
22.0480930462715889
  0
ARC
  5
8798
  8
0
 10
4316.1829210328996851
 20
147.5721750923246987
 30
0.0
 40
0.1898711532493336
 50
359.3135720002119911
 51
5.844122759130836
  0
ARC
  5
8799
  8
0
 10
4315.9155372090654055
 20
147.570482064869509
 30
0.0
 40
0.4572417210405499
 50
356.0363208143614884
 51
359.927114176478824
  0
ARC
  5
879A
  8
0
 10
4316.1659847568589612
 20
147.5515459391428976
 30
0.0
 40
0.206090331968126
 50
350.923999400129901
 51
356.4752725030658098
  0
ARC
  5
879B
  8
0
 10
4316.3388962088110929
 20
147.5241787087323928
 30
0.0
 40
0.0310277252321204
 50
342.3693837467303069
 51
350.4600708217653846
  0
ARC
  5
879C
  8
0
 10
4316.3599899884720799
 20
147.5182079611493009
 30
0.0
 40
0.0091430532803539
 50
329.6444162082515845
 51
337.9874509348292122
  0
ARC
  5
879D
  8
0
 10
4316.3673723609463195
 20
147.5139292614423994
 30
0.0
 40
0.000611681133061
 50
276.8391280928668721
 51
326.0190341065451776
  0
LINE
  5
879E
  8
0
 10
4316.3674452011900939
 20
147.5133219327771883
 30
0.0
 11
4316.324481174504399
 21
147.5064844318920052
 31
0.0
  0
ARC
  5
879F
  8
0
 10
4316.4597859428604352
 20
147.5540877383853058
 30
0.0
 40
0.1434344976952244
 50
182.8528152249917014
 51
199.3830360079774096
  0
ARC
  5
87A0
  8
0
 10
4316.4873919369392752
 20
147.555463405965412
 30
0.0
 40
0.1710747467960523
 50
162.5859094428807055
 51
182.8528152249917014
  0
ARC
  5
87A1
  8
0
 10
4316.3621312913301153
 20
147.5947515456686858
 30
0.0
 40
0.039797226786908
 50
141.4204534610614985
 51
162.5859094428807055
  0
ARC
  5
87A2
  8
0
 10
4316.317966462401273
 20
147.6016769896050107
 30
0.0
 40
0.0221478055392531
 50
3.3580263516357389
 51
53.8865075527086432
  0
ARC
  5
87A3
  8
0
 10
4316.4126945658008481
 20
147.5802838155292989
 30
0.0
 40
0.0454632004500981
 50
159.7336651706795863
 51
175.3236735946885005
  0
ARC
  5
87A4
  8
0
 10
4314.9768686749603148
 20
147.6977329445641942
 30
0.0
 40
1.3951582927663799
 50
354.6279195228091794
 51
355.3236735946883869
  0
ARC
  5
87A5
  8
0
 10
4316.5842537225144042
 20
147.5465805434295987
 30
0.0
 40
0.2193180122525745
 50
174.6279195228090941
 51
181.3674855193108897
  0
ARC
  5
87A6
  8
0
 10
4318.6999800373432663
 20
147.5970864378141982
 30
0.0
 40
2.3356470709359192
 50
181.3674855193108897
 51
181.8299519991541047
  0
ARC
  5
87A7
  8
0
 10
4316.3986089179379633
 20
147.5235586616221894
 30
0.0
 40
0.0331016613716861
 50
181.8299519991541047
 51
198.1009618511502026
  0
ARC
  5
87A8
  8
0
 10
4316.4879340112192949
 20
147.550127650529987
 30
0.0
 40
0.1213033363254957
 50
167.4108022159761049
 51
188.3833334064817961
  0
ARC
  5
87A9
  8
0
 10
4316.2747694336885615
 20
147.5579549569656876
 30
0.0
 40
0.0965877911854578
 50
344.684101290184401
 51
11.1100383368287794
  0
LINE
  5
87AA
  8
0
 10
4316.2665746693155597
 20
147.4848243659600087
 30
0.0
 11
4316.3280000605709574
 21
147.4693129914543874
 31
0.0
  0
ARC
  5
87AB
  8
0
 10
4316.3276181279888988
 20
147.4678005298596872
 30
0.0
 40
0.0015599399257902
 50
46.9457166496118035
 51
75.8277394040337498
  0
ARC
  5
87AC
  8
0
 10
4316.3250504638708662
 20
147.4650522720613139
 30
0.0
 40
0.0053210328457576
 50
15.6725057968165302
 51
46.9457166496115192
  0
ARC
  5
87AD
  8
0
 10
4316.2387208293721415
 20
147.440830799798789
 30
0.0
 40
0.0949842109696961
 50
11.4164593589028502
 51
15.6725057968165302
  0
ARC
  5
87AE
  8
0
 10
4316.2599296694097575
 20
147.4451135928331951
 30
0.0
 40
0.0733472700597143
 50
355.7294722968305791
 51
11.4164593589028502
  0
ARC
  5
87AF
  8
0
 10
4316.1375208423660297
 20
147.4380831790547006
 30
0.0
 40
0.1955587442110287
 50
347.6612962027671756
 51
0.4595672529411995
  0
ARC
  5
87B0
  8
0
 10
4316.2998706611424495
 20
147.4027337738314998
 30
0.0
 40
0.0294055784689551
 50
330.4282428981709927
 51
347.3501189457181226
  0
ARC
  5
87B1
  8
0
 10
4316.3213861737140178
 20
147.3910236570305869
 30
0.0
 40
0.0049326971506724
 50
305.4222107929870731
 51
325.3869706849923205
  0
ARC
  5
87B2
  8
0
 10
4316.3235160386120697
 20
147.3880291050824098
 30
0.0
 40
0.0012579637111595
 50
240.9788608369597114
 51
305.4222107929870731
  0
ARC
  5
87B3
  8
0
 10
4316.3350377960432525
 20
147.4608556226480971
 30
0.0
 40
0.0115463687195877
 50
131.7010017966831867
 51
159.7747324213615912
  0
ARC
  5
87B4
  8
0
 10
4316.3817015706790698
 20
147.4436633281461866
 30
0.0
 40
0.0612764687960409
 50
159.7747324213615912
 51
171.2255207509487036
  0
ARC
  5
87B5
  8
0
 10
4316.6025777655695492
 20
147.4095706203929126
 30
0.0
 40
0.2847683169517454
 50
171.2255207509487036
 51
176.2017735313507103
  0
ARC
  5
87B6
  8
0
 10
4316.4896253252591123
 20
147.4170694014580931
 30
0.0
 40
0.1715672326367048
 50
176.2017735313507103
 51
183.1928420787066045
  0
ARC
  5
87B7
  8
0
 10
4316.4487465817692282
 20
147.4147890477572957
 30
0.0
 40
0.1306249356524662
 50
183.1928420787074003
 51
188.8943490692867897
  0
ARC
  5
87B8
  8
0
 10
4316.343511361693345
 20
147.3983202854956005
 30
0.0
 40
0.0241088726630132
 50
188.8943490692861076
 51
201.4267746502322893
  0
ARC
  5
87B9
  8
0
 10
4316.3271755268424386
 20
147.3919095339572038
 30
0.0
 40
0.0065601622951048
 50
201.4267746502314935
 51
229.393298638000914
  0
LINE
  5
87BA
  8
0
 10
4316.323491502822435
 20
147.3867713806716893
 30
0.0
 11
4316.2651117952009372
 21
147.378817337399596
 31
0.0
  0
ARC
  5
87BB
  8
0
 10
4316.297392739769748
 20
147.4071652408736952
 30
0.0
 40
0.0429611803109392
 50
221.2883782925941034
 51
236.5570555292775907
  0
ARC
  5
87BC
  8
0
 10
4316.2844281811130713
 20
147.3868145681202861
 30
0.0
 40
0.0188392056609157
 50
235.3486476247171879
 51
261.8996786329154816
  0
ARC
  5
87BD
  8
0
 10
4316.2840430800670219
 20
147.3841088159283004
 30
0.0
 40
0.0161061857668449
 50
261.8996786329154816
 51
290.8156086014383277
  0
ARC
  5
87BE
  8
0
 10
4316.2806051374927847
 20
147.3931518418121982
 30
0.0
 40
0.0257806762586462
 50
290.8156086014383277
 51
321.0494694627424792
  0
ARC
  5
87BF
  8
0
 10
4316.2665692963828405
 20
147.4044977904497102
 30
0.0
 40
0.0438288170528518
 50
321.0494694627424792
 51
332.5837701122040926
  0
ARC
  5
87C0
  8
0
 10
4316.3127049482018265
 20
147.4208038561122862
 30
0.0
 40
0.0634663372679609
 50
205.8335513385449929
 51
221.4186293565180961
  0
ARC
  5
87C1
  8
0
 10
4316.3346804545581108
 20
147.4314431111795898
 30
0.0
 40
0.0878818370179935
 50
186.1770170102207089
 51
205.8335513385443107
  0
ARC
  5
87C2
  8
0
 10
4316.3324153895009658
 20
147.4311979656363008
 30
0.0
 40
0.0856035446622087
 50
158.5483243873505046
 51
186.1770170102207089
  0
ARC
  5
87C3
  8
0
 10
4316.3208424827053022
 20
147.4357453832394071
 30
0.0
 40
0.0731692703150952
 50
137.8742900008483048
 51
158.5483243873505046
  0
ARC
  5
87C4
  8
0
 10
4316.2870449200390794
 20
147.4680011938660016
 30
0.0
 40
0.0264962315292331
 50
105.4796721216458053
 51
140.5854315430813983
  0
ARC
  5
87C5
  8
0
 10
4316.2838881921543361
 20
147.477675367265789
 30
0.0
 40
0.0163369507083888
 50
75.2471697707150611
 51
103.8654239957352985
  0
ARC
  5
87C6
  8
0
 10
4316.2786143176017504
 20
147.466796615417195
 30
0.0
 40
0.0282961292315605
 50
16.7293365181178295
 51
70.5244165974089441
  0
ARC
  5
87C7
  8
0
 10
4316.2554797524699097
 20
147.4308041745734954
 30
0.0
 40
0.0738036217036679
 50
340.0280127939295198
 51
15.6236351097037804
  0
ARC
  5
87C8
  8
0
 10
4316.3894934957043006
 20
147.425716375696112
 30
0.0
 40
0.0677074034776081
 50
158.3639362001075881
 51
197.2877117035097001
  0
ARC
  5
87C9
  8
0
 10
4316.374852764303796
 20
147.4938676538473885
 30
0.0
 40
0.0381779751748926
 50
156.7846775365404994
 51
167.3741548932557066
  0
ARC
  5
87CA
  8
0
 10
4316.3249231814515952
 20
147.5050518879361903
 30
0.0
 40
0.0129889119295611
 50
305.8870473629925186
 51
347.3741548932557066
  0
ARC
  5
87CB
  8
0
 10
4316.3320858662618775
 20
147.4969212059197901
 30
0.0
 40
0.0024347853249598
 50
222.7422702365151963
 51
280.6812482730102829
  0
ARC
  5
87CC
  8
0
 10
4316.3725669294371983
 20
147.5243059328628021
 30
0.0
 40
0.0512820214534911
 50
200.3356697323654885
 51
214.4874783622227028
  0
LINE
  5
87CD
  8
0
 10
4316.3240330491689747
 20
147.3541267952878115
 30
0.0
 11
4316.3702790971956347
 21
147.3434134829662128
 31
0.0
  0
ARC
  5
87CE
  8
0
 10
4316.3701750111640649
 20
147.342964175832293
 30
0.0
 40
0.0004612058139384
 50
32.2218630931533596
 51
76.9569913536696646
  0
ARC
  5
87CF
  8
0
 10
4316.3666168834415657
 20
147.340721606622111
 30
0.0
 40
0.0046670814112849
 50
22.0480930462746088
 51
32.2218630931533596
  0
ARC
  5
87D0
  8
0
 10
4316.3615336141210719
 20
147.3386628675121131
 30
0.0
 40
0.0101514258314626
 50
1.7515280380296221
 51
22.0480930462715889
  0
ARC
  5
87D1
  8
0
 10
4316.1827959816309885
 20
147.3196400087261111
 30
0.0
 40
0.1898711532493336
 50
359.3135720002119911
 51
5.844122759130836
  0
ARC
  5
87D2
  8
0
 10
4315.9154121577976184
 20
147.3179469812712057
 30
0.0
 40
0.4572417210405499
 50
356.0363208143614884
 51
359.927114176478824
  0
ARC
  5
87D3
  8
0
 10
4316.1658597055902646
 20
147.2990108555443101
 30
0.0
 40
0.206090331968126
 50
350.923999400129901
 51
356.4752725030658098
  0
ARC
  5
87D4
  8
0
 10
4316.3387711575423964
 20
147.2716436251338052
 30
0.0
 40
0.0310277252321204
 50
342.3693837467303069
 51
350.4600708217653846
  0
ARC
  5
87D5
  8
0
 10
4316.3598649372033833
 20
147.2656728775507133
 30
0.0
 40
0.0091430532803539
 50
329.6444162082515845
 51
337.9874509348292122
  0
ARC
  5
87D6
  8
0
 10
4316.3672473096767135
 20
147.2613941778438118
 30
0.0
 40
0.000611681133061
 50
276.8391280928668721
 51
326.0190341065451776
  0
LINE
  5
87D7
  8
0
 10
4316.3673201499213974
 20
147.2607868491786007
 30
0.0
 11
4316.3243561232347929
 21
147.2539493482937019
 31
0.0
  0
ARC
  5
87D8
  8
0
 10
4316.4596608915917386
 20
147.3015526547866898
 30
0.0
 40
0.1434344976952244
 50
182.8528152249917014
 51
199.3830360079774096
  0
ARC
  5
87D9
  8
0
 10
4316.4872668856705786
 20
147.302928322366796
 30
0.0
 40
0.1710747467960523
 50
162.5859094428807055
 51
182.8528152249917014
  0
ARC
  5
87DA
  8
0
 10
4316.3620062400614188
 20
147.3422164620700983
 30
0.0
 40
0.039797226786908
 50
141.4204534610614985
 51
162.5859094428807055
  0
ARC
  5
87DB
  8
0
 10
4316.3178414111325765
 20
147.3491419060063947
 30
0.0
 40
0.0221478055392531
 50
3.3580263516357389
 51
53.8865075527086432
  0
ARC
  5
87DC
  8
0
 10
4316.4125695145321515
 20
147.3277487319309955
 30
0.0
 40
0.0454632004500981
 50
159.7336651706795863
 51
175.3236735946885005
  0
ARC
  5
87DD
  8
0
 10
4314.9767436236916183
 20
147.4451978609656067
 30
0.0
 40
1.3951582927663799
 50
354.6279195228091794
 51
355.3236735946883869
  0
ARC
  5
87DE
  8
0
 10
4316.5841286712447982
 20
147.2940454598310112
 30
0.0
 40
0.2193180122525745
 50
174.6279195228090941
 51
181.3674855193108897
  0
ARC
  5
87DF
  8
0
 10
4318.6998549860736603
 20
147.3445513542158949
 30
0.0
 40
2.3356470709359192
 50
181.3674855193108897
 51
181.8299519991541047
  0
ARC
  5
87E0
  8
0
 10
4316.3984838666692667
 20
147.2710235780238861
 30
0.0
 40
0.0331016613716861
 50
181.8299519991541047
 51
198.1009618511502026
  0
ARC
  5
87E1
  8
0
 10
4316.4878089599505984
 20
147.2975925669317121
 30
0.0
 40
0.1213033363254957
 50
167.4108022159761049
 51
188.3833334064817961
  0
ARC
  5
87E2
  8
0
 10
4316.274644382419865
 20
147.3054198733671001
 30
0.0
 40
0.0965877911854578
 50
344.684101290184401
 51
11.1100383368287794
  0
ARC
  5
87E3
  8
0
 10
4316.3747277130350994
 20
147.2413325702491136
 30
0.0
 40
0.0381779751748926
 50
156.7846775365404994
 51
167.3741548932557066
  0
ARC
  5
87E4
  8
0
 10
4316.3247981301828986
 20
147.2525168043376027
 30
0.0
 40
0.0129889119295611
 50
305.8870473629925186
 51
347.3741548932557066
  0
ARC
  5
87E5
  8
0
 10
4316.331960814993181
 20
147.2443861223214867
 30
0.0
 40
0.0024347853249598
 50
222.7422702365151963
 51
280.6812482730102829
  0
ARC
  5
87E6
  8
0
 10
4316.3724418781675922
 20
147.2717708492644988
 30
0.0
 40
0.0512820214534911
 50
200.3356697323654885
 51
214.4874783622227028
  0
LINE
  5
87E7
  8
0
 10
4316.3533890633034389
 20
146.6256337802101086
 30
0.0
 11
4316.3533890632315888
 21
147.2585697893518955
 31
0.0
  0
LINE
  5
87E8
  8
0
 10
4316.3533890632315888
 20
147.3473262110086068
 30
0.0
 11
4316.3533890632334078
 21
147.3612865393226059
 31
0.0
  0
ARC
  5
87E9
  8
0
 10
4317.2089636904320287
 20
147.4657116630411053
 30
0.0
 40
0.861923749046134
 50
185.5176592174879886
 51
186.9586820053588099
  0
ARC
  5
87EA
  8
0
 10
4316.8898065688226779
 20
147.4323907432425074
 30
0.0
 40
0.5410471938122474
 50
172.4992254623502959
 51
185.2551624284454874
  0
LINE
  5
87EB
  8
0
 10
4316.3533890634753334
 20
147.5030188246848866
 30
0.0
 11
4316.3534858856937717
 21
147.5111003804829011
 31
0.0
  0
LINE
  5
87EC
  8
0
 10
4316.3533890632343173
 20
147.5998902638565085
 30
0.0
 11
4316.3528607120560991
 21
147.6179098248404102
 31
0.0
  0
ARC
  5
87ED
  8
0
 10
4316.8839957801828859
 20
147.6841357896890088
 30
0.0
 40
0.5352479229426339
 50
172.5039754105343093
 51
187.1073926847608959
  0
LINE
  5
87EE
  8
0
 10
4316.353322131261848
 20
147.753962842870294
 30
0.0
 11
4316.3534403670337269
 21
147.7636089783044895
 31
0.0
  0
LINE
  5
87EF
  8
0
 10
4316.3533890633034389
 20
147.8524530748136101
 30
0.0
 11
4316.35337195811735
 21
147.8657368629999951
 31
0.0
  0
ARC
  5
87F0
  8
0
 10
4316.8777761946466853
 20
147.9360204935271099
 30
0.0
 40
0.5290931789497292
 50
172.4071122019929021
 51
187.6336150541887093
  0
LINE
  5
87F1
  8
0
 10
4316.353322131261848
 20
148.0059313468364905
 30
0.0
 11
4316.3534023819556751
 21
148.0161179008919987
 31
0.0
  0
LINE
  5
87F2
  8
0
 10
4316.3533890632334078
 20
148.1050133763322947
 30
0.0
 11
4316.3532857608706763
 21
148.1184962466759885
 31
0.0
  0
ARC
  5
87F3
  8
0
 10
4316.8847400514623587
 20
148.1880593970957136
 30
0.0
 40
0.5359875883666129
 50
172.5129344645011997
 51
187.457168606206892
  0
LINE
  5
87F4
  8
0
 10
4316.353322131261848
 20
148.2578998508031134
 30
0.0
 11
4316.3534242619361976
 21
148.270379799502507
 31
0.0
  0
LINE
  5
87F5
  8
0
 10
4316.3533890632934344
 20
148.3593765682018955
 30
0.0
 11
4316.3531251757904101
 21
148.3714855362848937
 31
0.0
  0
ARC
  5
87F6
  8
0
 10
4316.8904155008849557
 20
148.4401678185842002
 30
0.0
 40
0.5416623942475367
 50
172.498421660198602
 51
187.2846611026816959
  0
LINE
  5
87F7
  8
0
 10
4316.3533890513317601
 20
148.5108837419901988
 30
0.0
 11
4316.3536972941456042
 21
148.522933523104598
 31
0.0
  0
LINE
  5
87F8
  8
0
 10
4316.3533890632334078
 20
148.6118917608627044
 30
0.0
 11
4316.351482536898402
 21
148.6380598263569937
 31
0.0
  0
ARC
  5
87F9
  8
0
 10
4316.9104069330905986
 20
148.6931286838112953
 30
0.0
 40
0.5616307147243611
 50
172.6515739591293084
 51
185.6269908458442046
  0
LINE
  5
87FA
  8
0
 10
4316.3533890632315888
 20
148.7649628844395124
 30
0.0
 11
4316.3537175949313678
 21
148.7749078644208112
 31
0.0
  0
LINE
  5
87FB
  8
0
 10
4316.3533890633034389
 20
148.8638602648213975
 30
0.0
 11
4316.3533379490636435
 21
148.8734769667439082
 31
0.0
  0
ARC
  5
87FC
  8
0
 10
4316.8886432996969233
 20
148.9437015051061906
 30
0.0
 40
0.5398919375237095
 50
172.5391943924367126
 51
187.4737223558981896
  0
LINE
  5
87FD
  8
0
 10
4316.353322131261848
 20
149.013805362560305
 30
0.0
 11
4316.3533906202228536
 21
149.027261729046387
 31
0.0
  0
LINE
  5
87FE
  8
0
 10
4316.3533890632334078
 20
149.1163446457867963
 30
0.0
 11
4316.3533379490636435
 21
149.1254454707101047
 31
0.0
  0
ARC
  5
87FF
  8
0
 10
4316.889603736834033
 20
149.195735766571886
 30
0.0
 40
0.5408527718564022
 50
172.5049331415669087
 51
187.4673951580799951
  0
LINE
  5
8800
  8
0
 10
4316.3533719591669069
 20
149.2662850503739094
 30
0.0
 11
4316.3534539114607469
 21
149.2797211493995917
 31
0.0
  0
LINE
  5
8801
  8
0
 10
4316.3533890632315888
 20
149.3688206604647917
 30
0.0
 11
4316.3531251832500857
 21
149.3793594919397947
 31
0.0
  0
ARC
  5
8802
  8
0
 10
4317.0620043042908947
 20
149.4475472623551866
 30
0.0
 40
0.7121510937164692
 50
174.3019709353314965
 51
185.4944321158403113
  0
LINE
  5
8803
  8
0
 10
4316.3533719591669069
 20
149.5182535543401059
 30
0.0
 11
4316.3537734832998467
 21
149.5322954011211891
 31
0.0
  0
LINE
  5
8804
  8
0
 10
4316.3533890632979819
 20
149.6212867418466885
 30
0.0
 11
4316.3528834866920079
 21
149.6329303578199017
 31
0.0
  0
ARC
  5
8805
  8
0
 10
4316.892319905155091
 20
149.6998547106717012
 30
0.0
 40
0.5435719994334181
 50
172.5074130417019944
 51
187.0721764717125097
  0
LINE
  5
8806
  8
0
 10
4316.3533890643393534
 20
149.7707353666066865
 30
0.0
 11
4316.3541013383755853
 21
149.7847634723921999
 31
0.0
  0
LINE
  5
8807
  8
0
 10
4316.3533215043398741
 20
149.8737484332021097
 30
0.0
 11
4316.3533685272968796
 21
149.8811184152241083
 31
0.0
  0
ARC
  5
8808
  8
0
 10
4316.8886423232197558
 20
149.9515755860988122
 30
0.0
 40
0.5398909607776459
 50
172.5391877960969111
 51
187.498636258402513
  0
LINE
  5
8809
  8
0
 10
4316.3533221313327886
 20
150.0216793783548042
 30
0.0
 11
4316.35321478852984
 21
150.0369258113126989
 31
0.0
  0
ARC
  5
880A
  8
0
 10
4316.3183841101035796
 20
150.8540503424675023
 30
0.0
 40
0.0151214553927781
 50
72.4354909549187056
 51
110.2486370277805037
  0
ARC
  5
880B
  8
0
 10
4316.3236432382209387
 20
150.8397938075441971
 30
0.0
 40
0.0303170868886816
 50
110.2486370277805037
 51
133.0522572258080061
  0
ARC
  5
880C
  8
0
 10
4316.3460800425737034
 20
150.8157772341178884
 30
0.0
 40
0.063183574208638
 50
133.0522572258080061
 51
147.1136817433364001
  0
ARC
  5
880D
  8
0
 10
4316.3705790194171641
 20
150.7999364324699059
 30
0.0
 40
0.092357721380047
 50
147.1136817433364001
 51
161.8916295749378946
  0
ARC
  5
880E
  8
0
 10
4316.4004391828439111
 20
150.7901717980809053
 30
0.0
 40
0.1237739185505126
 50
161.8916295749378946
 51
188.8923245491415912
  0
ARC
  5
880F
  8
0
 10
4316.3889865228447889
 20
150.7883799311952089
 30
0.0
 40
0.1121819295934799
 50
188.8923245491415912
 51
203.7228627641430023
  0
ARC
  5
8810
  8
0
 10
4316.3617857883891702
 20
150.7764266958853057
 30
0.0
 40
0.0824706558178888
 50
203.7228627641430023
 51
221.8130631490261067
  0
ARC
  5
8811
  8
0
 10
4316.3256405385964172
 20
150.7440942807687918
 30
0.0
 40
0.033974633817219
 50
221.8130631490261067
 51
240.5220249674675017
  0
ARC
  5
8812
  8
0
 10
4316.3198563117557569
 20
150.7338615183986121
 30
0.0
 40
0.022220200362133
 50
240.5220249674675017
 51
266.6082418718885947
  0
LINE
  5
8813
  8
0
 10
4316.2809600699856674
 20
150.7116802400796018
 30
0.0
 11
4316.3391263686326056
 21
150.7116981195846961
 31
0.0
  0
ARC
  5
8814
  8
0
 10
4316.3391263686326056
 20
150.7143207255872142
 30
0.0
 40
0.0026226060026233
 50
270.0
 51
316.9899051983138065
  0
ARC
  5
8815
  8
0
 10
4316.333076521896146
 20
150.7199642920699034
 30
0.0
 40
0.0108960870225827
 50
316.9899051983138065
 51
333.0796364777543204
  0
ARC
  5
8816
  8
0
 10
4316.3247100168928228
 20
150.7242916361535947
 30
0.0
 40
0.0203153040428418
 50
332.880888093482497
 51
352.7916457707971745
  0
ARC
  5
8817
  8
0
 10
4316.1314757210620883
 20
150.7481057795756954
 30
0.0
 40
0.2150114008438587
 50
352.9570503116183886
 51
356.2103260866184087
  0
ARC
  5
8818
  8
0
 10
4312.6208509547914218
 20
150.7531590355380899
 30
0.0
 40
3.725215833348118
 50
359.7037046119567094
 51
0.7777163059422915
  0
ARC
  5
8819
  8
0
 10
4316.056280610144313
 20
150.7821059951772042
 30
0.0
 40
0.2902490761872563
 50
4.271094831302336
 51
12.5751444023962797
  0
ARC
  5
881A
  8
0
 10
4316.2993235433841619
 20
150.8363218350584987
 30
0.0
 40
0.0412325612893165
 50
12.5751444024193297
 51
40.3584789760142968
  0
ARC
  5
881B
  8
0
 10
4316.3164789908223611
 20
150.8509008414600885
 30
0.0
 40
0.018719080784341
 50
40.3584789760142968
 51
69.7843507559646241
  0
LINE
  5
881C
  8
0
 10
4316.3177422909902816
 20
150.8691581709485945
 30
0.0
 11
4316.2809708258719184
 21
150.8690178302138065
 31
0.0
  0
ARC
  5
881D
  8
0
 10
4316.3088797719219656
 20
150.8380542630085017
 30
0.0
 40
0.0416851503981772
 50
122.4295289759643026
 51
132.0298516240883941
  0
ARC
  5
881E
  8
0
 10
4316.2994035223418905
 20
150.8533589491179896
 30
0.0
 40
0.0236863743322921
 50
93.2419189019810659
 51
122.9347914302418019
  0
ARC
  5
881F
  8
0
 10
4316.2970796233894362
 20
150.8575181280527033
 30
0.0
 40
0.0195141335347712
 50
53.588727163305272
 51
87.1084950967378262
  0
ARC
  5
8820
  8
0
 10
4316.2925066243060428
 20
150.8513411340699122
 30
0.0
 40
0.0271996680118971
 50
40.9001523892229386
 51
53.5598227899267485
  0
ARC
  5
8821
  8
0
 10
4316.3221324224159616
 20
150.8216972129027909
 30
0.0
 40
0.0627177634554311
 50
131.0182097870703046
 51
147.0572755283313882
  0
ARC
  5
8822
  8
0
 10
4316.3625209014471693
 20
150.7930810744994119
 30
0.0
 40
0.1121930670051963
 50
146.017713829942096
 51
166.6825101621934948
  0
ARC
  5
8823
  8
0
 10
4316.3766876440358828
 20
150.7900257890100022
 30
0.0
 40
0.126682953571104
 50
166.813733524601588
 51
184.865237648885909
  0
ARC
  5
8824
  8
0
 10
4316.3660496163229254
 20
150.7891202896992127
 30
0.0
 40
0.116006457769237
 50
184.8652376488867048
 51
202.4745157201296877
  0
ARC
  5
8825
  8
0
 10
4316.3633789988762146
 20
150.7880154751285033
 30
0.0
 40
0.1131163344521351
 50
202.4745157201296877
 51
215.1931652857288952
  0
ARC
  5
8826
  8
0
 10
4316.3228473064600621
 20
150.7594307516667982
 30
0.0
 40
0.0635189100684529
 50
215.1931652857288952
 51
228.7424303485954908
  0
ARC
  5
8827
  8
0
 10
4316.3051772563012491
 20
150.7392872901766054
 30
0.0
 40
0.0367235800011656
 50
228.7424303485954908
 51
253.8149150876782869
  0
LINE
  5
8828
  8
0
 10
4316.2949408846479855
 20
150.7040192022855933
 30
0.0
 11
4316.3185298361886453
 21
150.7038059385461963
 31
0.0
  0
ARC
  5
8829
  8
0
 10
4316.407132335123606
 20
150.6725096585244046
 30
0.0
 40
0.0897774446788466
 50
154.1314721848848137
 51
155.668428692859095
  0
ARC
  5
882A
  8
0
 10
4316.3143563141720733
 20
150.7144611973727137
 30
0.0
 40
0.0120426008682513
 50
322.3710688241886828
 51
335.668428692859095
  0
ARC
  5
882B
  8
0
 10
4316.3139572994969058
 20
150.7147688011341984
 30
0.0
 40
0.0125464190745686
 50
307.2246440318754139
 51
322.3710688241886828
  0
ARC
  5
882C
  8
0
 10
4316.3184069184680993
 20
150.7093542428063984
 30
0.0
 40
0.0055496656591469
 50
271.2691291564945004
 51
304.4607657005931856
  0
ARC
  5
882D
  8
0
 10
4316.457631984038926
 20
151.0380412361315052
 30
0.0
 40
0.2403561226182994
 50
223.8110477568498879
 51
224.6825682163137117
  0
ARC
  5
882E
  8
0
 10
4316.2884365966583573
 20
150.7144179567094966
 30
0.0
 40
0.0122653926079734
 50
302.0254529654470161
 51
347.1025575967461236
  0
ARC
  5
882F
  8
0
 10
4316.3184283800510457
 20
150.8213972468354882
 30
0.0
 40
0.0083402948984588
 50
44.2339014893772671
 51
123.676596010399507
  0
ARC
  5
8830
  8
0
 10
4316.3252254920207633
 20
150.8111963830523905
 30
0.0
 40
0.0205982862939232
 50
123.676596010399507
 51
147.3967386334180958
  0
ARC
  5
8831
  8
0
 10
4316.3480759767317068
 20
150.7965810556889039
 30
0.0
 40
0.0477230433533986
 50
147.3967386334180958
 51
167.5915987610536888
  0
ARC
  5
8832
  8
0
 10
4316.37879272279406
 20
150.7898228192144927
 30
0.0
 40
0.0791744701705202
 50
167.5915987610536888
 51
182.5546494977108125
  0
ARC
  5
8833
  8
0
 10
4316.3634614884267648
 20
150.7891387914347092
 30
0.0
 40
0.0638279838888361
 50
182.5546494977108125
 51
199.4983329229430069
  0
ARC
  5
8834
  8
0
 10
4316.3438199131142028
 20
150.7821839879713934
 30
0.0
 40
0.0429914589370686
 50
199.4983329229430069
 51
215.4510269446315078
  0
ARC
  5
8835
  8
0
 10
4316.3235058843984007
 20
150.767720313574614
 30
0.0
 40
0.0180543853379887
 50
215.4510269446300867
 51
232.2066711469585982
  0
ARC
  5
8836
  8
0
 10
4316.3204549823867637
 20
150.7637861686401095
 30
0.0
 40
0.0130758816028891
 50
232.2066711469601046
 51
252.2323613531771969
  0
ARC
  5
8837
  8
0
 10
4316.3186386722691168
 20
150.7581180278222917
 30
0.0
 40
0.0071238397029773
 50
252.2323613531777937
 51
308.2913914864735716
  0
ARC
  5
8838
  8
0
 10
4316.3115642055699936
 20
150.7670786239933989
 30
0.0
 40
0.0185405100942757
 50
308.2913914864735716
 51
337.7179982486837844
  0
ARC
  5
8839
  8
0
 10
4316.2692457740358805
 20
150.7844191501640978
 30
0.0
 40
0.0642739059364683
 50
337.7179982486837844
 51
348.757126384233004
  0
ARC
  5
883A
  8
0
 10
4316.2475948656783657
 20
150.7887229842071974
 30
0.0
 40
0.0863484347031755
 50
348.757126384233004
 51
1.2626119006592691
  0
ARC
  5
883B
  8
0
 10
4316.1981689071026267
 20
150.7876336211203068
 30
0.0
 40
0.135786396765768
 50
1.2626119006592691
 51
9.2297297583628257
  0
ARC
  5
883C
  8
0
 10
4316.2889799772901824
 20
150.8023901654543124
 30
0.0
 40
0.0437841898947454
 50
9.229729758362021
 51
22.9715050398494505
  0
ARC
  5
883D
  8
0
 10
4316.3032489962133695
 20
150.8084386313572054
 30
0.0
 40
0.0282861628974968
 50
22.97150503984982
 51
41.5913052773331984
  0
LINE
  5
883E
  8
0
 10
4316.281026712568746
 20
150.4202779478493994
 30
0.0
 11
4316.3391442482088678
 21
150.4203416573772927
 31
0.0
  0
ARC
  5
883F
  8
0
 10
4316.3391442482088678
 20
150.4176323296152873
 30
0.0
 40
0.0027093277619889
 50
37.8913180366686078
 51
90.0
  0
ARC
  5
8840
  8
0
 10
4316.3231780580208579
 20
150.4052068747411965
 30
0.0
 40
0.0229407676010518
 50
32.0862411464330179
 51
37.8913180366676414
  0
ARC
  5
8841
  8
0
 10
4316.329397086436984
 20
150.4091059831382893
 30
0.0
 40
0.0156005114247181
 50
1.842683401117865
 51
32.0862411464330179
  0
ARC
  5
8842
  8
0
 10
4316.2162872757271543
 20
150.3922930929896893
 30
0.0
 40
0.1298617085701536
 50
357.5299487634753177
 51
7.6620934170315831
  0
ARC
  5
8843
  8
0
 10
4315.8783814208791227
 20
150.3593278444454882
 30
0.0
 40
0.4684470819081002
 50
355.637451178246522
 51
3.3493587793853798
  0
ARC
  5
8844
  8
0
 10
4316.1001548852445922
 20
150.3424091187467013
 30
0.0
 40
0.2460292031834371
 50
347.9116556861911818
 51
355.637451178246522
  0
ARC
  5
8845
  8
0
 10
4316.2835558539718477
 20
150.3028425536269026
 30
0.0
 40
0.0584096552768606
 50
328.0107125538640958
 51
348.1877338136571893
  0
ARC
  5
8846
  8
0
 10
4316.3147662739065709
 20
150.2834912065538902
 30
0.0
 40
0.021687382175569
 50
293.5719823175539887
 51
327.6903448955533804
  0
ARC
  5
8847
  8
0
 10
4316.3184489686764209
 20
150.2753986171389897
 30
0.0
 40
0.0127980952752037
 50
244.1586160346980137
 51
292.9489148930891815
  0
ARC
  5
8848
  8
0
 10
4316.3336360308212534
 20
150.3072315962737946
 30
0.0
 40
0.0480681110233443
 50
226.9408750080347943
 51
244.4053310777402999
  0
ARC
  5
8849
  8
0
 10
4316.3333785412332873
 20
150.3069560431329137
 30
0.0
 40
0.0476909765345429
 50
206.0554845405980871
 51
226.9408750080351069
  0
ARC
  5
884A
  8
0
 10
4316.3233265528106131
 20
150.3873152623349085
 30
0.0
 40
0.0336634527966033
 50
101.1643896759912025
 51
108.6859551309248957
  0
ARC
  5
884B
  8
0
 10
4316.3185705339583365
 20
150.4013776646307008
 30
0.0
 40
0.0188185589387922
 50
108.6859551309248957
 51
123.5914430024706974
  0
ARC
  5
884C
  8
0
 10
4316.3354706480649838
 20
150.3759327043478038
 30
0.0
 40
0.0493645874961018
 50
123.5914430024706974
 51
134.7760911853922039
  0
ARC
  5
884D
  8
0
 10
4316.3377047891881375
 20
150.3736810328211106
 30
0.0
 40
0.0525365602613149
 50
134.7760911853922039
 51
149.3461358995637056
  0
ARC
  5
884E
  8
0
 10
4316.394173920339199
 20
150.340213587636498
 30
0.0
 40
0.1181782593564033
 50
149.3461358995637056
 51
161.453277642709395
  0
ARC
  5
884F
  8
0
 10
4316.3837157780762936
 20
150.3437223186296023
 30
0.0
 40
0.1071472153081907
 50
161.453277642709395
 51
181.7920963335457998
  0
ARC
  5
8850
  8
0
 10
4316.4170965421299115
 20
150.3447667421642109
 30
0.0
 40
0.1405443144251634
 50
181.7920963335457998
 51
196.9272433237480016
  0
ARC
  5
8851
  8
0
 10
4316.3598441072626883
 20
150.3273423825766031
 30
0.0
 40
0.0806991007045627
 50
196.9272433237480016
 51
210.8105710624390952
  0
ARC
  5
8852
  8
0
 10
4316.318277291303275
 20
150.3718077559142898
 30
0.0
 40
0.0090631138315936
 50
34.0818720777583124
 51
140.6182216593506951
  0
ARC
  5
8853
  8
0
 10
4316.3556797763767463
 20
150.3411049238789019
 30
0.0
 40
0.0574532965615307
 50
140.6182216593506951
 51
153.144637168168714
  0
ARC
  5
8854
  8
0
 10
4316.3386064472269936
 20
150.3497499999770071
 30
0.0
 40
0.038316005505475
 50
153.144637168168714
 51
175.9865168118863892
  0
ARC
  5
8855
  8
0
 10
4316.3731497561357173
 20
150.3415911702788037
 30
0.0
 40
0.0735684365271194
 50
171.5263737949589995
 51
186.6210887038699866
  0
ARC
  5
8856
  8
0
 10
4316.3606054290230531
 20
150.3396458079186004
 30
0.0
 40
0.0608854091097744
 50
186.1637446530266118
 51
203.799889310897214
  0
ARC
  5
8857
  8
0
 10
4316.3547593027988114
 20
150.3413679322252108
 30
0.0
 40
0.0563688909029941
 50
207.8026882770161876
 51
218.571627069845789
  0
ARC
  5
8858
  8
0
 10
4316.3182731019678613
 20
150.3122709512072106
 30
0.0
 40
0.0097011594877391
 50
218.5716270698441974
 51
333.9930795808379003
  0
ARC
  5
8859
  8
0
 10
4316.303473355760616
 20
150.3599340967957119
 30
0.0
 40
0.0280202809874931
 50
15.0710485839983193
 51
37.229225637163367
  0
ARC
  5
885A
  8
0
 10
4316.2245596979555557
 20
150.3386843298582107
 30
0.0
 40
0.1097449283286037
 50
8.2250732010914795
 51
15.0710485839983193
  0
ARC
  5
885B
  8
0
 10
4316.2572444376801286
 20
150.3434088739022059
 30
0.0
 40
0.0767204899941822
 50
358.0169555429772004
 51
8.2250732010914795
  0
ARC
  5
885C
  8
0
 10
4316.2537056555593153
 20
150.3394038179962138
 30
0.0
 40
0.0802246886231814
 50
349.8300524245545944
 51
0.9643749930647206
  0
ARC
  5
885D
  8
0
 10
4316.2743948685401847
 20
150.3339578298455024
 30
0.0
 40
0.0589236885059236
 50
338.6203934959286244
 51
351.490474490744873
  0
ARC
  5
885E
  8
0
 10
4316.3024779375637081
 20
150.3233120139591108
 30
0.0
 40
0.028894075592922
 50
328.0390476708465144
 51
337.9772627292003904
  0
ARC
  5
885F
  8
0
 10
4316.3051615667836813
 20
150.4121224421272132
 30
0.0
 40
0.0226717362173994
 50
21.2557368141580305
 51
35.0966454285525771
  0
ARC
  5
8860
  8
0
 10
4316.3177582285798053
 20
150.420974422557407
 30
0.0
 40
0.0072758456630957
 50
35.0966454285569114
 51
84.4104676494701636
  0
LINE
  5
8861
  8
0
 10
4316.3184669037709682
 20
150.4282156731117936
 30
0.0
 11
4316.2968090323038268
 21
150.4282147505197997
 31
0.0
  0
ARC
  5
8862
  8
0
 10
4316.2981497782557199
 20
150.4104952514761919
 30
0.0
 40
0.0177701504233046
 50
94.3270401993515861
 51
109.4118391266479051
  0
ARC
  5
8863
  8
0
 10
4316.3001211495757161
 20
150.403596157040397
 30
0.0
 40
0.0249360270511014
 50
108.4153892384300946
 51
127.3042124889108067
  0
ARC
  5
8864
  8
0
 10
4316.3675378425677991
 20
150.315112593907088
 30
0.0
 40
0.136176089253518
 50
127.3042124889108067
 51
129.4413997100207894
  0
ARC
  5
8865
  8
0
 10
4316.3115691831226286
 20
150.3831496647430868
 30
0.0
 40
0.0480765214454784
 50
129.4413997100207894
 51
145.5129036416250869
  0
ARC
  5
8866
  8
0
 10
4316.4267026106717822
 20
150.3029000727044036
 30
0.0
 40
0.1884170729503194
 50
145.2224644477524862
 51
150.5436375808758953
  0
ARC
  5
8867
  8
0
 10
4316.3299321724371111
 20
150.3579920178308953
 30
0.0
 40
0.0770650065099231
 50
150.8279082100746109
 51
165.2047850701613072
  0
ARC
  5
8868
  8
0
 10
4316.4429532912472496
 20
150.3281406478403142
 30
0.0
 40
0.1939618738217535
 50
165.2047850701613072
 51
173.2762508066795135
  0
ARC
  5
8869
  8
0
 10
4316.339921127380876
 20
150.3402874438320111
 30
0.0
 40
0.090216168157752
 50
173.2762508066803093
 51
191.3777749832335928
  0
ARC
  5
886A
  8
0
 10
4316.4510642294935678
 20
150.362652962596087
 30
0.0
 40
0.2035872649014563
 50
191.3777749832335928
 51
198.3985774000265963
  0
ARC
  5
886B
  8
0
 10
4316.3341334692049713
 20
150.3237585003662957
 30
0.0
 40
0.0803574718571377
 50
198.3985774000265963
 51
217.0340017670764041
  0
ARC
  5
886C
  8
0
 10
4316.3412289931447958
 20
150.3291119659799051
 30
0.0
 40
0.0892460068353244
 50
217.0340017670764041
 51
231.8081690671187971
  0
ARC
  5
886D
  8
0
 10
4316.2974939775458552
 20
150.2735183665216141
 30
0.0
 40
0.0185112919479736
 50
231.8081690671203035
 51
271.9807851477870031
  0
ARC
  5
886E
  8
0
 10
4316.297572605669302
 20
150.274422855285394
 30
0.0
 40
0.0194128332981727
 50
271.6565850585311068
 51
323.0579707783015238
  0
LINE
  5
886F
  8
0
 10
4316.3160635093418023
 20
150.2627796445590889
 30
0.0
 11
4316.2814317974271034
 21
150.2628613424336947
 31
0.0
  0
LINE
  5
8870
  8
0
 10
4316.2865614974989512
 20
150.2628512473530122
 30
0.0
 11
4316.2842378274617658
 21
150.2604325893809971
 31
0.0
  0
ARC
  5
8871
  8
0
 10
4316.2930668829103524
 20
150.4230081856073014
 30
0.0
 40
0.0052449405233524
 50
37.1816637681359907
 51
69.5330491756158011
  0
ARC
  5
8872
  8
0
 10
4316.2802701565287862
 20
150.4131966493224866
 30
0.0
 40
0.0213700991589872
 50
19.5327759649185886
 51
37.4054122934557185
  0
LINE
  5
8873
  8
0
 10
4316.3511232400551307
 20
150.0020943467582129
 30
0.0
 11
4316.3812822313857396
 21
149.9989245091072974
 31
0.0
  0
LINE
  5
8874
  8
0
 10
4316.3812822313857396
 20
149.9989245091072974
 30
0.0
 11
4316.3884880211417112
 21
149.9165619553185138
 31
0.0
  0
LINE
  5
8875
  8
0
 10
4316.3884880211417112
 20
149.9165619553185138
 30
0.0
 11
4316.3507010924586211
 21
149.9057336644879967
 31
0.0
  0
LINE
  5
8876
  8
0
 10
4316.3510052851279397
 20
149.7493420900111971
 30
0.0
 11
4316.3820014924849602
 21
149.7455362342851117
 31
0.0
  0
LINE
  5
8877
  8
0
 10
4316.3820014924849602
 20
149.7455362342851117
 30
0.0
 11
4316.3877687600434001
 21
149.6630604663365887
 31
0.0
  0
LINE
  5
8878
  8
0
 10
4316.3877687600434001
 20
149.6630604663365887
 30
0.0
 11
4316.3507586490031827
 21
149.6531436369963899
 31
0.0
  0
LINE
  5
8879
  8
0
 10
4316.3515389197918921
 20
149.4965178424147041
 30
0.0
 11
4316.3827216319496074
 21
149.4921353979935077
 31
0.0
  0
LINE
  5
887A
  8
0
 10
4316.3827216319496074
 20
149.4921353979935077
 30
0.0
 11
4316.3870486205069028
 21
149.4095715388945109
 31
0.0
  0
LINE
  5
887B
  8
0
 10
4316.3870486205069028
 20
149.4095715388945109
 30
0.0
 11
4316.3513969017049021
 21
149.4006825669954139
 31
0.0
  0
LINE
  5
887C
  8
0
 10
4316.3508977090132248
 20
149.2438765643765919
 30
0.0
 11
4316.3834424305114226
 21
149.2387219868687964
 31
0.0
  0
LINE
  5
887D
  8
0
 10
4316.3834424305114226
 20
149.2387219868687964
 30
0.0
 11
4316.3863278219459971
 21
149.1560951862151114
 31
0.0
  0
LINE
  5
887E
  8
0
 10
4316.3863278219459971
 20
149.1560951862151114
 30
0.0
 11
4316.350869734556909
 21
149.147909041678588
 31
0.0
  0
LINE
  5
887F
  8
0
 10
4316.3508423059583947
 20
148.9911714465175123
 30
0.0
 11
4316.3841636684692276
 21
148.9852959912232109
 31
0.0
  0
LINE
  5
8880
  8
0
 10
4316.3841636684692276
 20
148.9852959912232109
 30
0.0
 11
4316.3856065839900111
 21
148.9026314180565862
 31
0.0
  0
LINE
  5
8881
  8
0
 10
4316.3856065839900111
 20
148.9026314180565862
 30
0.0
 11
4316.3509289067324062
 21
148.8952604501770907
 31
0.0
  0
LINE
  5
8882
  8
0
 10
4316.350733153451074
 20
148.7399722544060126
 30
0.0
 11
4316.3848851262637254
 21
148.733333783335496
 31
0.0
  0
LINE
  5
8883
  8
0
 10
4316.3848851262637254
 20
148.733333783335496
 30
0.0
 11
4316.3848851261927848
 21
148.6506566180113964
 31
0.0
  0
LINE
  5
8884
  8
0
 10
4316.3848851261927848
 20
148.6506566180113964
 30
0.0
 11
4316.3509242594045645
 21
148.6440552942133877
 31
0.0
  0
LINE
  5
8885
  8
0
 10
4316.3509342874021968
 20
148.4887288074669982
 30
0.0
 11
4316.3856065839891016
 21
148.4813589833611047
 31
0.0
  0
LINE
  5
8886
  8
0
 10
4316.3856065839891016
 20
148.4813589833611047
 30
0.0
 11
4316.3841636685383492
 21
148.3986944101237953
 31
0.0
  0
LINE
  5
8887
  8
0
 10
4316.3841636685383492
 20
148.3986944101237953
 30
0.0
 11
4316.3508267914157841
 21
148.3928162192912055
 31
0.0
  0
LINE
  5
8888
  8
0
 10
4316.3509072886772628
 20
148.2360726896318113
 30
0.0
 11
4316.3863278219459971
 21
148.2278952152026079
 31
0.0
  0
LINE
  5
8889
  8
0
 10
4316.3863278219459971
 20
148.2278952152026079
 30
0.0
 11
4316.3834424305114226
 21
148.1452684145490082
 31
0.0
  0
LINE
  5
888A
  8
0
 10
4316.3834424305114226
 20
148.1452684145490082
 30
0.0
 11
4316.3509011521218781
 21
148.1401143823939037
 31
0.0
  0
LINE
  5
888B
  8
0
 10
4316.3508134628682456
 20
147.9834533020768959
 30
0.0
 11
4316.3870486205069028
 21
147.9744188625232937
 31
0.0
  0
LINE
  5
888C
  8
0
 10
4316.3870486205069028
 20
147.9744188625232937
 30
0.0
 11
4316.3827216319496074
 21
147.8918550034242116
 31
0.0
  0
LINE
  5
888D
  8
0
 10
4316.3827216319496074
 20
147.8918550034242116
 30
0.0
 11
4316.3509230102517904
 21
147.8873859985272929
 31
0.0
  0
LINE
  5
888E
  8
0
 10
4316.3507892628531408
 20
147.7308385614610131
 30
0.0
 11
4316.3854289094706473
 21
147.721556896150588
 31
0.0
  0
LINE
  5
888F
  8
0
 10
4316.3854289094706473
 20
147.721556896150588
 30
0.0
 11
4316.3820014924840507
 21
147.6384541671324939
 31
0.0
  0
LINE
  5
8890
  8
0
 10
4316.3820014924840507
 20
147.6384541671324939
 30
0.0
 11
4316.3510401050580185
 21
147.6346525868073911
 31
0.0
  0
LINE
  5
8891
  8
0
 10
4316.3507074069666487
 20
147.4782618628941009
 30
0.0
 11
4316.3884880211417112
 21
147.4674284460992055
 31
0.0
  0
LINE
  5
8892
  8
0
 10
4316.3884880211417112
 20
147.4674284460992055
 30
0.0
 11
4316.3812822313857396
 21
147.3850658923105073
 31
0.0
  0
LINE
  5
8893
  8
0
 10
4316.3812822313857396
 20
147.3850658923105073
 30
0.0
 11
4316.3511248239392444
 21
147.3818962211213091
 31
0.0
  0
ARC
  5
8894
  8
0
 10
4316.3452522005891296
 20
146.6251619953870033
 30
0.0
 40
0.0081505285573006
 50
332.651365557398492
 51
3.3183611074289501
  0
ARC
  5
8895
  8
0
 10
4315.5775876610532578
 20
147.0256369150314981
 30
0.0
 40
0.8739963116269009
 50
330.6383316536786765
 51
332.4517491846527264
  0
ARC
  5
8896
  8
0
 10
4316.6683578944666806
 20
146.4119805455800929
 30
0.0
 40
0.3775442757575671
 50
150.6383316536787049
 51
155.8491536094794867
  0
ARC
  5
8897
  8
0
 10
4379.9551514934546503
 20
118.0350018297513941
 30
0.0
 40
69.7351045347481744
 50
155.8491536094794867
 51
155.8880386140110943
  0
ARC
  5
8898
  8
0
 10
4316.6940274215512545
 20
146.3489210045771074
 30
0.0
 40
0.4267512295409912
 50
155.8880386140110943
 51
164.942698077445101
  0
ARC
  5
8899
  8
0
 10
4317.3976094949557591
 20
146.1596423759455092
 30
0.0
 40
1.155348603453763
 50
164.942698077445101
 51
167.6137671262816866
  0
ARC
  5
889A
  8
0
 10
4316.7289109513167205
 20
146.3201184358863998
 30
0.0
 40
0.4679817303728917
 50
169.2428818212613066
 51
177.3351171735207004
  0
ARC
  5
889B
  8
0
 10
4317.1128392589398572
 20
146.3264838914012955
 30
0.0
 40
0.851543081175691
 50
178.9642318684936129
 51
182.3076117873862074
  0
ARC
  5
889C
  8
0
 10
4316.5820113694608153
 20
146.3050930059496864
 30
0.0
 40
0.3202843699724637
 50
182.3076117873862074
 51
192.0508473956942055
  0
ARC
  5
889D
  8
0
 10
4316.8334149827578585
 20
146.3462817641330105
 30
0.0
 40
0.5748767174379203
 50
190.8341411604378095
 51
201.240717708667205
  0
ARC
  5
889E
  8
0
 10
4316.7965262367943069
 20
146.3198455603260015
 30
0.0
 40
0.5310361865521502
 50
200.0240114733958023
 51
206.2036314240235981
  0
ARC
  5
889F
  8
0
 10
4317.242174401468219
 20
146.5205490334710134
 30
0.0
 40
1.019645271528614
 50
205.2649400441036107
 51
209.2480918950579962
  0
ARC
  5
88A0
  8
0
 10
4316.3446959915727348
 20
146.0183656517419877
 30
0.0
 40
0.0087851097467752
 50
351.6990515676538962
 51
27.0315852860933603
  0
LINE
  5
88A1
  8
0
 10
4316.3533890632334078
 20
146.0170973227747027
 30
0.0
 11
4316.3533890632334078
 21
145.8387099547383059
 31
0.0
  0
ARC
  5
88A2
  8
0
 10
4316.3404282712017448
 20
145.8388583983931994
 30
0.0
 40
0.0129616420861172
 50
336.5145898240003248
 51
359.3438037558591986
  0
ARC
  5
88A3
  8
0
 10
4317.0185060114254156
 20
145.4473935297851028
 30
0.0
 40
0.7700883998858692
 50
149.8921005873525871
 51
158.3237639502393961
  0
ARC
  5
88A4
  8
0
 10
4316.9403886374857393
 20
145.4784426838164961
 30
0.0
 40
0.6860266721067715
 50
158.3237639502393961
 51
167.9971521652086039
  0
ARC
  5
88A5
  8
0
 10
4316.6498117155979344
 20
145.5402218107884096
 30
0.0
 40
0.3889549500195865
 50
167.9971521652086039
 51
181.7133845479467027
  0
ARC
  5
88A6
  8
0
 10
4316.8011906410429219
 20
145.5447500265935901
 30
0.0
 40
0.5404015868503631
 50
181.7133845479467027
 51
191.9625787022359873
  0
ARC
  5
88A7
  8
0
 10
4316.7481958941407356
 20
145.5335218163642139
 30
0.0
 40
0.4862304145890163
 50
191.9625787022359873
 51
201.3999829190742048
  0
ARC
  5
88A8
  8
0
 10
4317.2715554123233233
 20
145.7386239887763111
 30
0.0
 40
1.0483443589102619
 50
201.3999829190742048
 51
206.5548033926999949
  0
ARC
  5
88A9
  8
0
 10
4316.974475864224587
 20
145.5901506274493897
 30
0.0
 40
0.7162290221341879
 50
206.5548033926999949
 51
209.7208341801633082
  0
ARC
  5
88AA
  8
0
 10
4316.3463509788853116
 20
145.2315717441719869
 30
0.0
 40
0.0070411121290896
 50
358.3196889422242748
 51
29.720834180155201
  0
LINE
  5
88AB
  8
0
 10
4316.3533890633034389
 20
145.2313652793542929
 30
0.0
 11
4316.3533890632443217
 21
143.3789076029723901
 31
0.0
  0
LINE
  5
88AC
  8
0
 10
4316.3399443582820822
 20
145.2579552329704029
 30
0.0
 11
4316.4443445182132564
 21
145.2585475077621027
 31
0.0
  0
ARC
  5
88AD
  8
0
 10
4316.4425636518762985
 20
145.2710427103955055
 30
0.0
 40
0.0135193564670809
 50
318.0006765652393028
 51
356.9698600914164217
  0
ARC
  5
88AE
  8
0
 10
4316.4436959577442394
 20
145.2717315791896908
 30
0.0
 40
0.0132000140184576
 50
272.8162655716899962
 51
312.4814020396286196
  0
LINE
  5
88AF
  8
0
 10
4316.4560641064681477
 20
145.2703280600607911
 30
0.0
 11
4316.4557512679602951
 21
145.7984011474646024
 31
0.0
  0
ARC
  5
88B0
  8
0
 10
4316.4437278531995617
 20
145.7981890580524009
 30
0.0
 40
0.012025285211646
 50
1.0105754736732471
 51
88.5013941907819799
  0
LINE
  5
88B1
  8
0
 10
4316.4440423459545855
 20
145.8102102301550929
 30
0.0
 11
4316.3397303785341137
 21
145.811123902219606
 31
0.0
  0
ARC
  5
88B2
  8
0
 10
4317.1155774287381064
 20
145.4822255905883992
 30
0.0
 40
0.7469742738798675
 50
153.9559296047524981
 51
163.2928035045376021
  0
ARC
  5
88B3
  8
0
 10
4316.9780525964497429
 20
145.5235038465204127
 30
0.0
 40
0.6033881536991585
 50
163.2928035045376021
 51
176.8769557684678091
  0
ARC
  5
88B4
  8
0
 10
4316.8441769438459232
 20
145.5308082962853859
 30
0.0
 40
0.4693133784940002
 50
176.8769557684678091
 51
191.1135440522205045
  0
ARC
  5
88B5
  8
0
 10
4317.1250907442872631
 20
145.5859903567319975
 30
0.0
 40
0.755595796872566
 50
191.1135440522205045
 51
199.5437123546674059
  0
ARC
  5
88B6
  8
0
 10
4317.1247936110921728
 20
145.5878125767758888
 30
0.0
 40
0.7559275452527782
 50
199.6814048962841071
 51
205.8220500481372142
  0
LINE
  5
88B7
  8
0
 10
4316.3396125024955836
 20
146.5976325999124015
 30
0.0
 11
4316.3419910855018315
 21
146.5975998032737095
 31
0.0
  0
ARC
  5
88B8
  8
0
 10
4316.3415037235299678
 20
146.5857242597137997
 30
0.0
 40
0.0118855398083572
 50
0.3782037149862071
 51
87.6499498128812604
  0
LINE
  5
88B9
  8
0
 10
4316.3533890044018335
 20
146.5858027144045934
 30
0.0
 11
4316.3532879294980376
 21
146.0569421190182027
 31
0.0
  0
ARC
  5
88BA
  8
0
 10
4316.3415195500701884
 20
146.0580397642854109
 30
0.0
 40
0.0118194576641276
 50
270.7789349528674734
 51
354.6713974214029008
  0
LINE
  5
88BB
  8
0
 10
4316.3416802304063822
 20
146.0462213988612064
 30
0.0
 11
4316.3395876827298707
 21
146.0461929489653983
 31
0.0
  0
ARC
  5
88BC
  8
0
 10
4317.081921394004894
 20
146.2194734166201044
 30
0.0
 40
0.8154486599987457
 50
153.3052905866775859
 51
160.1470068234640109
  0
ARC
  5
88BD
  8
0
 10
4316.8363937508829622
 20
146.3081254171742955
 30
0.0
 40
0.5544065163916408
 50
160.1470068234640109
 51
173.5876849465178111
  0
ARC
  5
88BE
  8
0
 10
4316.9348889287475686
 20
146.3255341281436017
 30
0.0
 40
0.6509567077585149
 50
176.0793733463515878
 51
186.167105575463296
  0
ARC
  5
88BF
  8
0
 10
4316.9018282229280885
 20
146.3500832274428944
 30
0.0
 40
0.6213539446485428
 50
188.7460804220762896
 51
208.0360700297962069
  0
LINE
  5
88C0
  8
0
 10
4315.538815540539872
 20
140.4756742421106139
 30
0.0
 11
4315.538815540539872
 21
139.7081972629106019
 31
0.0
  0
LINE
  5
88C1
  8
0
 10
4316.262536123938844
 20
141.6489025885105946
 30
0.0
 11
4316.2410839256399413
 21
141.0344545610105911
 31
0.0
  0
LINE
  5
88C2
  8
0
 10
4316.2377843253398169
 20
140.9399663720105877
 30
0.0
 11
4316.2284450541392289
 21
140.6725246358105892
 31
0.0
  0
LINE
  5
88C3
  8
0
 10
4316.189981244639057
 20
141.0153398831106131
 30
0.0
 11
4316.189981244639057
 21
141.0189813287105949
 31
0.0
  0
LINE
  5
88C4
  8
0
 10
4316.1762017170403851
 20
140.4756742421106139
 30
0.0
 11
4316.1762017170403851
 21
140.6725246358105892
 31
0.0
  0
LINE
  5
88C5
  8
0
 10
4316.2284450541392289
 20
140.6725246358105892
 30
0.0
 11
4316.1762017170403851
 21
140.6725246358105892
 31
0.0
  0
ARC
  5
88C6
  8
0
 10
4316.1762290953865886
 20
140.9831414625002992
 30
0.0
 40
0.0350122821143884
 50
295.5773347130974003
 51
66.8723652765224017
  0
ARC
  5
88C7
  8
0
 10
4316.2543589956731012
 20
141.6485991759278988
 30
0.0
 40
0.0081827553969103
 50
2.1249867112990071
 51
87.9324627739922136
  0
ARC
  5
88C8
  8
0
 10
4316.2326069028176789
 20
141.0353587540379863
 30
0.0
 40
0.0085251088134997
 50
274.0888534801263745
 51
353.9116238907134857
  0
ARC
  5
88C9
  8
0
 10
4316.1978534572881472
 20
141.0189831317611038
 30
0.0
 40
0.0078722128560124
 50
89.9868769829992345
 51
180.0131230170690912
  0
ARC
  5
88CA
  8
0
 10
4316.1978552603386561
 20
140.9559892027106116
 30
0.0
 40
0.0078740157
 50
214.2271348351910945
 51
270.0
  0
ARC
  5
88CB
  8
0
 10
4316.2299151002398503
 20
140.9402411687960921
 30
0.0
 40
0.0078740216495005
 50
358.0000189828244856
 51
90.0542911440671361
  0
LINE
  5
88CC
  8
0
 10
4316.0655563974387405
 20
140.4756742421106139
 30
0.0
 11
4316.0655563974387405
 21
139.7081972629106019
 31
0.0
  0
ARC
  5
88CD
  8
0
 10
4317.7212458219946711
 20
141.6245117733083134
 30
0.0
 40
0.4701673151867894
 50
148.1475034763458893
 51
175.5683983256847114
  0
ARC
  5
88CE
  8
0
 10
4319.5843184498862684
 20
142.4874718302613985
 30
0.0
 40
0.5947500771604507
 50
249.1595173363708113
 51
273.9174884379884247
  0
LINE
  5
88CF
  8
0
 10
4319.4816878651599836
 20
141.9492853570249054
 30
0.0
 11
4319.4828124290479536
 21
141.9419888534540917
 31
0.0
  0
LINE
  5
88D0
  8
0
 10
4319.5012139736481913
 20
141.9347828967540863
 30
0.0
 11
4319.4989142542481204
 21
141.9493028332541087
 31
0.0
  0
LINE
  5
88D1
  8
0
 10
4319.5184658357484295
 20
141.9348358482540959
 30
0.0
 11
4319.5173298423469532
 21
141.9420083266541042
 31
0.0
  0
ARC
  5
88D2
  8
0
 10
4319.5085964978479751
 20
142.3399179603540858
 30
0.0
 40
0.4052023216
 50
268.95605019382009
 51
271.3956665714018754
  0
ARC
  5
88D3
  8
0
 10
4319.4897513004507346
 20
142.491112782820494
 30
0.0
 40
0.5418874222400671
 50
269.1473914275611037
 51
270.9688813997095735
  0
ARC
  5
88D4
  8
0
 10
4319.6693745915572435
 20
142.3913060976148017
 30
0.0
 40
0.4865094309260922
 50
247.4511613509968981
 51
249.7786923205231062
  0
ARC
  5
88D5
  8
0
 10
4319.6866047971161606
 20
142.3962494658238995
 30
0.0
 40
0.4847566635189722
 50
247.2205430748238086
 51
249.5618700154388989
  0
LINE
  5
88D6
  8
0
 10
4319.5092292193703543
 20
141.9532547927686892
 30
0.0
 11
4319.5097811891128003
 21
141.9496734495951102
 31
0.0
  0
LINE
  5
88D7
  8
0
 10
4319.528182733713038
 20
141.9424674928951049
 30
0.0
 11
4319.5260521923755732
 21
141.9559192752784895
 31
0.0
  0
LINE
  5
88D8
  8
0
 10
4319.5454345958132762
 20
141.9425204443950861
 30
0.0
 11
4319.5442986024117999
 21
141.9496929227950943
 31
0.0
  0
ARC
  5
88D9
  8
0
 10
4319.5355652579128218
 20
142.3476025564951044
 30
0.0
 40
0.4052023216
 50
268.95605019382009
 51
271.3956665714018754
  0
ARC
  5
88DA
  8
0
 10
4319.6963433516211808
 20
142.3989906937557919
 30
0.0
 40
0.4865094309260922
 50
247.4511613509968981
 51
249.7786923205231062
  0
ARC
  5
88DB
  8
0
 10
4319.7135735571810073
 20
142.4039340619650034
 30
0.0
 40
0.4847566635189722
 50
247.4640908654357077
 51
249.5618700154388989
  0
LINE
  5
88DC
  8
0
 10
4319.5391420424057287
 20
141.9424160216217103
 30
0.0
 11
4319.5400663924910987
 21
141.9364185644899976
 31
0.0
  0
LINE
  5
88DD
  8
0
 10
4319.5584679370913364
 20
141.9292126077899923
 30
0.0
 11
4319.5561682176912655
 21
141.9437325442899862
 31
0.0
  0
LINE
  5
88DE
  8
0
 10
4319.5754964313109667
 20
141.9306758679142888
 30
0.0
 11
4319.5745838057910078
 21
141.9364380376900101
 31
0.0
  0
ARC
  5
88DF
  8
0
 10
4319.5658504612911202
 20
142.3343476713899918
 30
0.0
 40
0.4052023216
 50
268.95605019382009
 51
270.5021589775402049
  0
ARC
  5
88E0
  8
0
 10
4319.5470052638947891
 20
142.4855424938563999
 30
0.0
 40
0.5418874222400671
 50
269.8148788512103238
 51
270.9688813997095735
  0
ARC
  5
88E1
  8
0
 10
4319.7266285549985696
 20
142.3857358086507077
 30
0.0
 40
0.4865094309260922
 50
247.4511613509968981
 51
249.7786923205231062
  0
ARC
  5
88E2
  8
0
 10
4319.7438587605593057
 20
142.3906791768598055
 30
0.0
 40
0.4847566635189722
 50
247.2205430748238086
 51
249.5618700154388989
  0
LINE
  5
88E3
  8
0
 10
4319.5121728202948361
 20
141.9347314214022049
 30
0.0
 11
4319.5130804298123621
 21
141.9288425820396924
 31
0.0
  0
LINE
  5
88E4
  8
0
 10
4319.5314819744116903
 20
141.921636625339687
 30
0.0
 11
4319.5291822550134384
 21
141.9361565618397094
 31
0.0
  0
LINE
  5
88E5
  8
0
 10
4319.548733836511019
 20
141.9216895768396967
 30
0.0
 11
4319.5475978431122712
 21
141.9288620552397049
 31
0.0
  0
ARC
  5
88E6
  8
0
 10
4319.5388644986123836
 20
142.3267716889396866
 30
0.0
 40
0.4052023216
 50
268.95605019382009
 51
271.3956665714018754
  0
ARC
  5
88E7
  8
0
 10
4319.5200193012151431
 20
142.4779665114062084
 30
0.0
 40
0.5418874222400671
 50
269.8148788651238874
 51
270.9688813997095735
  0
ARC
  5
88E8
  8
0
 10
4319.6996425923207426
 20
142.3781598262002888
 30
0.0
 40
0.4865094309260922
 50
247.4511613509968981
 51
249.7786923205231062
  0
ARC
  5
88E9
  8
0
 10
4319.7168727978796596
 20
142.3831031944095002
 30
0.0
 40
0.4847566635189722
 50
247.2205430748238086
 51
249.5618700154388989
  0
LINE
  5
88EA
  8
0
 10
4319.426896349827075
 20
141.9391119186917081
 30
0.0
 11
4319.4277001476266378
 21
141.9340368522917117
 31
0.0
  0
LINE
  5
88EB
  8
0
 10
4319.4458968567259944
 20
141.9281241828917075
 30
0.0
 11
4319.4443076489269515
 21
141.9381581010916875
 31
0.0
  0
LINE
  5
88EC
  8
0
 10
4319.4632937107271573
 20
141.9272616870916863
 30
0.0
 11
4319.4625080609266661
 21
141.9322221704917126
 31
0.0
  0
ARC
  5
88ED
  8
0
 10
4319.45819277807459
 20
142.3510160381856053
 30
0.0
 40
0.4130913580277792
 50
265.6550214475676057
 51
268.0737720200266949
  0
ARC
  5
88EE
  8
0
 10
4319.4755303881229338
 20
142.3499616053425996
 30
0.0
 40
0.4228770000402361
 50
265.9816472108832954
 51
268.3418160581779262
  0
ARC
  5
88EF
  8
0
 10
4319.5848019260147339
 20
142.3865727954051863
 30
0.0
 40
0.479030008018936
 50
250.8551118551592936
 51
253.143747814287309
  0
ARC
  5
88F0
  8
0
 10
4319.6019079566813161
 20
142.3905119753852091
 30
0.0
 40
0.4790217909506773
 50
250.7916406378240026
 51
253.0815965369176013
  0
LINE
  5
88F1
  8
0
 10
4319.4288493687881783
 20
141.9267808080107045
 30
0.0
 11
4319.429653166587741
 21
141.9217057416107082
 31
0.0
  0
LINE
  5
88F2
  8
0
 10
4319.4478498756880072
 20
141.9157930722105903
 30
0.0
 11
4319.4462606678880547
 21
141.9258269904107124
 31
0.0
  0
LINE
  5
88F3
  8
0
 10
4319.4652467296882605
 20
141.9149305764107112
 30
0.0
 11
4319.4646726612909333
 21
141.9185551643041094
 31
0.0
  0
ARC
  5
88F4
  8
0
 10
4319.4601457970356932
 20
142.338684927504687
 30
0.0
 40
0.4130913580277792
 50
265.6550214475676057
 51
268.0737720200266949
  0
ARC
  5
88F5
  8
0
 10
4319.477483407084037
 20
142.337630494661596
 30
0.0
 40
0.4228770000402361
 50
265.9816472108832954
 51
268.3418160581779262
  0
ARC
  5
88F6
  8
0
 10
4319.5867549449767466
 20
142.3742416847242112
 30
0.0
 40
0.479030008018936
 50
250.8551118551592936
 51
253.143747814287309
  0
ARC
  5
88F7
  8
0
 10
4319.6038609756424194
 20
142.3781808647042055
 30
0.0
 40
0.4790217909506773
 50
250.7916406378240026
 51
252.2465654728787001
  0
LINE
  5
88F8
  8
0
 10
4319.3992298425428089
 20
141.9358326988541137
 30
0.0
 11
4319.3993462945272768
 21
141.9350974373965073
 31
0.0
  0
LINE
  5
88F9
  8
0
 10
4319.4175430036257239
 20
141.9291847679965031
 30
0.0
 11
4319.4160676970313943
 21
141.9384995383458943
 31
0.0
  0
LINE
  5
88FA
  8
0
 10
4319.4349398576250678
 20
141.9283222721965103
 30
0.0
 11
4319.4341542078263956
 21
141.9332827555965082
 31
0.0
  0
ARC
  5
88FB
  8
0
 10
4319.4471765350208443
 20
142.3510221904475088
 30
0.0
 40
0.4228770000402361
 50
265.9816472108832954
 51
268.3418160581779262
  0
ARC
  5
88FC
  8
0
 10
4319.5564480729153729
 20
142.3876333805100955
 30
0.0
 40
0.479030008018936
 50
250.8551118551592936
 51
253.143747814287309
  0
ARC
  5
88FD
  8
0
 10
4319.5735541035801361
 20
142.3915725604900899
 30
0.0
 40
0.4790217909506773
 50
250.9764432584001952
 51
253.0815965369176013
  0
LINE
  5
88FE
  8
0
 10
4319.4003272246909546
 20
141.9289038976463075
 30
0.0
 11
4319.4011310224914268
 21
141.9238288312463112
 31
0.0
  0
LINE
  5
88FF
  8
0
 10
4319.4193277315907835
 20
141.917916161846307
 30
0.0
 11
4319.4177385237908311
 21
141.927950080046287
 31
0.0
  0
LINE
  5
8900
  8
0
 10
4319.4367245855919464
 20
141.9170536660462858
 30
0.0
 11
4319.4363470962880456
 21
141.919437080926798
 31
0.0
  0
ARC
  5
8901
  8
0
 10
4319.4316236529402886
 20
142.3408080171402901
 30
0.0
 40
0.4130913580277792
 50
265.6550214475676057
 51
268.0737720200266949
  0
ARC
  5
8902
  8
0
 10
4319.4489612629868134
 20
142.3397535842973127
 30
0.0
 40
0.4228770000402361
 50
265.9816472108832954
 51
268.3418160581779262
  0
ARC
  5
8903
  8
0
 10
4319.5582328008804325
 20
142.3763647743598995
 30
0.0
 40
0.479030008018936
 50
250.8551118551592936
 51
253.143747814287309
  0
ARC
  5
8904
  8
0
 10
4319.5753388315451957
 20
142.3803039543398938
 30
0.0
 40
0.4790217909506773
 50
250.7916406378240026
 51
252.2465668034614055
  0
LINE
  5
8905
  8
0
 10
4319.4303531274426859
 20
141.9172861956687086
 30
0.0
 11
4319.4306779864909913
 21
141.9152350812717032
 31
0.0
  0
LINE
  5
8906
  8
0
 10
4319.4488746955912575
 20
141.9093224118718126
 30
0.0
 11
4319.4472854877913051
 21
141.9193563300717074
 31
0.0
  0
LINE
  5
8907
  8
0
 10
4319.4662715495906014
 20
141.9084599160717062
 30
0.0
 11
4319.4654858997910196
 21
141.9134203994717041
 31
0.0
  0
ARC
  5
8908
  8
0
 10
4319.4785082269872873
 20
142.3311598343227047
 30
0.0
 40
0.4228770000402361
 50
265.9816472108832954
 51
268.3418160581779262
  0
ARC
  5
8909
  8
0
 10
4319.5877797648790875
 20
142.3677710243854051
 30
0.0
 40
0.479030008018936
 50
250.8551118551592936
 51
253.143747814287309
  0
ARC
  5
890A
  8
0
 10
4319.6048857955456697
 20
142.3717102043652858
 30
0.0
 40
0.4790217909506773
 50
252.3990256489364867
 51
253.0815965369176013
  0
LINE
  5
890B
  8
0
 10
4319.5169438774028094
 20
141.9044493252447978
 30
0.0
 11
4319.5175502747033534
 21
141.9006206033448052
 31
0.0
  0
LINE
  5
890C
  8
0
 10
4319.5352098639041287
 20
141.8980991945448125
 30
0.0
 11
4319.5340041670033315
 21
141.9057117065449063
 31
0.0
  0
ARC
  5
890D
  8
0
 10
4319.4940868641597262
 20
142.3292578282558054
 30
0.0
 40
0.4254229745615724
 50
273.0798554806391962
 51
275.3839671808694902
  0
ARC
  5
890E
  8
0
 10
4319.5112712616346471
 20
142.3297945851716975
 30
0.0
 40
0.4323586092616688
 50
273.1739453984388888
 51
274.6097123641043822
  0
ARC
  5
890F
  8
0
 10
4319.5909728691776763
 20
142.3517587041517061
 30
0.0
 40
0.4570738051770433
 50
260.7561751361001257
 51
262.9924575135877944
  0
ARC
  5
8910
  8
0
 10
4319.6078139013270629
 20
142.3556324979157921
 30
0.0
 40
0.4559348529769975
 50
260.6835852238714892
 51
262.1063373811289807
  0
LINE
  5
8911
  8
0
 10
4319.4876672418322414
 20
141.9113363282515081
 30
0.0
 11
4319.4882736391327853
 21
141.9075076063514871
 31
0.0
  0
LINE
  5
8912
  8
0
 10
4319.5059332283335607
 20
141.9049861975514943
 30
0.0
 11
4319.5047275314327635
 21
141.9125987095515029
 31
0.0
  0
LINE
  5
8913
  8
0
 10
4319.5229899987325553
 20
141.9062709163515024
 30
0.0
 11
4319.5226336847499624
 21
141.908520641663614
 31
0.0
  0
ARC
  5
8914
  8
0
 10
4319.4648102285891582
 20
142.336144831262402
 30
0.0
 40
0.4254229745615724
 50
273.0798554806391962
 51
275.3839671808694902
  0
ARC
  5
8915
  8
0
 10
4319.4819946260649886
 20
142.3366815881784078
 30
0.0
 40
0.4323586092616688
 50
273.1739453984388888
 51
275.4408439040162762
  0
ARC
  5
8916
  8
0
 10
4319.5616962336080178
 20
142.3586457071583879
 30
0.0
 40
0.4570738051770433
 50
260.7561751361001257
 51
262.9924575135877944
  0
ARC
  5
8917
  8
0
 10
4319.5785372657574044
 20
142.3625195009225024
 30
0.0
 40
0.4559348529769975
 50
260.6835852238714892
 51
262.1063373917551758
  0
LINE
  5
8918
  8
0
 10
4319.5155328434939292
 20
141.9133584578682132
 30
0.0
 11
4319.5161392407953826
 21
141.9095297359683059
 31
0.0
  0
LINE
  5
8919
  8
0
 10
4319.533798829994339
 20
141.9070083271683131
 30
0.0
 11
4319.5325931330953608
 21
141.914620839168208
 31
0.0
  0
LINE
  5
891A
  8
0
 10
4319.5508556003942431
 20
141.9082930459682075
 30
0.0
 11
4319.5502562775945989
 21
141.9120771008682027
 31
0.0
  0
ARC
  5
891B
  8
0
 10
4319.4926758302490271
 20
142.3381669608791071
 30
0.0
 40
0.4254229745615724
 50
273.0798554806391962
 51
275.3839671808694902
  0
ARC
  5
891C
  8
0
 10
4319.5098602277248574
 20
142.3387037177951981
 30
0.0
 40
0.4323586092616688
 50
273.1739453984388888
 51
275.4408439040162762
  0
ARC
  5
891D
  8
0
 10
4319.5895618352678866
 20
142.3606678367750931
 30
0.0
 40
0.4570738051770433
 50
260.7561751361001257
 51
262.9924575135877944
  0
ARC
  5
891E
  8
0
 10
4319.6064028674172732
 20
142.3645416305392075
 30
0.0
 40
0.4559348529769975
 50
260.6835852238714892
 51
262.9262931913743842
  0
LINE
  5
891F
  8
0
 10
4319.4857848127530815
 20
141.923221749860204
 30
0.0
 11
4319.4863912100536254
 21
141.9193930279602114
 31
0.0
  0
LINE
  5
8920
  8
0
 10
4319.5040507992525818
 20
141.9168716191601902
 30
0.0
 11
4319.5028451023536036
 21
141.9244841311601988
 31
0.0
  0
LINE
  5
8921
  8
0
 10
4319.5211075696533953
 20
141.9181563379601982
 30
0.0
 11
4319.5205082468519322
 21
141.9219403928601935
 31
0.0
  0
ARC
  5
8922
  8
0
 10
4319.4629277995081793
 20
142.3480302528710979
 30
0.0
 40
0.4254229745615724
 50
273.0798554806391962
 51
275.3839671808694902
  0
ARC
  5
8923
  8
0
 10
4319.4801121969849191
 20
142.3485670097871036
 30
0.0
 40
0.4323586092616688
 50
273.1739453984388888
 51
275.4408439040162762
  0
ARC
  5
8924
  8
0
 10
4319.5598138045270389
 20
142.3705311287669986
 30
0.0
 40
0.4570738051770433
 50
260.7561751361001257
 51
262.9924575135877944
  0
ARC
  5
8925
  8
0
 10
4319.5766548366764255
 20
142.374404922531113
 30
0.0
 40
0.4559348529769975
 50
260.6835852238714892
 51
262.9262931913743842
  0
LINE
  5
8926
  8
0
 10
4319.5429656855358189
 20
141.9181129400379859
 30
0.0
 11
4319.5435720828354533
 21
141.9142842181379933
 31
0.0
  0
LINE
  5
8927
  8
0
 10
4319.5612316720353192
 20
141.9117628093380006
 30
0.0
 11
4319.5600259751336125
 21
141.9193753213380091
 31
0.0
  0
LINE
  5
8928
  8
0
 10
4319.5782884424352233
 20
141.9130475281380086
 30
0.0
 11
4319.5776891196346696
 21
141.9168315830380038
 31
0.0
  0
ARC
  5
8929
  8
0
 10
4319.5201086722918262
 20
142.3429214430489083
 30
0.0
 40
0.4254229745615724
 50
273.0798554806391962
 51
275.3839671808694902
  0
ARC
  5
892A
  8
0
 10
4319.5372930697667471
 20
142.343458199964914
 30
0.0
 40
0.4323586092616688
 50
273.1739453984388888
 51
275.4408439040162762
  0
ARC
  5
892B
  8
0
 10
4319.6169946773106858
 20
142.3654223189448089
 30
0.0
 40
0.4570738051770433
 50
260.7561751361001257
 51
262.9924575135877944
  0
ARC
  5
892C
  8
0
 10
4319.6338357094591629
 20
142.3692961127090086
 30
0.0
 40
0.4559348529769975
 50
260.6835852238714892
 51
262.9262931913743842
  0
LINE
  5
892D
  8
0
 10
4319.5457677388330922
 20
141.9004210410516009
 30
0.0
 11
4319.5463741361327266
 21
141.8965923191514946
 31
0.0
  0
LINE
  5
892E
  8
0
 10
4319.5640337253344114
 20
141.8940709103515019
 30
0.0
 11
4319.5628280284327047
 21
141.9016834223515104
 31
0.0
  0
LINE
  5
892F
  8
0
 10
4319.581090495733406
 20
141.8953556291515099
 30
0.0
 11
4319.5804911729337618
 21
141.8991396840515051
 31
0.0
  0
ARC
  5
8930
  8
0
 10
4319.5229107255890995
 20
142.3252295440624096
 30
0.0
 40
0.4254229745615724
 50
273.0798554806391962
 51
274.4591688643055249
  0
ARC
  5
8931
  8
0
 10
4319.5400951230649298
 20
142.3257663009783869
 30
0.0
 40
0.4323586092616688
 50
273.1739453984388888
 51
275.4408439040162762
  0
ARC
  5
8932
  8
0
 10
4319.619796730607959
 20
142.3477304199583955
 30
0.0
 40
0.4570738051770433
 50
260.7561751361001257
 51
262.9924575135877944
  0
ARC
  5
8933
  8
0
 10
4319.6366377627564361
 20
142.3516042137225099
 30
0.0
 40
0.4559348529769975
 50
261.5711134643660216
 51
262.9262931913743842
  0
LINE
  5
8934
  8
0
 10
4319.4886562450046767
 20
141.905091806471205
 30
0.0
 11
4319.4892626423061301
 21
141.9012630845712124
 31
0.0
  0
LINE
  5
8935
  8
0
 10
4319.5069222315050865
 20
141.8987416757711912
 30
0.0
 11
4319.5059332020309739
 21
141.9049861960517092
 31
0.0
  0
ARC
  5
8936
  8
0
 10
4319.4657992317606841
 20
142.3299003094822126
 30
0.0
 40
0.4254229745615724
 50
273.0798554806391962
 51
274.5492173437856991
  0
ARC
  5
8937
  8
0
 10
4319.4829836292383334
 20
142.3304370663981047
 30
0.0
 40
0.4323586092616688
 50
273.1739453984388888
 51
275.2192549880556953
  0
ARC
  5
8938
  8
0
 10
4319.5626852367804531
 20
142.3524011853781133
 30
0.0
 40
0.4570738051770433
 50
260.7561751361001257
 51
262.9924575135877944
  0
ARC
  5
8939
  8
0
 10
4319.5795262689280207
 20
142.3562749791421993
 30
0.0
 40
0.4559348529769975
 50
261.4845702082321282
 51
262.2465673344137826
  0
LINE
  5
893A
  8
0
 10
4319.4766955391505689
 20
141.9116272526848945
 30
0.0
 11
4319.4776293301401893
 21
141.9057313782687118
 31
0.0
  0
LINE
  5
893B
  8
0
 10
4319.5905022177403225
 20
141.9049142561106009
 30
0.0
 11
4319.5913344701402821
 21
141.9050253429105908
 31
0.0
  0
LINE
  5
893C
  8
0
 10
4319.5850005778402192
 20
141.9396507675106136
 30
0.0
 11
4319.5858173215410716
 21
141.9398597730105962
 31
0.0
  0
LINE
  5
893D
  8
0
 10
4319.875796366501163
 20
141.9922016532657949
 30
0.0
 11
4319.8766001825051717
 21
141.9871265897490105
 31
0.0
  0
LINE
  5
893E
  8
0
 10
4319.8728196310776184
 20
142.0107997690226966
 30
0.0
 11
4319.8740048384843249
 21
142.0035128703889882
 31
0.0
  0
LINE
  5
893F
  8
0
 10
4319.8611211799534431
 20
141.9758802409413079
 30
0.0
 11
4319.8595319721962369
 21
141.9859141591481091
 31
0.0
  0
LINE
  5
8940
  8
0
 10
4319.8587306713507132
 20
141.9909732342684947
 30
0.0
 11
4319.856430952014307
 21
142.0054931707784078
 31
0.0
  0
LINE
  5
8941
  8
0
 10
4319.8448423039217232
 20
141.9696840628226084
 30
0.0
 11
4319.844155660690376
 21
141.974019330280413
 31
0.0
  0
LINE
  5
8942
  8
0
 10
4319.8423068035963297
 20
141.9856925034773951
 30
0.0
 11
4319.8411707919931359
 21
141.9928649789945041
 31
0.0
  0
LINE
  5
8943
  8
0
 10
4319.798446939454152
 20
141.9466909879236027
 30
0.0
 11
4319.7990533549782413
 21
141.9428622689098063
 31
0.0
  0
LINE
  5
8944
  8
0
 10
4319.783037232413335
 20
141.9350071806842095
 30
0.0
 11
4319.7818315356662424
 21
141.9426196927084902
 31
0.0
  0
LINE
  5
8945
  8
0
 10
4319.7736363687963603
 20
141.9253803790045083
 30
0.0
 11
4319.7738145321927732
 21
141.9242555640936985
 31
0.0
  0
LINE
  5
8946
  8
0
 10
4319.7726482450680123
 20
141.9316190139275022
 30
0.0
 11
4319.7730948920798255
 21
141.9287990394279007
 31
0.0
  0
LINE
  5
8947
  8
0
 10
4319.7707912176192622
 20
141.9433437214630942
 30
0.0
 11
4319.771549950483859
 21
141.9385533037716982
 31
0.0
  0
LINE
  5
8948
  8
0
 10
4319.768008499262578
 20
141.960913043813207
 30
0.0
 11
4319.7691031072008627
 21
141.9540019826177968
 31
0.0
  0
LINE
  5
8949
  8
0
 10
4319.7642052223209248
 20
141.984925954965604
 30
0.0
 11
4319.7656745215927003
 21
141.9756491722438909
 31
0.0
  0
LINE
  5
894A
  8
0
 10
4319.7664182729540698
 20
141.9309582171925967
 30
0.0
 11
4319.7658189319681696
 21
141.9347422692121938
 31
0.0
  0
LINE
  5
894B
  8
0
 10
4319.7574015029431393
 20
141.9189064477477018
 30
0.0
 11
4319.7571077258471632
 21
141.9207612935483098
 31
0.0
  0
LINE
  5
894C
  8
0
 10
4319.7568636087153209
 20
141.9223024305020999
 30
0.0
 11
4319.7559741180093624
 21
141.927918366510994
 31
0.0
  0
LINE
  5
894D
  8
0
 10
4319.7554790802396383
 20
141.9310438804336059
 30
0.0
 11
4319.7539682238093519
 21
141.9405825060447057
 31
0.0
  0
LINE
  5
894E
  8
0
 10
4319.7532076236157081
 20
141.9453852052731122
 30
0.0
 11
4319.7510285932930856
 21
141.9591431368693861
 31
0.0
  0
LINE
  5
894F
  8
0
 10
4319.7499773374047436
 20
141.9657803755304997
 30
0.0
 11
4319.7470534527419659
 21
141.9842410406481008
 31
0.0
  0
LINE
  5
8950
  8
0
 10
4319.7563035328448677
 20
141.9204729306084118
 30
0.0
 11
4319.7565912938116526
 21
141.9186561829693005
 31
0.0
  0
LINE
  5
8951
  8
0
 10
4319.7551775890688077
 20
141.9275817326712001
 30
0.0
 11
4319.7560449758129835
 21
141.9221053528848984
 31
0.0
  0
LINE
  5
8952
  8
0
 10
4319.7531800091910554
 20
141.9401938577861984
 30
0.0
 11
4319.7546532332053175
 21
141.930892351526893
 31
0.0
  0
LINE
  5
8953
  8
0
 10
4319.7502494514847058
 20
141.9586966060284112
 30
0.0
 11
4319.7523742920611767
 21
141.9452809319631115
 31
0.0
  0
LINE
  5
8954
  8
0
 10
4319.7491359816458498
 20
141.9657267653198005
 30
0.0
 11
4319.7462848856839628
 21
141.9837278814011086
 31
0.0
  0
LINE
  5
8955
  8
0
 10
4319.7353628978416964
 20
141.9890706518943944
 30
0.0
 11
4319.7367859218984449
 21
141.9800860335055006
 31
0.0
  0
LINE
  5
8956
  8
0
 10
4319.7338177617293695
 20
141.9782030509311994
 30
0.0
 11
4319.7321764456337405
 21
141.9885659702478051
 31
0.0
  0
LINE
  5
8957
  8
0
 10
4319.7139526350028973
 20
141.9865284054035897
 30
0.0
 11
4319.7260539403532675
 21
141.9101243428486896
 31
0.0
  0
LINE
  5
8958
  8
0
 10
4319.7462848856839628
 20
141.9837278814011086
 30
0.0
 11
4319.747053452723776
 21
141.984241040668195
 31
0.0
  0
LINE
  5
8959
  8
0
 10
4319.7338177617293695
 20
141.9782030509311994
 30
0.0
 11
4319.7157251234393698
 21
141.9753374742712992
 31
0.0
  0
ARC
  5
895A
  8
0
 10
4319.7187469708569552
 20
142.3742748889224004
 30
0.0
 40
0.4130913580277792
 50
289.9261306025073281
 51
292.3448811749418041
  0
ARC
  5
895B
  8
0
 10
4319.7171036442714467
 20
142.3669424136072905
 30
0.0
 40
0.4092079587
 50
274.7555010154346178
 51
277.146021078012609
  0
ARC
  5
895C
  8
0
 10
4319.7265165049084317
 20
142.3739984757517902
 30
0.0
 40
0.4052023216
 50
286.6042360511111724
 51
289.0438524287445148
  0
ARC
  5
895D
  8
0
 10
4319.7399227634095951
 20
142.3779108511155016
 30
0.0
 40
0.3937343856
 50
271.0377065240165848
 51
273.5357995767399188
  0
ARC
  5
895E
  8
0
 10
4319.6977178373736024
 20
142.5236168320917898
 30
0.0
 40
0.5418874222400671
 50
287.0310212227972784
 51
288.8525111949415987
  0
ARC
  5
895F
  8
0
 10
4319.6941749516327036
 20
142.3695730673759954
 30
0.0
 40
0.4308543881074426
 50
292.8726597904387745
 51
294.3557043192581091
  0
ARC
  5
8960
  8
0
 10
4319.6889129027131276
 20
142.3577712745828023
 30
0.0
 40
0.4254229745615724
 50
282.6159354416614065
 51
284.9200471418934058
  0
ARC
  5
8961
  8
0
 10
4319.7025837507026154
 20
142.367914475019802
 30
0.0
 40
0.4228770000402361
 50
289.6580865643462062
 51
292.0182554116274218
  0
ARC
  5
8962
  8
0
 10
4319.6940418851390859
 20
142.3583185263736937
 30
0.0
 40
0.422012498329975
 50
278.1636715401186279
 51
280.4784137308092227
  0
ARC
  5
8963
  8
0
 10
4319.7008130583762977
 20
142.3607299439019869
 30
0.0
 40
0.4186364083
 50
277.0747826848398745
 51
277.1897242454181196
  0
ARC
  5
8964
  8
0
 10
4319.6724036943478495
 20
142.3529715179456048
 30
0.0
 40
0.4323586092616688
 50
282.5590587185355957
 51
284.8259572241125852
  0
ARC
  5
8965
  8
0
 10
4319.6706368396944526
 20
142.3518402096765954
 30
0.0
 40
0.432425924504228
 50
281.381769533937188
 51
283.6449710103145776
  0
ARC
  5
8966
  8
0
 10
4319.6776596933586916
 20
142.3645953305299088
 30
0.0
 40
0.4387642199253709
 50
293.4656698300889275
 51
294.9259150558336842
  0
ARC
  5
8967
  8
0
 10
4319.6467758258277172
 20
142.3474480465744989
 30
0.0
 40
0.4407206749971906
 50
284.497885825068181
 51
286.7291597275477102
  0
ARC
  5
8968
  8
0
 10
4319.6156001000017568
 20
142.3664826153089109
 30
0.0
 40
0.4699174728420367
 50
301.7066957230687194
 51
303.140632070009076
  0
ARC
  5
8969
  8
0
 10
4319.5984314811694276
 20
142.3640761075791943
 30
0.0
 40
0.4717370260229007
 50
302.4778223215716935
 51
303.9147520860677218
  0
ARC
  5
896A
  8
0
 10
4319.5898156687480878
 20
142.3492316255793924
 30
0.0
 40
0.4570738051770433
 50
295.0074451089271861
 51
297.2437274863989956
  0
ARC
  5
896B
  8
0
 10
4319.5974620858569324
 20
142.3440796366438121
 30
0.0
 40
0.4508933987606543
 50
290.7029952069925116
 51
292.9247473907759058
  0
ARC
  5
896C
  8
0
 10
4319.5873468644185778
 20
142.3689672195395133
 30
0.0
 40
0.479030008018936
 50
304.8561548082412855
 51
307.1447907673752979
  0
ARC
  5
896D
  8
0
 10
4319.556257664228724
 20
142.6511259930225037
 30
0.0
 40
0.6830502597
 50
282.2928424141953769
 51
283.3482250357105272
  0
ARC
  5
896E
  8
0
 10
4319.5726018246941749
 20
142.3477116865007872
 30
0.0
 40
0.4559348529769975
 50
295.0736094311615147
 51
297.3163173986235961
  0
ARC
  5
896F
  8
0
 10
4319.5717181383406569
 20
142.3452608266393042
 30
0.0
 40
0.4531487198495027
 50
293.9237272271971051
 51
296.166748280104116
  0
ARC
  5
8970
  8
0
 10
4319.5443292395502795
 20
142.3496520875918065
 30
0.0
 40
0.4550409840278875
 50
298.5717420036376097
 51
299.6014589394234804
  0
ARC
  5
8971
  8
0
 10
4319.5453279091443619
 20
142.3478132628540891
 30
0.0
 40
0.4529484708
 50
297.3192332528154225
 51
298.5720435122033791
  0
ARC
  5
8972
  8
0
 10
4319.5698607863114376
 20
142.3674275778651008
 30
0.0
 40
0.4790217909506773
 50
305.7533368801741176
 51
307.2082619846897273
  0
ARC
  5
8973
  8
0
 10
4319.5577276421090573
 20
142.3731886221411003
 30
0.0
 40
0.4865094309260922
 50
308.2212103020174254
 51
310.548741271494805
  0
ARC
  5
8974
  8
0
 10
4319.5265258580739101
 20
142.3499633767717114
 30
0.0
 40
0.4507126936
 50
299.7606185034244959
 51
299.8747758240126018
  0
ARC
  5
8975
  8
0
 10
4319.539813156990931
 20
142.3725656488010998
 30
0.0
 40
0.4847566635189722
 50
308.4380326070900082
 51
310.7793595477406825
  0
ARC
  5
8976
  8
0
 10
4319.5165392824155788
 20
142.3545022911976048
 30
0.0
 40
0.4534292152451779
 50
300.9859588081042716
 51
303.3290705993182996
  0
ARC
  5
8977
  8
0
 10
4319.4976062616333365
 20
142.3538259289788925
 30
0.0
 40
0.4437211054
 50
302.1638495508017854
 51
302.6177342675077284
  0
LINE
  5
8978
  8
0
 10
4319.7531800091910554
 20
141.9401938577861984
 30
0.0
 11
4319.7539682238093519
 21
141.9405825060447057
 31
0.0
  0
LINE
  5
8979
  8
0
 10
4319.7551775890688077
 20
141.9275817326712001
 30
0.0
 11
4319.7559741180093624
 21
141.927918366510994
 31
0.0
  0
LINE
  5
897A
  8
0
 10
4319.7563035328448677
 20
141.9204729306084118
 30
0.0
 11
4319.7571077258471632
 21
141.9207612935483098
 31
0.0
  0
LINE
  5
897B
  8
0
 10
4319.7568636087153209
 20
141.9223024305020999
 30
0.0
 11
4319.7560449758129835
 21
141.9221053528848984
 31
0.0
  0
ARC
  5
897C
  8
0
 10
4319.5813409472166313
 20
142.4870002427612121
 30
0.0
 40
0.5947500771604507
 50
284.0824141845096733
 51
308.3037081742866121
  0
LINE
  5
897D
  8
0
 10
4319.8452563839537106
 20
142.0068686366903989
 30
0.0
 11
4319.8464415913585981
 21
141.9995817380566052
 31
0.0
  0
LINE
  5
897E
  8
0
 10
4319.8311674242268055
 20
141.9870421019361117
 30
0.0
 11
4319.8288677048885802
 21
142.0015620384461101
 31
0.0
  0
LINE
  5
897F
  8
0
 10
4319.8147435564696934
 20
141.9817613711450122
 30
0.0
 11
4319.8136075448683187
 21
141.9889338466622064
 31
0.0
  0
ARC
  5
8980
  8
0
 10
4319.6989532577827049
 20
142.3700673434194925
 30
0.0
 40
0.4052023216
 50
286.6042360511111724
 51
289.0438524287445148
  0
ARC
  5
8981
  8
0
 10
4319.6701545902496946
 20
142.5196856997594068
 30
0.0
 40
0.5418874222400671
 50
287.0310212227972784
 51
288.8525111949415987
  0
ARC
  5
8982
  8
0
 10
4319.5301643949851496
 20
142.3692574898088026
 30
0.0
 40
0.4865094309260922
 50
308.2212103020174254
 51
310.548741271494805
  0
ARC
  5
8983
  8
0
 10
4319.5122499098652042
 20
142.3686345164688021
 30
0.0
 40
0.4847566635189722
 50
308.4380326070900082
 51
310.7793595477406825
  0
LINE
  5
8984
  8
0
 10
4319.8178363684137366
 20
142.0021330945237992
 30
0.0
 11
4319.8184181038177485
 21
141.998556465741899
 31
0.0
  0
LINE
  5
8985
  8
0
 10
4319.8031439366850464
 20
141.9860168296214056
 30
0.0
 11
4319.8010133954076082
 21
141.9994686120139988
 31
0.0
  0
LINE
  5
8986
  8
0
 10
4319.7867200689279343
 20
141.980736098830306
 30
0.0
 11
4319.7855840573265596
 21
141.9879085743473865
 31
0.0
  0
ARC
  5
8987
  8
0
 10
4319.6709297702418553
 20
142.3690420711047864
 30
0.0
 40
0.4052023216
 50
286.6042360511111724
 51
289.0438524287445148
  0
ARC
  5
8988
  8
0
 10
4319.5021409074433905
 20
142.3682322174940111
 30
0.0
 40
0.4865094309260922
 50
308.2212103020174254
 51
310.548741271494805
  0
ARC
  5
8989
  8
0
 10
4319.4842264223243546
 20
142.3676092441540106
 30
0.0
 40
0.4847566635189722
 50
308.4380326070900082
 51
310.5358117570701779
  0
LINE
  5
898A
  8
0
 10
4319.792736914399029
 20
141.9825812825860964
 30
0.0
 11
4319.7937111112232742
 21
141.9765917203588117
 31
0.0
  0
LINE
  5
898B
  8
0
 10
4319.7784369440896626
 20
141.9640520842382898
 30
0.0
 11
4319.7761372247541658
 21
141.9785720207482029
 31
0.0
  0
LINE
  5
898C
  8
0
 10
4319.7617897048758095
 20
141.9601816615046914
 30
0.0
 11
4319.7608770647320853
 21
141.9659438289642992
 31
0.0
  0
ARC
  5
898D
  8
0
 10
4319.646222777647381
 20
142.347077325721699
 30
0.0
 40
0.4052023216
 50
287.4977436449740935
 51
289.0438524287445148
  0
ARC
  5
898E
  8
0
 10
4319.6174241101125517
 20
142.4966956820616133
 30
0.0
 40
0.5418874222400671
 50
287.0310212227972784
 51
288.1850237712966987
  0
ARC
  5
898F
  8
0
 10
4319.4774339148480067
 20
142.3462674721108954
 30
0.0
 40
0.4865094309260922
 50
308.2212103020174254
 51
310.548741271494805
  0
ARC
  5
8990
  8
0
 10
4319.4595194297298804
 20
142.3456444987710086
 30
0.0
 40
0.4847566635189722
 50
308.4380326070900082
 51
310.7793595477406825
  0
LINE
  5
8991
  8
0
 10
4319.8207608426318984
 20
141.9836066938009935
 30
0.0
 11
4319.8217173961311346
 21
141.9777256063611901
 31
0.0
  0
LINE
  5
8992
  8
0
 10
4319.8064432289984325
 20
141.9651859702406966
 30
0.0
 11
4319.8041435096611167
 21
141.9797059067506098
 31
0.0
  0
LINE
  5
8993
  8
0
 10
4319.7900193612422299
 20
141.959905239449597
 30
0.0
 11
4319.7888833496399457
 21
141.967077714966706
 31
0.0
  0
ARC
  5
8994
  8
0
 10
4319.6742290625552414
 20
142.3482112117241059
 30
0.0
 40
0.4052023216
 50
286.6042360511111724
 51
289.0438524287445148
  0
ARC
  5
8995
  8
0
 10
4319.6454303950213216
 20
142.4978295680639917
 30
0.0
 40
0.5418874222400671
 50
287.0310212227972784
 51
288.1850237574196854
  0
ARC
  5
8996
  8
0
 10
4319.5054401997567766
 20
142.3474013581133022
 30
0.0
 40
0.4865094309260922
 50
308.2212103020174254
 51
310.548741271494805
  0
ARC
  5
8997
  8
0
 10
4319.4875257146368313
 20
142.3467783847733017
 30
0.0
 40
0.4847566635189722
 50
308.4380326070900082
 51
310.7793595477406825
  0
LINE
  5
8998
  8
0
 10
4319.9005099893165607
 20
142.014124537349602
 30
0.0
 11
4319.9013138053223884
 21
142.0090494738327891
 31
0.0
  0
LINE
  5
8999
  8
0
 10
4319.8858348027706597
 20
141.9978031250250865
 30
0.0
 11
4319.8842455950134536
 21
142.0078370432318877
 31
0.0
  0
LINE
  5
899A
  8
0
 10
4319.8695559267389399
 20
141.9916069469063871
 30
0.0
 11
4319.868770258861332
 21
141.9965674274430967
 31
0.0
  0
ARC
  5
899B
  8
0
 10
4319.7434605936741718
 20
142.3961977730062074
 30
0.0
 40
0.4130913580277792
 50
289.9261306025073281
 51
292.3448811749418041
  0
ARC
  5
899C
  8
0
 10
4319.727297373519832
 20
142.3898373591036091
 30
0.0
 40
0.4228770000402361
 50
289.6580865643462062
 51
292.0182554116274218
  0
ARC
  5
899D
  8
0
 10
4319.6120604872348849
 20
142.3908901036232919
 30
0.0
 40
0.479030008018936
 50
304.8561548082412855
 51
307.1447907673752979
  0
ARC
  5
899E
  8
0
 10
4319.5945744091286542
 20
142.3893504619489079
 30
0.0
 40
0.4790217909506773
 50
304.9183060855946223
 51
307.2082619846897273
  0
LINE
  5
899F
  8
0
 10
4319.9024630597114083
 20
142.0017934348144877
 30
0.0
 11
4319.903266875715417
 21
141.9967183712977032
 31
0.0
  0
LINE
  5
89A0
  8
0
 10
4319.8877878731627789
 20
141.9854720224900007
 30
0.0
 11
4319.8861986654073917
 21
141.9955059406968871
 31
0.0
  0
LINE
  5
89A1
  8
0
 10
4319.871508997132878
 20
141.9792758443713865
 30
0.0
 11
4319.8709349155260497
 21
141.9829004301726059
 31
0.0
  0
ARC
  5
89A2
  8
0
 10
4319.7454136640662909
 20
142.3838666704710931
 30
0.0
 40
0.4130913580277792
 50
289.9261306025073281
 51
292.3448811749418041
  0
ARC
  5
89A3
  8
0
 10
4319.7292504439119512
 20
142.3775062565684948
 30
0.0
 40
0.4228770000402361
 50
289.6580865643462062
 51
292.0182554116274218
  0
ARC
  5
89A4
  8
0
 10
4319.6140135576279135
 20
142.3785590010882061
 30
0.0
 40
0.479030008018936
 50
304.8561548082412855
 51
307.1447907673752979
  0
ARC
  5
89A5
  8
0
 10
4319.5965274795216828
 20
142.3770193594139073
 30
0.0
 40
0.4790217909506773
 50
305.7533371496655832
 51
307.2082619846897273
  0
LINE
  5
89A6
  8
0
 10
4319.9124731973079179
 20
142.0075735785908932
 30
0.0
 11
4319.9109978907526965
 21
142.0168883489465941
 31
0.0
  0
LINE
  5
89A7
  8
0
 10
4319.8961943212771075
 20
142.0013774004721938
 30
0.0
 11
4319.8954086533976806
 21
142.0063378810089034
 31
0.0
  0
ARC
  5
89A8
  8
0
 10
4319.7539357680570902
 20
142.3996078126693874
 30
0.0
 40
0.4228770000402361
 50
289.6580865643462062
 51
292.0182554116274218
  0
ARC
  5
89A9
  8
0
 10
4319.6386988817739621
 20
142.4006605571890987
 30
0.0
 40
0.479030008018936
 50
304.8561548082412855
 51
307.0308391587774963
  0
ARC
  5
89AA
  8
0
 10
4319.6212128036668219
 20
142.3991209155146862
 30
0.0
 40
0.4790217909506773
 50
304.9183060855946223
 51
307.023459364122516
  0
LINE
  5
89AB
  8
0
 10
4319.9289331783447778
 20
142.012626395301595
 30
0.0
 11
4319.9297369943506055
 21
142.0075513317848106
 31
0.0
  0
LINE
  5
89AC
  8
0
 10
4319.9142579917988769
 20
141.996304982977108
 30
0.0
 11
4319.9126687840407612
 21
142.0063389011839945
 31
0.0
  0
LINE
  5
89AD
  8
0
 10
4319.8979791157680665
 20
141.9901088048584938
 30
0.0
 11
4319.8976016177766724
 21
141.9924922183631963
 31
0.0
  0
ARC
  5
89AE
  8
0
 10
4319.771883782702389
 20
142.3946996309582005
 30
0.0
 40
0.4130913580277792
 50
289.9261306025073281
 51
292.3448811749418041
  0
ARC
  5
89AF
  8
0
 10
4319.7557205625471397
 20
142.3883392170556021
 30
0.0
 40
0.4228770000402361
 50
289.6580865643462062
 51
292.0182554116274218
  0
ARC
  5
89B0
  8
0
 10
4319.6404836762640116
 20
142.3893919615753134
 30
0.0
 40
0.479030008018936
 50
304.8561548082412855
 51
307.1447907673752979
  0
ARC
  5
89B1
  8
0
 10
4319.6229975981577809
 20
142.3878523199009862
 30
0.0
 40
0.4790217909506773
 50
305.7533358190746071
 51
307.2082619846897273
  0
LINE
  5
89B2
  8
0
 10
4319.9039668806763075
 20
141.9922988323413051
 30
0.0
 11
4319.9042917470796965
 21
141.9902477191097034
 31
0.0
  0
LINE
  5
89B3
  8
0
 10
4319.8888127445288774
 20
141.9790013703018872
 30
0.0
 11
4319.8872235367707617
 21
141.9890352885086884
 31
0.0
  0
LINE
  5
89B4
  8
0
 10
4319.872533868498067
 20
141.9728051921833014
 30
0.0
 11
4319.8717482006186401
 21
141.9777656727198973
 31
0.0
  0
ARC
  5
89B5
  8
0
 10
4319.7302753152780497
 20
142.3710356043804097
 30
0.0
 40
0.4228770000402361
 50
289.6580865643462062
 51
292.0182554116274218
  0
ARC
  5
89B6
  8
0
 10
4319.6150384289940121
 20
142.3720883489002063
 30
0.0
 40
0.479030008018936
 50
304.8561548082412855
 51
307.1447907673752979
  0
ARC
  5
89B7
  8
0
 10
4319.5975523508868719
 20
142.3705487072257938
 30
0.0
 40
0.4790217909506773
 50
304.9183060855946223
 51
305.6008769735768169
  0
LINE
  5
89B8
  8
0
 10
4319.8255809285637952
 20
141.9533323630037955
 30
0.0
 11
4319.8261873440860654
 21
141.9495036439899991
 31
0.0
  0
LINE
  5
89B9
  8
0
 10
4319.8101712215211592
 20
141.9416485557644023
 30
0.0
 11
4319.8089655247758856
 21
141.9492610677887114
 31
0.0
  0
ARC
  5
89BA
  8
0
 10
4319.7160468918218612
 20
142.3644126496629951
 30
0.0
 40
0.4254229745615724
 50
282.6159354416614065
 51
284.9200471418934058
  0
ARC
  5
89BB
  8
0
 10
4319.6995376834565832
 20
142.3596128930257976
 30
0.0
 40
0.4323586092616688
 50
283.390190258468408
 51
284.8259572241125852
  0
ARC
  5
89BC
  8
0
 10
4319.6169496578568214
 20
142.3558730006596136
 30
0.0
 40
0.4570738051770433
 50
295.0074451089271861
 51
297.2437274863989956
  0
ARC
  5
89BD
  8
0
 10
4319.599735813801999
 20
142.3543530615810937
 30
0.0
 40
0.4559348529769975
 50
295.8935652413762796
 51
297.3163173986235961
  0
LINE
  5
89BE
  8
0
 10
4319.8512964891369847
 20
141.9689292263153106
 30
0.0
 11
4319.8519029046601645
 21
141.9651005073015995
 31
0.0
  0
LINE
  5
89BF
  8
0
 10
4319.8358867820952582
 20
141.957245419075889
 30
0.0
 11
4319.8346810853481657
 21
141.9648579311001981
 31
0.0
  0
LINE
  5
89C0
  8
0
 10
4319.8192678226350836
 20
141.9531964555843899
 30
0.0
 11
4319.8189114978404177
 21
141.9554461791840083
 31
0.0
  0
ARC
  5
89C1
  8
0
 10
4319.7417624523950508
 20
142.3800095129745955
 30
0.0
 40
0.4254229745615724
 50
282.6159354416614065
 51
284.9200471418934058
  0
ARC
  5
89C2
  8
0
 10
4319.7252532440306823
 20
142.3752097563373127
 30
0.0
 40
0.4323586092616688
 50
282.5590587185355957
 51
284.8259572241125852
  0
ARC
  5
89C3
  8
0
 10
4319.642665218430011
 20
142.3714698639711003
 30
0.0
 40
0.4570738051770433
 50
295.0074451089271861
 51
297.2437274863989956
  0
ARC
  5
89C4
  8
0
 10
4319.6254513743751886
 20
142.3699499248926088
 30
0.0
 40
0.4559348529769975
 50
295.8935652307786768
 51
297.3163173986235961
  0
LINE
  5
89C5
  8
0
 10
4319.8241698433139391
 20
141.9622414874957883
 30
0.0
 11
4319.8247762588371188
 21
141.9584127684819919
 31
0.0
  0
LINE
  5
89C6
  8
0
 10
4319.8087601362722125
 20
141.9505576802563098
 30
0.0
 11
4319.8075544395260295
 21
141.9581701922805905
 31
0.0
  0
LINE
  5
89C7
  8
0
 10
4319.7921411768120379
 20
141.9465087167648107
 30
0.0
 11
4319.7915418358261377
 21
141.9502927687844078
 31
0.0
  0
ARC
  5
89C8
  8
0
 10
4319.7146358065720051
 20
142.3733217741549879
 30
0.0
 40
0.4254229745615724
 50
282.6159354416614065
 51
284.9200471418934058
  0
ARC
  5
89C9
  8
0
 10
4319.6981265982067271
 20
142.3685220175177903
 30
0.0
 40
0.4323586092616688
 50
282.5590587185355957
 51
284.8259572241125852
  0
ARC
  5
89CA
  8
0
 10
4319.6155385726069653
 20
142.3647821251516064
 30
0.0
 40
0.4570738051770433
 50
295.0074451089271861
 51
297.2437274863989956
  0
ARC
  5
89CB
  8
0
 10
4319.5983247285521429
 20
142.3632621860730865
 30
0.0
 40
0.4559348529769975
 50
295.0736094311615147
 51
297.3163173986235961
  0
LINE
  5
89CC
  8
0
 10
4319.8494140085176696
 20
141.9808146397610926
 30
0.0
 11
4319.8500204240399398
 21
141.9769859207472962
 31
0.0
  0
LINE
  5
89CD
  8
0
 10
4319.8340043014750336
 20
141.9691308325216141
 30
0.0
 11
4319.832798604727941
 21
141.9767433445460085
 31
0.0
  0
LINE
  5
89CE
  8
0
 10
4319.8173853420148589
 20
141.9650818690300866
 30
0.0
 11
4319.8167860010289587
 21
141.9688659210497121
 31
0.0
  0
ARC
  5
89CF
  8
0
 10
4319.7398799717757356
 20
142.3918949264202922
 30
0.0
 40
0.4254229745615724
 50
282.6159354416614065
 51
284.9200471418934058
  0
ARC
  5
89D0
  8
0
 10
4319.7233707634113671
 20
142.3870951697830947
 30
0.0
 40
0.4323586092616688
 50
282.5590587185355957
 51
284.8259572241125852
  0
ARC
  5
89D1
  8
0
 10
4319.6407827378106958
 20
142.3833552774169107
 30
0.0
 40
0.4570738051770433
 50
295.0074451089271861
 51
297.2437274863989956
  0
ARC
  5
89D2
  8
0
 10
4319.6235688937558734
 20
142.3818353383383055
 30
0.0
 40
0.4559348529769975
 50
295.0736094311615147
 51
297.3163173986235961
  0
LINE
  5
89D3
  8
0
 10
4319.7966104376182557
 20
141.9582861011888895
 30
0.0
 11
4319.7972168531414354
 21
141.9544573821752067
 31
0.0
  0
LINE
  5
89D4
  8
0
 10
4319.7812007305756197
 20
141.9466022939494962
 30
0.0
 11
4319.7799950338294366
 21
141.9542148059738054
 31
0.0
  0
LINE
  5
89D5
  8
0
 10
4319.7645817711163545
 20
141.9425533304579972
 30
0.0
 11
4319.7639824301313638
 21
141.9463373824775942
 31
0.0
  0
ARC
  5
89D6
  8
0
 10
4319.6870764008763217
 20
142.3693663878482027
 30
0.0
 40
0.4254229745615724
 50
282.6159354416614065
 51
284.9200471418934058
  0
ARC
  5
89D7
  8
0
 10
4319.6705671925110437
 20
142.3645666312108915
 30
0.0
 40
0.4323586092616688
 50
282.5590587185355957
 51
284.8259572241125852
  0
ARC
  5
89D8
  8
0
 10
4319.5879791669103724
 20
142.3608267388447075
 30
0.0
 40
0.4570738051770433
 50
295.0074451089271861
 51
297.2437274863989956
  0
ARC
  5
89D9
  8
0
 10
4319.57076532285555
 20
142.3593067997661876
 30
0.0
 40
0.4559348529769975
 50
295.0736094311615147
 51
297.3163173986235961
  0
LINE
  5
89DA
  8
0
 10
4319.7994125939512742
 20
141.9405942185215963
 30
0.0
 11
4319.8000190094744539
 21
141.9367654995077999
 31
0.0
  0
LINE
  5
89DB
  8
0
 10
4319.7840028869086382
 20
141.9289104112820894
 30
0.0
 11
4319.7827971901615456
 21
141.9365229233065122
 31
0.0
  0
LINE
  5
89DC
  8
0
 10
4319.767383927449373
 20
141.9248614477905903
 30
0.0
 11
4319.7667845864625633
 21
141.9286454998101874
 31
0.0
  0
ARC
  5
89DD
  8
0
 10
4319.6898785572093402
 20
142.3516745051807959
 30
0.0
 40
0.4254229745615724
 50
283.5407337582211085
 51
284.9200471418934058
  0
ARC
  5
89DE
  8
0
 10
4319.6733693488440622
 20
142.3468747485435983
 30
0.0
 40
0.4323586092616688
 50
282.5590587185355957
 51
284.8259572241125852
  0
ARC
  5
89DF
  8
0
 10
4319.5907813232452099
 20
142.3431348561773859
 30
0.0
 40
0.4570738051770433
 50
295.0074451089271861
 51
297.2437274863989956
  0
ARC
  5
89E0
  8
0
 10
4319.5735674791885685
 20
142.3416149170988092
 30
0.0
 40
0.4559348529769975
 50
295.0736094311615147
 51
296.4287891581855092
  0
LINE
  5
89E1
  8
0
 10
4319.8522855439641717
 20
141.9626847127163956
 30
0.0
 11
4319.8528919594873514
 21
141.9588559937027128
 31
0.0
  0
LINE
  5
89E2
  8
0
 10
4319.8368758369224452
 20
141.9510009054770023
 30
0.0
 11
4319.8358868075729333
 21
141.9572454257775007
 31
0.0
  0
ARC
  5
89E3
  8
0
 10
4319.7427515072222377
 20
142.3737649993757088
 30
0.0
 40
0.4254229745615724
 50
283.4506852787503135
 51
284.9200471418934058
  0
ARC
  5
89E4
  8
0
 10
4319.7262422988578692
 20
142.3689652427383976
 30
0.0
 40
0.4323586092616688
 50
282.7806476344784983
 51
284.8259572241125852
  0
ARC
  5
89E5
  8
0
 10
4319.6436542732571979
 20
142.3652253503722989
 30
0.0
 40
0.4570738051770433
 50
295.0074451089271861
 51
297.2437274863989956
  0
ARC
  5
89E6
  8
0
 10
4319.6264404292023755
 20
142.3637054112936937
 30
0.0
 40
0.4559348529769975
 50
295.753335288073913
 51
296.5153324142740985
  0
LINE
  5
89E7
  8
0
 10
4319.8616413041063424
 20
141.9725963368977943
 30
0.0
 11
4319.8625751314721128
 21
141.9667004682432889
 31
0.0
  0
LINE
  5
89E8
  8
0
 10
4319.7554790802396383
 20
141.9310438804336059
 30
0.0
 11
4319.7546532332053175
 21
141.930892351526893
 31
0.0
  0
LINE
  5
89E9
  8
0
 10
4319.7499773374047436
 20
141.9657803755304997
 30
0.0
 11
4319.7491359816458498
 21
141.9657267653198005
 31
0.0
  0
LINE
  5
89EA
  8
0
 10
4319.9150008309989062
 20
142.0175223492186944
 30
0.0
 11
4319.7140843935676457
 21
141.9857004864952046
 31
0.0
  0
LINE
  5
89EB
  8
0
 10
4318.2888920676396083
 20
141.5332269764107025
 30
0.0
 11
4318.2888924179387686
 21
141.6608411053105954
 31
0.0
  0
LINE
  5
89EC
  8
0
 10
4318.1840701763758261
 20
141.9334498127900872
 30
0.0
 11
4318.1840700734401253
 21
141.8726248798105871
 31
0.0
  0
LINE
  5
89ED
  8
0
 10
4318.1250153510391101
 20
142.0168134282106109
 30
0.0
 11
4318.1250151222402565
 21
141.9334477055107016
 31
0.0
  0
LINE
  5
89EE
  8
0
 10
4318.0698953321389126
 20
141.3214440908105871
 30
0.0
 11
4318.0698946700385932
 21
141.0802114471105995
 31
0.0
  0
ARC
  5
89EF
  8
0
 10
4317.8201304182848617
 20
141.5695563084128992
 30
0.0
 40
0.4701673151867894
 50
328.1475034763458893
 51
355.5683983256847114
  0
ARC
  5
89F0
  8
0
 10
4317.8201304182848617
 20
141.6245117733083134
 30
0.0
 40
0.4701673151867894
 50
4.4316016743152726
 51
31.8524965236540893
  0
LINE
  5
89F1
  8
0
 10
4317.4714815702391206
 20
141.0802114471105995
 30
0.0
 11
4318.0698946700385932
 21
141.0802114471105995
 31
0.0
  0
LINE
  5
89F2
  8
0
 10
4317.3218812285667809
 20
141.3214329000344094
 30
0.0
 11
4318.2194950117127519
 21
141.3214329000344094
 31
0.0
  0
LINE
  5
89F3
  8
0
 10
4317.3218812285667809
 20
141.8726351816868885
 30
0.0
 11
4318.2194950117127519
 21
141.8726351816868885
 31
0.0
  0
LINE
  5
89F4
  8
0
 10
4317.3573059999398538
 20
141.9334475434106082
 30
0.0
 11
4318.1840701763721881
 21
141.9334475434106082
 31
0.0
  0
ARC
  5
89F5
  8
0
 10
4323.8570917083607128
 20
141.045707072655091
 30
0.0
 40
6.336478747932742
 50
179.688001393097494
 51
192.1857048586848862
  0
ARC
  5
89F6
  8
0
 10
4282.5219287397367225
 20
136.089336818834596
 30
0.0
 40
35.7993109686804374
 50
5.801793125406741
 51
8.0138567428794438
  0
LINE
  5
89F7
  8
0
 10
4318.0462808561387646
 20
144.0798212334105983
 30
0.0
 11
4318.0462792981388702
 21
143.5121880792106026
 31
0.0
  0
LINE
  5
89F8
  8
0
 10
4317.9675390541397064
 20
143.480692232310588
 30
0.0
 11
4317.9675385138398269
 21
143.2838418386106127
 31
0.0
  0
LINE
  5
89F9
  8
0
 10
4317.8494282776391628
 20
143.2838421628106005
 30
0.0
 11
4317.8494280417389746
 21
143.1979180966106071
 31
0.0
  0
ARC
  5
89FA
  8
0
 10
4317.770681722739937
 20
140.9531337175106103
 30
0.0
 40
3.1496062991999998
 50
85.1775677878804487
 51
89.9998836222726766
  0
ARC
  5
89FB
  8
0
 10
4317.9872240935401351
 20
143.4806921783105906
 30
0.0
 40
0.0196850394
 50
89.9998427440032174
 51
179.9998427335999054
  0
ARC
  5
89FC
  8
0
 10
4318.0344682744389502
 20
143.5121881116106124
 30
0.0
 40
0.0118110236
 50
269.9998427349881922
 51
359.9998427335999054
  0
ARC
  5
89FD
  8
0
 10
4318.034469832538889
 20
144.0798212658106081
 30
0.0
 40
0.0118110236
 50
359.9998427335999054
 51
85.1775677929006463
  0
LINE
  5
89FE
  8
0
 10
4317.5738377264387964
 20
143.2838418386106127
 30
0.0
 11
4317.9675385138398269
 21
143.2838418386106127
 31
0.0
  0
LINE
  5
89FF
  8
0
 10
4317.5069079982577023
 20
143.5003770880107083
 30
0.0
 11
4318.0344682744389502
 21
143.5003770880107083
 31
0.0
  0
LINE
  5
8A00
  8
0
 10
4317.5059134789044037
 20
144.0915904786496924
 30
0.0
 11
4318.035462761375129
 21
144.0915904786496924
 31
0.0
  0
ARC
  5
8A01
  8
0
 10
4317.584029352032303
 20
141.617388920017703
 30
0.0
 40
0.3343816682813726
 50
148.292938557726302
 51
172.5295197484383891
  0
ARC
  5
8A02
  8
0
 10
4317.4401237758202114
 20
141.7088570248255905
 30
0.0
 40
0.1638955746777541
 50
113.8503857452376025
 51
149.0560278223090052
  0
ARC
  5
8A03
  8
0
 10
4317.411803133891226
 20
141.7760598390742075
 30
0.0
 40
0.0909890191171748
 50
66.6182623251148129
 51
114.650921964775705
  0
ARC
  5
8A04
  8
0
 10
4317.3441245113135665
 20
141.6573034993579938
 30
0.0
 40
0.2273466894045665
 50
0.8918020316933661
 51
62.8372828526751022
  0
ARC
  5
8A05
  8
0
 10
4317.8330913761174088
 20
141.5978003425668135
 30
0.0
 40
0.2691352343751828
 50
125.8860759777870015
 51
166.4533035612635103
  0
ARC
  5
8A06
  8
0
 10
4317.8305265183707888
 20
141.6013602312164039
 30
0.0
 40
0.2647476125489281
 50
61.2926748642578119
 51
125.8879614947627061
  0
ARC
  5
8A07
  8
0
 10
4317.8285127566541632
 20
141.5981046001240031
 30
0.0
 40
0.2685704347797041
 50
13.5092763810559795
 51
61.2494862202264869
  0
ARC
  5
8A08
  8
0
 10
4318.5460871114491965
 20
141.6280552439928044
 30
0.0
 40
0.4576108562346267
 50
157.7008157597973934
 51
175.8911938774056125
  0
ARC
  5
8A09
  8
0
 10
4318.2311484298361393
 20
141.7632575662865975
 30
0.0
 40
0.1150591226112662
 50
119.8249173337784015
 51
160.4855335719011862
  0
ARC
  5
8A0A
  8
0
 10
4318.1893100139986927
 20
141.8254968035313084
 30
0.0
 40
0.0406080493880242
 50
64.9914761842822628
 51
112.2655597288058971
  0
ARC
  5
8A0B
  8
0
 10
4318.1415024275038377
 20
141.7595271836908069
 30
0.0
 40
0.1215873637605729
 50
22.4422039327143992
 51
57.6976187522717083
  0
ARC
  5
8A0C
  8
0
 10
4317.5840096063220699
 20
141.5766714318328923
 30
0.0
 40
0.3343598867767834
 50
187.4657331497811015
 51
211.7074576367917018
  0
ARC
  5
8A0D
  8
0
 10
4317.4401237758202114
 20
141.4852128078956923
 30
0.0
 40
0.1638955746777541
 50
210.9439721776909948
 51
246.1496142547624117
  0
ARC
  5
8A0E
  8
0
 10
4317.411803133891226
 20
141.4180099936471038
 30
0.0
 40
0.0909890191171748
 50
245.349078035224295
 51
293.3817376748851871
  0
ARC
  5
8A0F
  8
0
 10
4317.3441236478356586
 20
141.536767270775897
 30
0.0
 40
0.2273479176279701
 50
297.1628029095336956
 51
359.107966513037411
  0
ARC
  5
8A10
  8
0
 10
4317.8330893686179479
 20
141.5962675534215123
 30
0.0
 40
0.2691324885181641
 50
193.5464131737394098
 51
234.1140285896605064
  0
ARC
  5
8A11
  8
0
 10
4317.8305265183707888
 20
141.5927096015049074
 30
0.0
 40
0.2647476125489281
 50
234.1120385052373081
 51
298.7073251357422237
  0
ARC
  5
8A12
  8
0
 10
4317.8285140182979376
 20
141.5959637650526872
 30
0.0
 40
0.2685685413041292
 50
298.7504283960868747
 51
346.4915727322958787
  0
ARC
  5
8A13
  8
0
 10
4318.54606609440998
 20
141.5660078604786065
 30
0.0
 40
0.4575888579691944
 50
184.1078022376150045
 51
202.2994033229209947
  0
ARC
  5
8A14
  8
0
 10
4318.2311484298361393
 20
141.4308122664346001
 30
0.0
 40
0.1150591226112662
 50
199.5144664280988138
 51
240.1750826662216127
  0
ARC
  5
8A15
  8
0
 10
4318.1893100139986927
 20
141.3685730291898892
 30
0.0
 40
0.0406080493880242
 50
247.7344402711941029
 51
295.0085238157178082
  0
ARC
  5
8A16
  8
0
 10
4318.1414951443030077
 20
141.434564773641398
 30
0.0
 40
0.1216099565423162
 50
302.2997112454302737
 51
337.9911497763739021
  0
ENDSEC
  0
EOF
