  0
SECTION
  2
HEADER
  9
$ACADVER
  1
AC1009
  9
$INSBASE
 10
4785.3471730523797305
 20
326.6610348151132825
 30
0.0
  9
$EXTMIN
 10
4751.6996014836458926
 20
326.6507115598986957
 30
-0.0000000349181948
  9
$EXTMAX
 10
4818.9682641507406515
 20
348.5515653137805998
 30
0.0000000814935746
  9
$LIMMIN
 10
0.0
 20
0.0
  9
$LIMMAX
 10
11.6929133858000007
 20
8.2677165353999982
  9
$ORTHOMODE
 70
     0
  9
$REGENMODE
 70
     1
  9
$FILLMODE
 70
     1
  9
$QTEXTMODE
 70
     0
  9
$MIRRTEXT
 70
     0
  9
$DRAGMODE
 70
     2
  9
$LTSCALE
 40
0.6431102362
  9
$OSMODE
 70
  4095
  9
$ATTMODE
 70
     1
  9
$TEXTSIZE
 40
0.2
  9
$TRACEWID
 40
0.05
  9
$TEXTSTYLE
  7
STANDARD
  9
$CLAYER
  8
0
  9
$CELTYPE
  6
BYLAYER
  9
$CECOLOR
 62
   256
  9
$DIMSCALE
 40
1.0
  9
$DIMASZ
 40
0.1875
  9
$DIMEXO
 40
0.0625
  9
$DIMDLI
 40
0.4443307087
  9
$DIMRND
 40
0.0
  9
$DIMDLE
 40
0.0
  9
$DIMEXE
 40
0.125
  9
$DIMTP
 40
0.01
  9
$DIMTM
 40
0.01
  9
$DIMTXT
 40
2.0
  9
$DIMCEN
 40
0.1052362205
  9
$DIMTSZ
 40
0.0
  9
$DIMTOL
 70
     1
  9
$DIMLIM
 70
     0
  9
$DIMTIH
 70
     1
  9
$DIMTOH
 70
     1
  9
$DIMSE1
 70
     0
  9
$DIMSE2
 70
     0
  9
$DIMTAD
 70
     0
  9
$DIMZIN
 70
     0
  9
$DIMBLK
  1

  9
$DIMASO
 70
     1
  9
$DIMSHO
 70
     1
  9
$DIMPOST
  1
\X
  9
$DIMAPOST
  1

  9
$DIMALT
 70
     1
  9
$DIMALTD
 70
     2
  9
$DIMALTF
 40
25.3999999999999986
  9
$DIMLFAC
 40
1.0
  9
$DIMTOFL
 70
     0
  9
$DIMTVP
 40
0.0
  9
$DIMTIX
 70
     0
  9
$DIMSOXD
 70
     0
  9
$DIMSAH
 70
     0
  9
$DIMBLK1
  1

  9
$DIMBLK2
  1

  9
$DIMSTYLE
  2
STANDARD
  9
$DIMCLRD
 70
     0
  9
$DIMCLRE
 70
     0
  9
$DIMCLRT
 70
     0
  9
$DIMTFAC
 40
1.0
  9
$DIMGAP
 40
0.09
  9
$LUNITS
 70
     2
  9
$LUPREC
 70
     4
  9
$SKETCHINC
 40
0.1
  9
$FILLETRAD
 40
0.0
  9
$AUNITS
 70
     0
  9
$AUPREC
 70
     0
  9
$MENU
  1
.
  9
$ELEVATION
 40
0.0
  9
$PELEVATION
 40
0.0
  9
$THICKNESS
 40
0.0
  9
$LIMCHECK
 70
     0
  9
$BLIPMODE
 70
     0
  9
$CHAMFERA
 40
0.0
  9
$CHAMFERB
 40
0.0
  9
$SKPOLY
 70
     0
  9
$TDCREATE
 40
2458060.468368056230247
  9
$TDUPDATE
 40
2459430.8096064818091691
  9
$TDINDWG
 40
0.5785950231
  9
$TDUSRTIMER
 40
0.5785950231
  9
$USRTIMER
 70
     1
  9
$ANGBASE
 50
0.0
  9
$ANGDIR
 70
     0
  9
$PDMODE
 70
     0
  9
$PDSIZE
 40
0.3125
  9
$PLINEWID
 40
0.0
  9
$COORDS
 70
     1
  9
$SPLFRAME
 70
     0
  9
$SPLINETYPE
 70
     6
  9
$SPLINESEGS
 70
     8
  9
$ATTDIA
 70
     1
  9
$ATTREQ
 70
     1
  9
$HANDLING
 70
     1
  9
$HANDSEED
  5
21771
  9
$SURFTAB1
 70
     6
  9
$SURFTAB2
 70
     6
  9
$SURFTYPE
 70
     6
  9
$SURFU
 70
     6
  9
$SURFV
 70
     6
  9
$UCSNAME
  2

  9
$UCSORG
 10
0.0
 20
0.0
 30
0.0
  9
$UCSXDIR
 10
1.0
 20
0.0
 30
0.0
  9
$UCSYDIR
 10
0.0
 20
1.0
 30
0.0
  9
$PUCSNAME
  2

  9
$PUCSORG
 10
0.0
 20
0.0
 30
0.0
  9
$PUCSXDIR
 10
1.0
 20
0.0
 30
0.0
  9
$PUCSYDIR
 10
0.0
 20
1.0
 30
0.0
  9
$USERI1
 70
     0
  9
$USERI2
 70
     0
  9
$USERI3
 70
     0
  9
$USERI4
 70
     0
  9
$USERI5
 70
     0
  9
$USERR1
 40
0.0
  9
$USERR2
 40
0.0
  9
$USERR3
 40
0.0
  9
$USERR4
 40
0.0
  9
$USERR5
 40
0.0
  9
$WORLDVIEW
 70
     1
  9
$SHADEDGE
 70
     3
  9
$SHADEDIF
 70
    70
  9
$TILEMODE
 70
     1
  9
$MAXACTVP
 70
    64
  9
$PLIMCHECK
 70
     0
  9
$PEXTMIN
 10
1.0000000000000000E+20
 20
1.0000000000000000E+20
 30
1.0000000000000000E+20
  9
$PEXTMAX
 10
-1.0000000000000000E+20
 20
-1.0000000000000000E+20
 30
-1.0000000000000000E+20
  9
$PLIMMIN
 10
0.0
 20
0.0
  9
$PLIMMAX
 10
12.0
 20
9.0
  9
$UNITMODE
 70
     0
  9
$VISRETAIN
 70
     1
  9
$PLINEGEN
 70
     0
  9
$PSLTSCALE
 70
     1
  0
ENDSEC
  0
SECTION
  2
TABLES
  0
TABLE
  2
VPORT
 70
     1
  0
VPORT
  2
*ACTIVE
 70
     0
 10
0.0
 20
0.0
 11
1.0
 21
1.0
 12
873.9685763718807721
 22
205.0215333343006137
 13
0.0
 23
0.0
 14
1.0
 24
1.0
 15
0.0
 25
0.0
 16
0.0
 26
0.0
 36
60.4960186965801583
 17
3911.3653564453120453
 27
132.5796051025390057
 37
0.0
 40
33.1156735488501326
 41
2.0410052910052912
 42
50.0
 43
0.0
 44
0.0
 50
0.0
 51
0.0
 71
     0
 72
   100
 73
     1
 74
     1
 75
     0
 76
     0
 77
     0
 78
     0
  0
ENDTAB
  0
TABLE
  2
LTYPE
 70
     2
  0
LTYPE
  2
CONTINUOUS
 70
     0
  3
Solid line
 72
    65
 73
     0
 40
0.0
  0
LTYPE
  2
PHANTOM2
 70
     0
  3
___ _ _ ___ _ _ ___ _ _ ___ _ _
 72
    65
 73
     6
 40
1.25
 49
0.625
 49
-0.125
 49
0.125
 49
-0.125
 49
0.125
 49
-0.125
  0
ENDTAB
  0
TABLE
  2
LAYER
 70
     2
  0
LAYER
  2
0
 70
     0
 62
   255
  6
CONTINUOUS
  0
LAYER
  2
DEFPOINTS
 70
     0
 62
     7
  6
CONTINUOUS
  0
ENDTAB
  0
TABLE
  2
STYLE
 70
     1
  0
STYLE
  2
STANDARD
 70
     0
 40
0.0
 41
0.8
 50
0.0
 71
     0
 42
0.2
  3
txt
  4

  0
ENDTAB
  0
TABLE
  2
VIEW
 70
     0
  0
ENDTAB
  0
TABLE
  2
UCS
 70
     0
  0
ENDTAB
  0
TABLE
  2
APPID
 70
    11
  0
APPID
  2
ACAD
 70
     0
  0
APPID
  2
ACAD_MLEADERVER
 70
     0
  0
APPID
  2
ACAD_EXEMPT_FROM_CAD_STANDARDS
 70
     0
  0
APPID
  2
ACAD_NAV_VCDISPLAY
 70
     0
  0
APPID
  2
ACAECLAYERSTANDARD
 70
     0
  0
APPID
  2
ACCMTRANSPARENCY
 70
     0
  0
APPID
  2
ACAD_DSTYLE_DIMJAG
 70
     0
  0
APPID
  2
ACAD_DSTYLE_DIMTALN
 70
     0
  0
APPID
  2
ACDBATTR
 70
     0
  0
APPID
  2
ACADANNOTATIVE
 70
     0
  0
APPID
  2
DCO15
 70
     0
  0
ENDTAB
  0
TABLE
  2
DIMSTYLE
 70
     1
  0
DIMSTYLE
  2
STANDARD
 70
     0
  3

  4

  5

  6

  7

 40
1.0
 41
0.1875
 42
0.0625
 43
0.38
 44
0.125
 45
0.0
 46
0.0
 47
0.01
 48
0.01
140
0.15625
141
0.09
142
0.0
143
25.3999999999999986
144
1.0
145
0.0
146
1.0
147
0.09
 71
     1
 72
     0
 73
     1
 74
     1
 75
     0
 76
     0
 77
     0
 78
     4
170
     0
171
     2
172
     0
173
     0
174
     0
175
     0
176
     0
177
     0
178
     0
  0
ENDTAB
  0
ENDSEC
  0
SECTION
  2
BLOCKS
  0
BLOCK
  8
0
  2
$MODEL_SPACE
 70
     0
 10
0.0
 20
0.0
 30
0.0
  3
$MODEL_SPACE
  1

  0
ENDBLK
  5
21
  8
0
  0
BLOCK
 67
     1
  8
0
  2
$PAPER_SPACE
 70
     0
 10
0.0
 20
0.0
 30
0.0
  3
$PAPER_SPACE
  1

  0
ENDBLK
  5
1D
 67
     1
  8
0
  0
ENDSEC
  0
SECTION
  2
ENTITIES
  0
ATTDEF
  5
20106
  8
DEFPOINTS
 10
4785.3406903816839986
 20
326.6590504460058924
 30
0.0
 40
0.001
  1
K-1769T-GE58
  3

  2
MODELNUMBER
 70
     0
1001
ACDBATTR
1070
     0
1070
     1
  0
ATTDEF
  5
20107
  8
DEFPOINTS
 10
4785.3405645720267785
 20
326.6573836056267055
 30
0.0
 40
0.001
  1
OVE
  3

  2
TRADENAME
 70
     0
1001
ACDBATTR
1070
     0
1070
     1
  0
ATTDEF
  5
20108
  8
DEFPOINTS
 10
4785.3406903816839986
 20
326.6557171126726189
 30
0.0
 40
0.001
  1
BATH
  3

  2
PRODUCT
 70
     0
1001
ACDBATTR
1070
     0
1070
     1
  0
LINE
  5
216CF
  8
0
 10
4818.2605588791793707
 20
326.6610348151132825
 30
0.0
 11
4752.4337872255791808
 21
326.6610348151132825
 31
0.0
  0
LINE
  5
216D0
  8
0
 10
4752.0732360444790174
 20
327.6452867836133009
 30
0.0
 11
4818.6211100602804436
 21
327.6452867836133009
 31
0.0
  0
LINE
  5
216D1
  8
0
 10
4818.7011100602785518
 20
346.3460741852132969
 30
0.0
 11
4751.9932360444790902
 21
346.3460741852132969
 31
0.0
  0
LINE
  5
216D2
  8
0
 10
4818.8511100602790975
 20
346.8578852088132862
 30
0.0
 11
4751.8432360444803635
 21
346.8578852088132862
 31
0.0
  0
LINE
  5
216D3
  8
0
 10
4818.5462309887334413
 20
348.5349990440133752
 30
0.0
 11
4752.1481151160260197
 21
348.5349990440133752
 31
0.0
  0
LINE
  5
216D4
  8
0
 10
4751.8432360444803635
 20
327.875286783613376
 30
0.0
 11
4751.8432360444803635
 21
346.1960741852133197
 31
0.0
  0
ARC
  5
216D5
  8
0
 10
4752.0732360444790174
 20
327.875286783613376
 30
0.0
 40
0.23
 50
180.0
 51
270.0
  0
ARC
  5
216D6
  8
0
 10
4751.9932360444790902
 20
346.1960741852133197
 30
0.0
 40
0.15
 50
90.0
 51
180.0
  0
LINE
  5
216D7
  8
0
 10
4751.8432360444803635
 20
346.8578852088132862
 30
0.0
 11
4751.9182598370707638
 21
348.3131569074892013
 31
0.0
  0
ARC
  5
216D8
  8
0
 10
4752.1481151160260197
 20
348.3049990440134138
 30
0.0
 40
0.23
 50
90.0
 51
177.9673512747608015
  0
LINE
  5
216D9
  8
0
 10
4752.4337872255791808
 20
326.6610348151132825
 30
0.0
 11
4752.4337872255791808
 21
327.4952867836133237
 31
0.0
  0
ARC
  5
216DA
  8
0
 10
4752.2837872255804541
 20
327.4952867836133237
 30
0.0
 40
0.15
 50
0.0
 51
90.0
  0
LINE
  5
216DB
  8
0
 10
4752.236936831879575
 20
346.8578852088132862
 30
0.0
 11
4752.236936831879575
 21
346.8376206960134027
 31
0.0
  0
ARC
  5
216DC
  8
0
 10
4752.4337872255791808
 20
346.8376206960134027
 30
0.0
 40
0.1968503937000003
 50
180.0
 51
250.5287793720524121
  0
ARC
  5
216DD
  8
0
 10
4752.3156769894467288
 20
346.5035545001532
 30
0.0
 40
0.1574803149398232
 50
269.9999999752997724
 51
70.5287793905125255
  0
CIRCLE
  5
216DE
  8
0
 10
4756.7879640467790523
 20
327.4208773348133263
 30
0.0
 40
0.1574803150000008
  0
CIRCLE
  5
216DF
  8
0
 10
4786.315523101978215
 20
327.4208773348133263
 30
0.0
 40
0.1574803150000008
  0
LINE
  5
216E0
  8
0
 10
4818.8511100602790975
 20
327.875286783613376
 30
0.0
 11
4818.8511100602790975
 21
346.1960741852133197
 31
0.0
  0
ARC
  5
216E1
  8
0
 10
4818.6211100602804436
 20
327.875286783613376
 30
0.0
 40
0.23
 50
270.0
 51
0.0
  0
ARC
  5
216E2
  8
0
 10
4818.7011100602785518
 20
346.1960741852133197
 30
0.0
 40
0.15
 50
0.0
 51
90.0
  0
LINE
  5
216E3
  8
0
 10
4818.8511100602790975
 20
346.8578852088132862
 30
0.0
 11
4818.7760862676877878
 21
348.3131569074892013
 31
0.0
  0
ARC
  5
216E4
  8
0
 10
4818.5462309887334413
 20
348.3049990440134138
 30
0.0
 40
0.23
 50
2.0326487252391749
 51
90.0
  0
LINE
  5
216E5
  8
0
 10
4818.2605588791793707
 20
326.6610348151132825
 30
0.0
 11
4818.2605588791793707
 21
327.4952867836133237
 31
0.0
  0
ARC
  5
216E6
  8
0
 10
4818.4105588791790069
 20
327.4952867836133237
 30
0.0
 40
0.15
 50
90.0
 51
180.0
  0
LINE
  5
216E7
  8
0
 10
4818.4574092728789765
 20
346.8578852088132862
 30
0.0
 11
4818.4574092728789765
 21
346.8376206960134027
 31
0.0
  0
ARC
  5
216E8
  8
0
 10
4818.2605588791793707
 20
346.8376206960134027
 30
0.0
 40
0.1968503937000003
 50
289.4712206279476732
 51
0.0
  0
ARC
  5
216E9
  8
0
 10
4818.3786691153109132
 20
346.5035545001532
 30
0.0
 40
0.1574803149398232
 50
109.4712206094875029
 51
270.0000000247002276
  0
CIRCLE
  5
216EA
  8
0
 10
4812.8903262515786992
 20
327.4208773348133263
 30
0.0
 40
0.1574803150000008
  0
CIRCLE
  5
216EB
  8
0
 10
4784.378823002779427
 20
327.4208773348133263
 30
0.0
 40
0.1574803150000008
  0
ENDSEC
  0
EOF
