  0
SECTION
  2
HEADER
  9
$ACADVER
  1
AC1009
  9
$INSBASE
 10
8614.9052186976550729
 20
2270.0088250165708814
 30
0.0
  9
$EXTMIN
 10
8585.6025037380677531
 20
2269.9214686233331122
 30
-0.0015258207003583
  9
$EXTMAX
 10
8615.1794624415197177
 20
2300.6373510781718323
 30
0.0000000349246037
  9
$LIMMIN
 10
0.0
 20
0.0
  9
$LIMMAX
 10
11.6929133858000007
 20
8.2677165353999982
  9
$ORTHOMODE
 70
     0
  9
$REGENMODE
 70
     1
  9
$FILLMODE
 70
     1
  9
$QTEXTMODE
 70
     0
  9
$MIRRTEXT
 70
     0
  9
$DRAGMODE
 70
     2
  9
$LTSCALE
 40
0.6431102362
  9
$OSMODE
 70
  4063
  9
$ATTMODE
 70
     1
  9
$TEXTSIZE
 40
0.2
  9
$TRACEWID
 40
0.05
  9
$TEXTSTYLE
  7
STANDARD
  9
$CLAYER
  8
0
  9
$CELTYPE
  6
BYLAYER
  9
$CECOLOR
 62
     1
  9
$DIMSCALE
 40
1.0
  9
$DIMASZ
 40
0.1875
  9
$DIMEXO
 40
0.0625
  9
$DIMDLI
 40
0.4443307087
  9
$DIMRND
 40
0.0
  9
$DIMDLE
 40
0.0
  9
$DIMEXE
 40
0.125
  9
$DIMTP
 40
0.01
  9
$DIMTM
 40
0.01
  9
$DIMTXT
 40
2.0
  9
$DIMCEN
 40
0.1052362205
  9
$DIMTSZ
 40
0.0
  9
$DIMTOL
 70
     1
  9
$DIMLIM
 70
     0
  9
$DIMTIH
 70
     1
  9
$DIMTOH
 70
     1
  9
$DIMSE1
 70
     0
  9
$DIMSE2
 70
     0
  9
$DIMTAD
 70
     0
  9
$DIMZIN
 70
     0
  9
$DIMBLK
  1

  9
$DIMASO
 70
     1
  9
$DIMSHO
 70
     1
  9
$DIMPOST
  1
\X
  9
$DIMAPOST
  1

  9
$DIMALT
 70
     1
  9
$DIMALTD
 70
     2
  9
$DIMALTF
 40
25.3999999999999986
  9
$DIMLFAC
 40
1.0
  9
$DIMTOFL
 70
     0
  9
$DIMTVP
 40
0.0
  9
$DIMTIX
 70
     0
  9
$DIMSOXD
 70
     0
  9
$DIMSAH
 70
     0
  9
$DIMBLK1
  1

  9
$DIMBLK2
  1

  9
$DIMSTYLE
  2
STANDARD
  9
$DIMCLRD
 70
     0
  9
$DIMCLRE
 70
     0
  9
$DIMCLRT
 70
     0
  9
$DIMTFAC
 40
1.0
  9
$DIMGAP
 40
0.09
  9
$LUNITS
 70
     2
  9
$LUPREC
 70
     4
  9
$SKETCHINC
 40
0.1
  9
$FILLETRAD
 40
0.0
  9
$AUNITS
 70
     0
  9
$AUPREC
 70
     0
  9
$MENU
  1
.
  9
$ELEVATION
 40
0.0
  9
$PELEVATION
 40
0.0
  9
$THICKNESS
 40
0.0
  9
$LIMCHECK
 70
     0
  9
$BLIPMODE
 70
     0
  9
$CHAMFERA
 40
0.0
  9
$CHAMFERB
 40
0.0
  9
$SKPOLY
 70
     0
  9
$TDCREATE
 40
2458060.468368056230247
  9
$TDUPDATE
 40
2459482.9486342589370906
  9
$TDINDWG
 40
0.4350765046
  9
$TDUSRTIMER
 40
0.4350765046
  9
$USRTIMER
 70
     1
  9
$ANGBASE
 50
0.0
  9
$ANGDIR
 70
     0
  9
$PDMODE
 70
     0
  9
$PDSIZE
 40
0.3125
  9
$PLINEWID
 40
0.0
  9
$COORDS
 70
     1
  9
$SPLFRAME
 70
     0
  9
$SPLINETYPE
 70
     6
  9
$SPLINESEGS
 70
     8
  9
$ATTDIA
 70
     1
  9
$ATTREQ
 70
     1
  9
$HANDLING
 70
     1
  9
$HANDSEED
  5
10D04
  9
$SURFTAB1
 70
     6
  9
$SURFTAB2
 70
     6
  9
$SURFTYPE
 70
     6
  9
$SURFU
 70
     6
  9
$SURFV
 70
     6
  9
$UCSNAME
  2

  9
$UCSORG
 10
0.0
 20
0.0
 30
0.0
  9
$UCSXDIR
 10
1.0
 20
0.0
 30
0.0
  9
$UCSYDIR
 10
0.0
 20
1.0
 30
0.0
  9
$PUCSNAME
  2

  9
$PUCSORG
 10
0.0
 20
0.0
 30
0.0
  9
$PUCSXDIR
 10
1.0
 20
0.0
 30
0.0
  9
$PUCSYDIR
 10
0.0
 20
1.0
 30
0.0
  9
$USERI1
 70
     0
  9
$USERI2
 70
     0
  9
$USERI3
 70
     0
  9
$USERI4
 70
     0
  9
$USERI5
 70
     0
  9
$USERR1
 40
0.0
  9
$USERR2
 40
0.0
  9
$USERR3
 40
0.0
  9
$USERR4
 40
0.0
  9
$USERR5
 40
0.0
  9
$WORLDVIEW
 70
     1
  9
$SHADEDGE
 70
     3
  9
$SHADEDIF
 70
    70
  9
$TILEMODE
 70
     1
  9
$MAXACTVP
 70
    64
  9
$PLIMCHECK
 70
     0
  9
$PEXTMIN
 10
1.0000000000000000E+20
 20
1.0000000000000000E+20
 30
1.0000000000000000E+20
  9
$PEXTMAX
 10
-1.0000000000000000E+20
 20
-1.0000000000000000E+20
 30
-1.0000000000000000E+20
  9
$PLIMMIN
 10
0.0
 20
0.0
  9
$PLIMMAX
 10
12.0
 20
9.0
  9
$UNITMODE
 70
     0
  9
$VISRETAIN
 70
     1
  9
$PLINEGEN
 70
     0
  9
$PSLTSCALE
 70
     1
  0
ENDSEC
  0
SECTION
  2
TABLES
  0
TABLE
  2
VPORT
 70
     1
  0
VPORT
  2
*ACTIVE
 70
     0
 10
0.0
 20
0.0
 11
1.0
 21
1.0
 12
3785.0926432460441902
 22
2037.4707855831738925
 13
0.0
 23
0.0
 14
1.0
 24
1.0
 15
0.0
 25
0.0
 16
0.0
 26
0.0
 36
9.5192988075487186
 17
4815.2983398437490905
 27
247.8086242675780966
 37
0.0
 40
30.9491676380409899
 41
2.0798479087452471
 42
50.0
 43
0.0
 44
0.0
 50
0.0
 51
0.0
 71
     0
 72
   100
 73
     1
 74
     1
 75
     0
 76
     0
 77
     0
 78
     0
  0
ENDTAB
  0
TABLE
  2
LTYPE
 70
     2
  0
LTYPE
  2
CONTINUOUS
 70
     0
  3
Solid line
 72
    65
 73
     0
 40
0.0
  0
LTYPE
  2
PHANTOM2
 70
     0
  3
___ _ _ ___ _ _ ___ _ _ ___ _ _
 72
    65
 73
     6
 40
1.25
 49
0.625
 49
-0.125
 49
0.125
 49
-0.125
 49
0.125
 49
-0.125
  0
ENDTAB
  0
TABLE
  2
LAYER
 70
     2
  0
LAYER
  2
0
 70
     0
 62
   255
  6
CONTINUOUS
  0
LAYER
  2
DEFPOINTS
 70
     0
 62
     7
  6
CONTINUOUS
  0
ENDTAB
  0
TABLE
  2
STYLE
 70
     1
  0
STYLE
  2
STANDARD
 70
     0
 40
0.0
 41
0.8
 50
0.0
 71
     0
 42
0.2
  3
txt
  4

  0
ENDTAB
  0
TABLE
  2
VIEW
 70
     0
  0
ENDTAB
  0
TABLE
  2
UCS
 70
     0
  0
ENDTAB
  0
TABLE
  2
APPID
 70
    10
  0
APPID
  2
ACAD
 70
     0
  0
APPID
  2
ACAD_MLEADERVER
 70
     0
  0
APPID
  2
ACAD_EXEMPT_FROM_CAD_STANDARDS
 70
     0
  0
APPID
  2
ACAD_NAV_VCDISPLAY
 70
     0
  0
APPID
  2
ACAECLAYERSTANDARD
 70
     0
  0
APPID
  2
ACCMTRANSPARENCY
 70
     0
  0
APPID
  2
ACAD_DSTYLE_DIMJAG
 70
     0
  0
APPID
  2
ACAD_DSTYLE_DIMTALN
 70
     0
  0
APPID
  2
ACDBATTR
 70
     0
  0
APPID
  2
ACADANNOTATIVE
 70
     0
  0
ENDTAB
  0
TABLE
  2
DIMSTYLE
 70
     1
  0
DIMSTYLE
  2
STANDARD
 70
     0
  3

  4

  5

  6

  7

 40
1.0
 41
0.1875
 42
0.0625
 43
0.38
 44
0.125
 45
0.0
 46
0.0
 47
0.01
 48
0.01
140
0.15625
141
0.09
142
0.0
143
25.3999999999999986
144
1.0
145
0.0
146
1.0
147
0.09
 71
     1
 72
     0
 73
     1
 74
     1
 75
     0
 76
     0
 77
     0
 78
     4
170
     0
171
     2
172
     0
173
     0
174
     0
175
     0
176
     0
177
     0
178
     0
  0
ENDTAB
  0
ENDSEC
  0
SECTION
  2
BLOCKS
  0
BLOCK
  8
0
  2
$MODEL_SPACE
 70
     0
 10
0.0
 20
0.0
 30
0.0
  3
$MODEL_SPACE
  1

  0
ENDBLK
  5
21
  8
0
  0
BLOCK
 67
     1
  8
0
  2
$PAPER_SPACE
 70
     0
 10
0.0
 20
0.0
 30
0.0
  3
$PAPER_SPACE
  1

  0
ENDBLK
  5
1D
 67
     1
  8
0
  0
BLOCK
  8
0
  2
_FILLED
 70
     0
 10
0.0
 20
0.0
 30
0.0
  3
_FILLED
  1

  0
SOLID
  5
10B94
  8
0
  6
BYBLOCK
 62
     0
 10
0.0
 20
0.0
 30
0.0
 11
-1.0
 21
0.1666666667
 31
0.0
 12
-1.0
 22
-0.1666666667
 32
0.0
 13
-1.0
 23
-0.1666666667
 33
0.0
  0
ENDBLK
  5
10B95
  8
0
  6
BYBLOCK
 62
     0
  0
ENDSEC
  0
SECTION
  2
ENTITIES
  0
ATTDEF
  5
3930
  8
DEFPOINTS
 10
8614.9058693279548606
 20
2270.0072500844448768
 30
0.0
 40
0.001
  1
K-17718VN-S
  3

  2
MODELNUMBER
 70
     0
1001
ACDBATTR
1070
     0
1070
     1
  0
ATTDEF
  5
3931
  8
DEFPOINTS
 10
8614.9058693279548606
 20
2270.0055834177787801
 30
0.0
 40
0.001
  1
OVE
  3

  2
TRADENAME
 70
     0
1001
ACDBATTR
1070
     0
1070
     1
  0
ATTDEF
  5
3932
  8
DEFPOINTS
 10
8614.9058693279548606
 20
2270.0039167511117739
 30
0.0
 40
0.001
  1
TOILET
  3

  2
PRODUCT
 70
     0
1001
ACDBATTR
1070
     0
1070
     1
  0
LINE
  5
10C0F
  8
0
 10
8606.7450762595399283
 20
2298.7096124181712185
 30
0.0
 11
8614.3066266418882151
 21
2298.7096124181712185
 31
0.0
  0
LINE
  5
10C10
  8
0
 10
8586.0299978229450062
 20
2285.9175022286708554
 30
0.0
 11
8603.5635506762318983
 21
2285.9175022286708554
 31
0.0
  0
LINE
  5
10C11
  8
0
 10
8586.3638481804937328
 20
2285.6828250165708596
 30
0.0
 11
8602.8478240945933067
 21
2285.6828250165708596
 31
0.0
  0
LINE
  5
10C12
  8
0
 10
8591.0536798868433834
 20
2270.0088250165708814
 30
0.0
 11
8609.9051517435927963
 21
2270.0088250165708814
 31
0.0
  0
LINE
  5
10C13
  8
0
 10
8606.770694500692116
 20
2298.5915021819710091
 30
0.0
 11
8614.2865776162798284
 21
2298.5915021819710091
 31
0.0
  0
LINE
  5
10C14
  8
0
 10
8612.6571036564782844
 20
2300.5671379843001887
 30
0.0
 11
8608.3933117304441112
 21
2300.5671379843001887
 31
0.0
  0
ARC
  5
10C15
  8
0
 10
8609.197698997297266
 20
2257.5293306974508596
 30
0.0
 40
43.0453237290072295
 50
91.0707476274232448
 51
92.0298075777306366
  0
ARC
  5
10C16
  8
0
 10
8607.7012206892359245
 20
2299.7607833553029195
 30
0.0
 40
0.7873654629814025
 50
92.049749475559139
 51
153.5781418693468083
  0
ARC
  5
10C17
  8
0
 10
8609.7227326607899158
 20
2298.7329697494938046
 30
0.0
 40
3.0551393984660038
 50
153.1857269835658997
 51
178.9612991084194107
  0
ARC
  5
10C18
  8
0
 10
8606.7459558519185521
 20
2298.7874729832938101
 30
0.0
 40
0.077865533351292
 50
179.3527559551170043
 51
269.3527559551433228
  0
ARC
  5
10C19
  8
0
 10
8606.8222500486353965
 20
2298.66992735945405
 30
0.0
 40
0.0784256160355827
 50
269.8083893452356961
 51
349.7576490141767067
  0
LINE
  5
10C1A
  8
0
 10
8606.8994259088922263
 20
2298.6559823301709002
 30
0.0
 11
8606.9093017351933668
 21
2298.7096124181712185
 31
0.0
  0
ARC
  5
10C1B
  8
0
 10
8606.770694500692116
 20
2298.5127620244711579
 30
0.0
 40
0.0787401575000175
 50
90.0
 51
180.8999999995035068
  0
LINE
  5
10C1C
  8
0
 10
8606.879999770591894
 20
2286.5417844941712247
 30
0.0
 11
8606.6919640571704804
 21
2298.5115252278319531
 31
0.0
  0
ARC
  5
10C1D
  8
0
 10
8607.0374606575933285
 20
2286.5442580874710075
 30
0.0
 40
0.1574803149999999
 50
180.9000000079736026
 51
270.0
  0
ARC
  5
10C1E
  8
0
 10
8607.0017733715812938
 20
2286.2398942868221638
 30
0.0
 40
0.1480574324502283
 50
97.2199486657838463
 51
163.43309123803391
  0
ARC
  5
10C1F
  8
0
 10
8591.0910941732945503
 20
2270.2518616809520609
 30
0.0
 40
0.2458996727615929
 50
200.7297873591215875
 51
261.2483036522580164
  0
ARC
  5
10C20
  8
0
 10
8658.8515100130935025
 20
2285.9467995542008794
 30
0.0
 40
69.7980281961409048
 50
186.5794987732996901
 51
193.0681120834624949
  0
ARC
  5
10C21
  8
0
 10
8589.1214305029352545
 20
2277.9106875684110491
 30
0.0
 40
0.3936438413704614
 50
5.617888494914844
 51
80.1450653289339527
  0
LINE
  5
10C22
  8
0
 10
8589.1888043079143245
 20
2278.2985228997708873
 30
0.0
 11
8588.5010834483764484
 21
2278.4183319505818872
 31
0.0
  0
ARC
  5
10C23
  8
0
 10
8588.6362369615399075
 20
2279.1940762783078753
 30
0.0
 40
0.7874298280604315
 50
208.2435847275694982
 51
260.1168837906043905
  0
ARC
  5
10C24
  8
0
 10
8602.2507391621002171
 20
2286.8520098181738831
 30
0.0
 40
16.4077433377962407
 50
186.2745998705667887
 51
209.3036048397235049
  0
ARC
  5
10C25
  8
0
 10
8586.2111005729184399
 20
2285.0762585745778779
 30
0.0
 40
0.2703818834899168
 50
97.25149484787147
 51
183.7133224731732923
  0
LINE
  5
10C26
  8
0
 10
8586.1769716600920219
 20
2285.3444778509710886
 30
0.0
 11
8601.4600949987543572
 21
2285.3444778509710886
 31
0.0
  0
LINE
  5
10C27
  8
0
 10
8606.9831657132835971
 20
2286.3867777724708503
 30
0.0
 11
8613.8222396734945505
 21
2286.3867777724708503
 31
0.0
  0
ARC
  5
10C28
  8
0
 10
8586.0349686280533206
 20
2286.0006806963838244
 30
0.0
 40
0.0833268647821409
 50
178.3311108695621954
 51
266.5800303974613144
  0
LINE
  5
10C29
  8
0
 10
8585.9516771087655798
 20
2286.0031074656308192
 30
0.0
 11
8586.039138449514212
 21
2287.0027809967878056
 31
0.0
  0
ARC
  5
10C2A
  8
0
 10
8586.294069991181459
 20
2286.9804779936830528
 30
0.0
 40
0.2559052849869144
 50
97.1978601308471468
 51
175.0001375649680995
  0
ARC
  5
10C2B
  8
0
 10
8591.115496590073235
 20
2244.6269210070681766
 30
0.0
 40
42.8829895107607371
 50
92.9871301228912017
 51
96.4986530094173247
  0
ARC
  5
10C2C
  8
0
 10
8670.397679253570459
 20
8465.4433702473997982
 30
0.0
 40
6178.3978425589220933
 50
269.3557120016815247
 51
269.3815652280362087
  0
ARC
  5
10C2D
  8
0
 10
8603.7091045691831823
 20
2287.2479369339607729
 30
0.0
 40
0.1575048305559147
 50
1.12463106655937
 51
89.288877590209367
  0
ARC
  5
10C2E
  8
0
 10
8603.7881291620306001
 20
2287.2273603930671015
 30
0.0
 40
0.0788517707855761
 50
306.8805873313763755
 51
1.1877811673602121
  0
LINE
  5
10C2F
  8
0
 10
8603.8669639896925219
 20
2287.2289949277710548
 30
0.0
 11
8603.8665790590912366
 21
2287.2510283213709954
 31
0.0
  0
LINE
  5
10C30
  8
0
 10
8586.3038427144711022
 20
2285.757824858971162
 30
0.0
 11
8586.3466324258934037
 21
2285.9175022286708554
 31
0.0
  0
ARC
  5
10C31
  8
0
 10
8586.3639216619885701
 20
2285.7429038396257965
 30
0.0
 40
0.0600788679921868
 50
180.0751638639135876
 51
269.9299224378908093
  0
LINE
  5
10C32
  8
0
 10
8586.3038428456911788
 20
2285.7428250247708093
 30
0.0
 11
8586.3038427144711022
 21
2285.757824858971162
 31
0.0
  0
LINE
  5
10C33
  8
0
 10
8603.7136030617584765
 20
2287.0718616396347898
 30
0.0
 11
8603.8354519927906949
 21
2287.1642878043708151
 31
0.0
  0
ARC
  5
10C34
  8
0
 10
8603.6992072299708525
 20
2286.3629714733110632
 30
0.0
 40
0.393343216086138
 50
286.1872088468123252
 51
44.3684665306426425
  0
ARC
  5
10C35
  8
0
 10
8604.6251536282197776
 20
2287.3334711766769942
 30
0.0
 40
0.9483480295158919
 50
196.01316107477831
 51
227.1658045902555898
  0
ARC
  5
10C36
  8
0
 10
8603.7293342060602299
 20
2286.3769050227301705
 30
0.0
 40
0.4681378608393125
 50
5.74417498886024
 51
79.1658116697608705
  0
LINE
  5
10C37
  8
0
 10
8604.3278398978327459
 20
2285.3428541161661087
 30
0.0
 11
8604.1951214056934987
 21
2286.4237594932710635
 31
0.0
  0
LINE
  5
10C38
  8
0
 10
8603.1627610133837152
 20
2285.3381476993067736
 30
0.0
 11
8603.1775402794592083
 21
2285.7613705061507972
 31
0.0
  0
ARC
  5
10C39
  8
0
 10
8603.5606434544770309
 20
2285.9963665674431468
 30
0.0
 40
0.0789179058795617
 50
272.111171514880084
 51
1.3499292294314
  0
ARC
  5
10C3A
  8
0
 10
8603.6794681784595014
 20
2286.447691134069828
 30
0.0
 40
0.4127132926408394
 50
354.2810872897571812
 51
70.4861318470982781
  0
ARC
  5
10C3B
  8
0
 10
8602.1292406479351484
 20
2289.0639522018800562
 30
0.0
 40
3.468595041744186
 50
274.5620718603419164
 51
283.3681751800364168
  0
ARC
  5
10C3C
  8
0
 10
8602.6620254273766477
 20
2282.8275406551001652
 30
0.0
 40
2.7891951533017312
 50
107.585612068049798
 51
115.5261977855455058
  0
ARC
  5
10C3D
  8
0
 10
8602.5285787080119917
 20
2283.513170940243981
 30
0.0
 40
2.096812771874212
 50
93.3752241706408768
 51
109.7705035578197936
  0
ARC
  5
10C3E
  8
0
 10
8587.1451753529854614
 20
2284.6618842556949858
 30
0.0
 40
1.667900709808172
 50
26.8851160265461715
 51
37.7423159451755907
  0
ARC
  5
10C3F
  8
0
 10
8588.686606095316165
 20
2285.4428967687499608
 30
0.0
 40
0.0601023924533763
 50
206.4629423720321029
 51
271.0740751319851825
  0
LINE
  5
10C40
  8
0
 10
8588.6877327176389372
 20
2285.3828049365201878
 30
0.0
 11
8589.3811754683792969
 21
2285.3710567888729202
 31
0.0
  0
ARC
  5
10C41
  8
0
 10
8589.159871059920988
 20
2285.524311163323091
 30
0.0
 40
0.1594872840681993
 50
356.4231635852254954
 51
83.6664342141370128
  0
ARC
  5
10C42
  8
0
 10
8589.4207263212247199
 20
2285.4618991561487746
 30
0.0
 40
0.0990787850818021
 50
182.493209561065612
 51
270.5548369511258784
  0
LINE
  5
10C43
  8
0
 10
8589.4216857585925027
 20
2285.3628250165711506
 30
0.0
 11
8590.269657126702441
 21
2285.3628250165861573
 31
0.0
  0
ARC
  5
10C44
  8
0
 10
8590.2696553988462256
 20
2285.4628250164341807
 30
0.0
 40
0.0999999998629905
 50
270.0009899908761781
 51
357.0000000884422775
  0
LINE
  5
10C45
  8
0
 10
8590.3695183521922445
 20
2285.4575914209708571
 30
0.0
 11
8590.3813223447923519
 21
2285.6828250165708596
 31
0.0
  0
ARC
  5
10C46
  8
0
 10
8598.4577581123867276
 20
2285.4330408431042088
 30
0.0
 40
0.3981481287861403
 50
12.2603498251670402
 51
38.8559784128752312
  0
ARC
  5
10C47
  8
0
 10
8598.9466802371807717
 20
2285.5228163900451364
 30
0.0
 40
0.0999913739884113
 50
182.9965444337904046
 51
270.0058108154419756
  0
LINE
  5
10C48
  8
0
 10
8598.9466903780921712
 20
2285.4228250165710961
 30
0.0
 11
8599.4048113288954482
 21
2285.4228250165738245
 31
0.0
  0
ARC
  5
10C49
  8
0
 10
8599.3961771407721244
 20
2285.5559542046207753
 30
0.0
 40
0.1334088824423711
 50
273.7107615172087094
 51
339.2860319364056068
  0
ARC
  5
10C4A
  8
0
 10
8599.7488006603962276
 20
2285.4480894819339483
 30
0.0
 40
0.2357798648028326
 50
95.3946542473289156
 51
165.0872050551649863
  0
ARC
  5
10C4B
  8
0
 10
8604.308974440995371
 20
2285.819513136571004
 30
0.0
 40
0.0393652855289415
 50
186.9938275123273002
 51
270.0061725866020197
  0
ARC
  5
10C4C
  8
0
 10
8604.3222908339485002
 20
2285.7602569738041893
 30
0.0
 40
0.0198915758570306
 50
12.4801239397301096
 51
89.5198760866708341
  0
LINE
  5
10C4D
  8
0
 10
8604.3089786818927678
 20
2285.7801478512710673
 30
0.0
 11
8604.3224575182903209
 21
2285.7801478512710673
 31
0.0
  0
LINE
  5
10C4E
  8
0
 10
8604.4311836949345889
 20
2285.343626177385886
 30
0.0
 11
8604.3417123923954932
 21
2285.7645555616691126
 31
0.0
  0
LINE
  5
10C4F
  8
0
 10
8604.3115387365796778
 20
2285.7801478512710673
 30
0.0
 11
8604.3068039011923247
 21
2285.922282074470786
 31
0.0
  0
LINE
  5
10C50
  8
0
 10
8604.3353397539776779
 20
2285.7752703170731365
 30
0.0
 11
8604.3068039011923247
 21
2285.922282074470786
 31
0.0
  0
LINE
  5
10C51
  8
0
 10
8604.3068039011923247
 20
2285.922282074470786
 30
0.0
 11
8604.3050678121926467
 21
2285.9753909939709047
 31
0.0
  0
ARC
  5
10C52
  8
0
 10
8603.3674449865629867
 20
2277.1065232242121965
 30
0.0
 40
8.9895344424578774
 50
74.8084554576121121
 51
83.4728891609648116
  0
ARC
  5
10C53
  8
0
 10
8604.3780737747238163
 20
2285.9648941086420564
 30
0.0
 40
0.0737567296350824
 50
81.2331568950616685
 51
171.8180183582082066
  0
ARC
  5
10C54
  8
0
 10
8605.8061991520426091
 20
2285.4726330986368339
 30
0.0
 40
0.2046442420985516
 50
121.6330189631775056
 51
172.5300599794975938
  0
ARC
  5
10C55
  8
0
 10
8606.339989337071529
 20
2285.3918052858189185
 30
0.0
 40
0.7444899180461317
 50
171.7030285703459072
 51
182.7312455842665031
  0
ARC
  5
10C56
  8
0
 10
8605.6843385273041349
 20
2285.7207884459348861
 30
0.0
 40
0.0658856960526782
 50
324.8161905463351218
 51
359.4688575933164998
  0
ARC
  5
10C57
  8
0
 10
8605.6164648163430684
 20
2285.7764688696561279
 30
0.0
 40
0.1535759188585911
 50
302.4499951152427002
 51
322.4281306228409107
  0
LINE
  5
10C58
  8
0
 10
8605.750221392392632
 20
2285.7201776821711974
 30
0.0
 11
8605.7502213924944954
 21
2285.7445114595711857
 31
0.0
  0
ARC
  5
10C59
  8
0
 10
8605.7108513516013772
 20
2285.7445114553602252
 30
0.0
 40
0.0393700408892033
 50
0.0000061286815512
 51
71.83768618738398
  0
LINE
  5
10C5A
  8
0
 10
8603.6395394574265083
 20
2285.9982257572969502
 30
0.0
 11
8603.6306159733358072
 21
2287.0351377554120518
 31
0.0
  0
ARC
  5
10C5B
  8
0
 10
8603.7591238892364345
 20
2287.0401832540251235
 30
0.0
 40
0.1286069263490059
 50
162.2116933539388981
 51
182.2484013354662125
  0
LINE
  5
10C5C
  8
0
 10
8603.6366654334924533
 20
2287.0794727961711033
 30
0.0
 11
8603.8665790590912366
 21
2287.2510283213709954
 31
0.0
  0
LINE
  5
10C5D
  8
0
 10
8603.0595255529933638
 20
2285.9175022286708554
 30
0.0
 11
8603.1267349106656184
 21
2285.8215227080781915
 31
0.0
  0
ARC
  5
10C5E
  8
0
 10
8603.0800581878120283
 20
2285.778033394321028
 30
0.0
 40
0.0637968405733209
 50
309.6933609174911908
 51
42.9754120303989495
  0
ARC
  5
10C5F
  8
0
 10
8602.8050548026403703
 20
2286.7669386976931492
 30
0.0
 40
1.084956997272152
 50
272.2592001655460763
 51
286.9193011944507816
  0
ARC
  5
10C60
  8
0
 10
8603.6984220076301426
 20
2286.3554260758091914
 30
0.0
 40
0.3863264190144127
 50
260.759268093108517
 51
286.6110173655895892
  0
LINE
  5
10C61
  8
0
 10
8603.1354956852428586
 20
2285.7464625098550641
 30
0.0
 11
8603.8088621598926693
 21
2285.9852219769709336
 31
0.0
  0
ARC
  5
10C62
  8
0
 10
8614.2365481123015343
 20
2298.6701881972708179
 30
0.0
 40
0.0786860280678953
 50
190.4011005576873004
 51
270.0326392395513722
  0
LINE
  5
10C63
  8
0
 10
8614.1591550527991785
 20
2298.6559823761449479
 30
0.0
 11
8614.1492789767926297
 21
2298.7096124181712185
 31
0.0
  0
ARC
  5
10C64
  8
0
 10
8614.2865558805933688
 20
2298.512762027170993
 30
0.0
 40
0.0787401578000036
 50
0.0
 51
89.9841838884424305
  0
LINE
  5
10C65
  8
0
 10
8613.9796388640279474
 20
2286.539187872455841
 30
0.0
 11
8614.3652960383933532
 21
2298.512762027170993
 31
0.0
  0
ARC
  5
10C66
  8
0
 10
8614.3065434740401543
 20
2298.7882875978270931
 30
0.0
 40
0.0786752236141739
 50
270.0605675750230148
 51
14.06056762164852
  0
LINE
  5
10C67
  8
0
 10
8614.3828615444854222
 20
2298.8074015438951392
 30
0.0
 11
8614.0578023496582318
 21
2300.1111427647920209
 31
0.0
  0
ARC
  5
10C68
  8
0
 10
8613.8379244173738698
 20
2286.5280604426520767
 30
0.0
 40
0.1421506387048858
 50
263.6651484666699048
 51
4.4896575092109874
  0
ARC
  5
10C69
  8
0
 10
8612.1455098950973479
 20
2284.6396943487347926
 30
0.0
 40
5.5349438036729453
 50
162.7383440583298011
 51
170.2612920621039052
  0
ARC
  5
10C6A
  8
0
 10
8606.3610146004521084
 20
2285.7209083324260064
 30
0.0
 40
0.3598019859123361
 50
273.8441299479978284
 51
336.2430325931302946
  0
ARC
  5
10C6B
  8
0
 10
8606.006964764192162
 20
2299.565443184707874
 30
0.0
 40
14.2085608887787807
 50
269.0452458192935978
 51
271.5251515416146049
  0
ARC
  5
10C6C
  8
0
 10
8612.5042692209826782
 20
2286.2151485817998946
 30
0.0
 40
0.1724272674190981
 50
356.4998606846914981
 51
84.4852651158515471
  0
ARC
  5
10C6D
  8
0
 10
8609.8726893836828822
 20
2270.2830692954908045
 30
0.0
 40
0.2761588842160585
 50
276.7507026837042758
 51
344.2265724846718058
  0
LINE
  5
10C6E
  8
0
 10
8610.1384492751985817
 20
2270.2079999316138128
 30
0.0
 11
8612.6763748511948506
 21
2286.2046217304709899
 31
0.0
  0
CIRCLE
  5
10C6F
  8
0
 10
8601.4807726169929083
 20
2271.1500485552710416
 30
0.0
 40
0.5430836009787987
  0
ARC
  5
10C70
  8
0
 10
8585.4137084283138392
 20
3693.0736320780110873
 30
0.0
 40
1415.1303473782070341
 50
270.1659797328592845
 51
270.5604611773057968
  0
ARC
  5
10C71
  8
0
 10
8594.9081951824737189
 20
2283.5402811138437755
 30
0.0
 40
7.7591917630587632
 50
317.5027618305836086
 51
0.2083340498779768
  0
ARC
  5
10C72
  8
0
 10
8529.1830310991281294
 20
2287.1349108732001696
 30
0.0
 40
73.5707981630245911
 50
357.2214420069237804
 51
358.6006631397938236
  0
LINE
  5
10C73
  8
0
 10
8589.3217413256934378
 20
2285.4575891314711953
 30
0.0
 11
8589.319047667842824
 21
2285.5143612251340528
 31
0.0
  0
ARC
  5
10C74
  8
0
 10
8593.788716269273209
 20
1969.0932332181039328
 30
0.0
 40
318.4228567018515719
 50
88.7161073151088146
 51
89.863258308859713
  0
ARC
  5
10C75
  8
0
 10
8595.4409889311973529
 20
1955.0906826622899644
 30
0.0
 40
332.4256980539872188
 50
90.1537987984122537
 51
91.130766684249366
  0
ARC
  5
10C76
  8
0
 10
8602.9986236034492322
 20
2470.1812109524180414
 30
0.0
 40
184.8431361286723984
 50
269.5230971761878891
 51
270.8591400855401048
  0
ARC
  5
10C77
  8
0
 10
8599.4853436313915154
 20
2280.338315094095833
 30
0.0
 40
2.3385863141542971
 50
264.3754688592670732
 51
299.280823540561812
  0
ARC
  5
10C78
  8
0
 10
8611.8842038006405346
 20
2258.4252215327269369
 30
0.0
 40
42.1490035042176032
 50
87.9650936657834421
 51
88.9492899423797354
  0
ARC
  5
10C79
  8
0
 10
8613.3526834543772566
 20
2299.7607833553029195
 30
0.0
 40
0.7873654629814025
 50
26.4218581306531384
 51
87.9502505244408752
  0
LINE
  5
10C7A
  8
0
 10
8600.6927500095898722
 20
2278.3688226862827833
 30
0.0
 11
8600.4618057059924467
 21
2278.603299744971082
 31
0.0
  0
ARC
  5
10C7B
  8
0
 10
8597.8751531392317702
 20
2264.5642343655008517
 30
0.0
 40
14.2753678842324199
 50
79.5605157447331948
 51
85.6460443511889338
  0
ARC
  5
10C7C
  8
0
 10
8591.372850838197337
 20
1828.969286482599955
 30
0.0
 40
449.8930804885923749
 50
89.0338380079799236
 51
89.6138043178593762
  0
ARC
  5
10C7D
  8
0
 10
8591.0233600785613817
 20
2579.5318843086838569
 30
0.0
 40
300.6828100305037879
 50
269.6108494607354942
 51
270.2408297601180038
  0
ARC
  5
10C7E
  8
0
 10
8589.0969258620007167
 20
2259.7544901628580192
 30
0.0
 40
19.1018702982998008
 50
90.3472680127783008
 51
93.4646277027296009
  0
ARC
  5
10C7F
  8
0
 10
8593.6134589108733053
 20
920.370469327394062
 30
0.0
 40
1358.4819084956870938
 50
89.9666038497564813
 51
90.0559364003599825
  0
ENDSEC
  0
EOF
