  0
SECTION
  2
HEADER
  9
$ACADVER
  1
AC1009
  9
$INSBASE
 10
3024.8190665556908243
 20
175.4053974080736111
 30
0.0
  9
$EXTMIN
 10
3016.0790665556901331
 20
170.0883974080736039
 30
0.0
  9
$EXTMAX
 10
3033.5590665556910608
 20
176.2041774080736047
 30
0.0
  9
$LIMMIN
 10
0.0
 20
0.0
  9
$LIMMAX
 10
11.6929133858000007
 20
8.2677165353999982
  9
$ORTHOMODE
 70
     1
  9
$REGENMODE
 70
     1
  9
$FILLMODE
 70
     1
  9
$QTEXTMODE
 70
     0
  9
$MIRRTEXT
 70
     0
  9
$DRAGMODE
 70
     2
  9
$LTSCALE
 40
0.6431102362
  9
$OSMODE
 70
  4095
  9
$ATTMODE
 70
     1
  9
$TEXTSIZE
 40
0.2
  9
$TRACEWID
 40
0.05
  9
$TEXTSTYLE
  7
STANDARD
  9
$CLAYER
  8
0
  9
$CELTYPE
  6
BYLAYER
  9
$CECOLOR
 62
   256
  9
$DIMSCALE
 40
1.0
  9
$DIMASZ
 40
0.1875
  9
$DIMEXO
 40
0.0625
  9
$DIMDLI
 40
0.4443307087
  9
$DIMRND
 40
0.0
  9
$DIMDLE
 40
0.0
  9
$DIMEXE
 40
0.125
  9
$DIMTP
 40
0.01
  9
$DIMTM
 40
0.01
  9
$DIMTXT
 40
2.0
  9
$DIMCEN
 40
0.1052362205
  9
$DIMTSZ
 40
0.0
  9
$DIMTOL
 70
     1
  9
$DIMLIM
 70
     0
  9
$DIMTIH
 70
     1
  9
$DIMTOH
 70
     1
  9
$DIMSE1
 70
     0
  9
$DIMSE2
 70
     0
  9
$DIMTAD
 70
     0
  9
$DIMZIN
 70
     0
  9
$DIMBLK
  1

  9
$DIMASO
 70
     1
  9
$DIMSHO
 70
     1
  9
$DIMPOST
  1
\X
  9
$DIMAPOST
  1

  9
$DIMALT
 70
     1
  9
$DIMALTD
 70
     2
  9
$DIMALTF
 40
25.3999999999999986
  9
$DIMLFAC
 40
1.0
  9
$DIMTOFL
 70
     0
  9
$DIMTVP
 40
0.0
  9
$DIMTIX
 70
     0
  9
$DIMSOXD
 70
     0
  9
$DIMSAH
 70
     0
  9
$DIMBLK1
  1

  9
$DIMBLK2
  1

  9
$DIMSTYLE
  2
STANDARD
  9
$DIMCLRD
 70
     0
  9
$DIMCLRE
 70
     0
  9
$DIMCLRT
 70
     0
  9
$DIMTFAC
 40
1.0
  9
$DIMGAP
 40
0.09
  9
$LUNITS
 70
     2
  9
$LUPREC
 70
     4
  9
$SKETCHINC
 40
0.1
  9
$FILLETRAD
 40
0.0
  9
$AUNITS
 70
     0
  9
$AUPREC
 70
     0
  9
$MENU
  1
.
  9
$ELEVATION
 40
0.0
  9
$PELEVATION
 40
0.0
  9
$THICKNESS
 40
0.0
  9
$LIMCHECK
 70
     0
  9
$BLIPMODE
 70
     0
  9
$CHAMFERA
 40
0.0
  9
$CHAMFERB
 40
0.0
  9
$SKPOLY
 70
     0
  9
$TDCREATE
 40
2458060.468368056230247
  9
$TDUPDATE
 40
2458794.7755439821630716
  9
$TDINDWG
 40
0.3649376157
  9
$TDUSRTIMER
 40
0.3649376157
  9
$USRTIMER
 70
     1
  9
$ANGBASE
 50
0.0
  9
$ANGDIR
 70
     0
  9
$PDMODE
 70
     0
  9
$PDSIZE
 40
0.3125
  9
$PLINEWID
 40
0.0
  9
$COORDS
 70
     1
  9
$SPLFRAME
 70
     0
  9
$SPLINETYPE
 70
     6
  9
$SPLINESEGS
 70
     8
  9
$ATTDIA
 70
     1
  9
$ATTREQ
 70
     1
  9
$HANDLING
 70
     1
  9
$HANDSEED
  5
6F97
  9
$SURFTAB1
 70
     6
  9
$SURFTAB2
 70
     6
  9
$SURFTYPE
 70
     6
  9
$SURFU
 70
     6
  9
$SURFV
 70
     6
  9
$UCSNAME
  2

  9
$UCSORG
 10
0.0
 20
0.0
 30
0.0
  9
$UCSXDIR
 10
1.0
 20
0.0
 30
0.0
  9
$UCSYDIR
 10
0.0
 20
1.0
 30
0.0
  9
$PUCSNAME
  2

  9
$PUCSORG
 10
0.0
 20
0.0
 30
0.0
  9
$PUCSXDIR
 10
1.0
 20
0.0
 30
0.0
  9
$PUCSYDIR
 10
0.0
 20
1.0
 30
0.0
  9
$USERI1
 70
     0
  9
$USERI2
 70
     0
  9
$USERI3
 70
     0
  9
$USERI4
 70
     0
  9
$USERI5
 70
     0
  9
$USERR1
 40
0.0
  9
$USERR2
 40
0.0
  9
$USERR3
 40
0.0
  9
$USERR4
 40
0.0
  9
$USERR5
 40
0.0
  9
$WORLDVIEW
 70
     1
  9
$SHADEDGE
 70
     3
  9
$SHADEDIF
 70
    70
  9
$TILEMODE
 70
     1
  9
$MAXACTVP
 70
    64
  9
$PLIMCHECK
 70
     0
  9
$PEXTMIN
 10
1.0000000000000000E+20
 20
1.0000000000000000E+20
 30
1.0000000000000000E+20
  9
$PEXTMAX
 10
-1.0000000000000000E+20
 20
-1.0000000000000000E+20
 30
-1.0000000000000000E+20
  9
$PLIMMIN
 10
0.0
 20
0.0
  9
$PLIMMAX
 10
12.0
 20
9.0
  9
$UNITMODE
 70
     0
  9
$VISRETAIN
 70
     1
  9
$PLINEGEN
 70
     0
  9
$PSLTSCALE
 70
     1
  0
ENDSEC
  0
SECTION
  2
TABLES
  0
TABLE
  2
VPORT
 70
     1
  0
VPORT
  2
*ACTIVE
 70
     0
 10
0.0
 20
0.0
 11
1.0
 21
1.0
 12
0.0
 22
0.0
 13
0.0
 23
0.0
 14
1.0
 24
1.0
 15
0.0
 25
0.0
 16
0.0
 26
0.0
 36
53.9206147545299501
 17
3024.819091796875
 27
173.1462860107421875
 37
0.0
 40
18.720169021692481
 41
2.1921296296296289
 42
50.0
 43
0.0
 44
0.0
 50
0.0
 51
0.0
 71
     0
 72
   100
 73
     1
 74
     1
 75
     0
 76
     0
 77
     0
 78
     0
  0
ENDTAB
  0
TABLE
  2
LTYPE
 70
     2
  0
LTYPE
  2
CONTINUOUS
 70
     0
  3
Solid line
 72
    65
 73
     0
 40
0.0
  0
LTYPE
  2
PHANTOM2
 70
     0
  3
___ _ _ ___ _ _ ___ _ _ ___ _ _
 72
    65
 73
     6
 40
1.25
 49
0.625
 49
-0.125
 49
0.125
 49
-0.125
 49
0.125
 49
-0.125
  0
ENDTAB
  0
TABLE
  2
LAYER
 70
     2
  0
LAYER
  2
0
 70
     0
 62
   255
  6
CONTINUOUS
  0
LAYER
  2
DEFPOINTS
 70
     0
 62
     7
  6
CONTINUOUS
  0
ENDTAB
  0
TABLE
  2
STYLE
 70
     1
  0
STYLE
  2
STANDARD
 70
     0
 40
0.0
 41
0.8
 50
0.0
 71
     0
 42
0.2
  3
txt
  4

  0
ENDTAB
  0
TABLE
  2
VIEW
 70
     0
  0
ENDTAB
  0
TABLE
  2
UCS
 70
     0
  0
ENDTAB
  0
TABLE
  2
APPID
 70
     9
  0
APPID
  2
ACAD
 70
     0
  0
APPID
  2
ACAD_MLEADERVER
 70
     0
  0
APPID
  2
ACAD_EXEMPT_FROM_CAD_STANDARDS
 70
     0
  0
APPID
  2
ACAD_NAV_VCDISPLAY
 70
     0
  0
APPID
  2
ACAECLAYERSTANDARD
 70
     0
  0
APPID
  2
ACCMTRANSPARENCY
 70
     0
  0
APPID
  2
ACAD_DSTYLE_DIMJAG
 70
     0
  0
APPID
  2
ACAD_DSTYLE_DIMTALN
 70
     0
  0
APPID
  2
ACDBATTR
 70
     0
  0
ENDTAB
  0
TABLE
  2
DIMSTYLE
 70
     1
  0
DIMSTYLE
  2
STANDARD
 70
     0
  3

  4

  5

  6

  7

 40
1.0
 41
0.1875
 42
0.0625
 43
0.38
 44
0.125
 45
0.0
 46
0.0
 47
0.01
 48
0.01
140
0.15625
141
0.09
142
0.0
143
25.3999999999999986
144
1.0
145
0.0
146
1.0
147
0.09
 71
     1
 72
     0
 73
     1
 74
     1
 75
     0
 76
     0
 77
     0
 78
     4
170
     0
171
     2
172
     0
173
     0
174
     0
175
     0
176
     0
177
     0
178
     0
  0
ENDTAB
  0
ENDSEC
  0
SECTION
  2
BLOCKS
  0
BLOCK
  8
0
  2
$MODEL_SPACE
 70
     0
 10
0.0
 20
0.0
 30
0.0
  3
$MODEL_SPACE
  1

  0
ENDBLK
  5
21
  8
0
  0
BLOCK
 67
     1
  8
0
  2
$PAPER_SPACE
 70
     0
 10
0.0
 20
0.0
 30
0.0
  3
$PAPER_SPACE
  1

  0
ENDBLK
  5
1D
 67
     1
  8
0
  0
ENDSEC
  0
SECTION
  2
ENTITIES
  0
ATTDEF
  5
3930
  8
DEFPOINTS
 10
3024.8152024485721086
 20
175.4033891431959091
 30
0.0
 40
0.001
  1
K-17890-RL
  3

  2
MODELNUMBER
 70
     0
1001
ACDBATTR
1070
     0
1070
     1
  0
ATTDEF
  5
3931
  8
DEFPOINTS
 10
3024.8152024485721086
 20
175.4017224765291871
 30
0.0
 40
0.001
  1
DERRING
  3

  2
TRADENAME
 70
     0
1001
ACDBATTR
1070
     0
1070
     1
  0
ATTDEF
  5
3932
  8
DEFPOINTS
 10
3024.8152024485721086
 20
175.4000558098624936
 30
0.0
 40
0.001
  1
BATHROOM SINK
  3

  2
PRODUCT
 70
     0
1001
ACDBATTR
1070
     0
1070
     1
  0
LINE
  5
6EA8
  8
0
 10
3033.4330165459900854
 20
176.2041774080736047
 30
0.0
 11
3016.205116565390199
 21
176.2041774080736047
 31
0.0
  0
ARC
  5
6EA9
  8
0
 10
3016.2166648773891211
 20
175.9314584052206953
 30
0.0
 40
0.2729634005266579
 50
92.4247466240385478
 51
112.2020583045289044
  0
ARC
  5
6EAA
  8
0
 10
3016.1524291742020978
 20
176.1218885892471064
 30
0.0
 40
0.073448269457759
 50
121.989356892123098
 51
177.2327070155741922
  0
ARC
  5
6EAB
  8
0
 10
3016.2263535969577788
 20
176.1347636032658102
 30
0.0
 40
0.1475821874076463
 50
183.6241955049625858
 51
219.8593530954692028
  0
ARC
  5
6EAC
  8
0
 10
3014.5466943061828715
 20
174.5352242524434132
 30
0.0
 40
2.17218922395501
 50
27.1222493969436087
 51
43.8543754194017623
  0
ARC
  5
6EAD
  8
0
 10
3016.58400829061884
 20
175.5854021425988947
 30
0.0
 40
0.1200047345448985
 50
209.9421022551009912
 51
269.9989615512162118
  0
LINE
  5
6EAE
  8
0
 10
3016.5840061156109186
 20
175.4653974080736987
 30
0.0
 11
3016.6016435071901469
 21
175.4653974080736987
 31
0.0
  0
LINE
  5
6EAF
  8
0
 10
3033.036489604191047
 20
175.4653974080736987
 30
0.0
 11
3033.0541269957698205
 21
175.4653974080736987
 31
0.0
  0
ARC
  5
6EB0
  8
0
 10
3016.6016435071901469
 20
175.3453974080736089
 30
0.0
 40
0.1200000000000232
 50
41.8103148957994932
 51
90.0
  0
ARC
  5
6EB1
  8
0
 10
3016.7369123714679517
 20
175.4678677838398926
 30
0.0
 40
0.0624801440423875
 50
222.8234824197481885
 51
268.9868325237438853
  0
LINE
  5
6EB2
  8
0
 10
3016.7358075858901429
 20
175.4053974080736111
 30
0.0
 11
3032.9023255254901414
 21
175.4053974080736111
 31
0.0
  0
ARC
  5
6EB3
  8
0
 10
3017.0760239425949294
 20
175.2795597846580904
 30
0.0
 40
0.1266115780598996
 50
56.0015918319128403
 51
83.6615925464021331
  0
LINE
  5
6EB4
  8
0
 10
3017.1468213222829036
 20
175.3845275069735976
 30
0.0
 11
3019.2035447312900942
 21
173.7233349490736032
 31
0.0
  0
ARC
  5
6EB5
  8
0
 10
3027.6629977380162018
 20
184.2674311045124966
 30
0.0
 40
13.5181473918633692
 50
231.2601770795018012
 51
243.5965023082167136
  0
ARC
  5
6EB6
  8
0
 10
3024.0464561532508014
 20
177.1676713818864926
 30
0.0
 40
5.5513694442142514
 50
244.4437804710534863
 51
260.6242265001965279
  0
ARC
  5
6EB7
  8
0
 10
3023.1045736075870991
 20
171.4432928200533013
 30
0.0
 40
0.249999999874765
 50
4.9999999871861514
 51
81.369445890340117
  0
LINE
  5
6EB8
  8
0
 10
3023.3536222819911927
 20
171.4650817556735944
 30
0.0
 11
3023.4541006746671883
 21
170.3166084723866902
 31
0.0
  0
ARC
  5
6EB9
  8
0
 10
3023.7031493491908805
 20
170.3383974080736039
 30
0.0
 40
0.2500000000000035
 50
185.0000000000021885
 51
270.0
  0
LINE
  5
6EBA
  8
0
 10
3023.7031493491908805
 20
170.0883974080736039
 30
0.0
 11
3025.9349837621912229
 21
170.0883974080736039
 31
0.0
  0
ARC
  5
6EBB
  8
0
 10
3033.4857039371790961
 20
176.1218885892471064
 30
0.0
 40
0.073448269457759
 50
2.7672929844257661
 51
58.010643107876902
  0
ARC
  5
6EBC
  8
0
 10
3033.4117795144229603
 20
176.1347636032658102
 30
0.0
 40
0.1475821874076463
 50
320.1406469045307972
 51
356.3758044950374142
  0
ARC
  5
6EBD
  8
0
 10
3035.0914388051969581
 20
174.5352242524434132
 30
0.0
 40
2.17218922395501
 50
136.1456245805981951
 51
152.8777506030563984
  0
ARC
  5
6EBE
  8
0
 10
3033.0541248207618992
 20
175.5854021425988947
 30
0.0
 40
0.1200047345449418
 50
270.0010384487839019
 51
330.057897744896195
  0
ARC
  5
6EBF
  8
0
 10
3033.036489604191047
 20
175.3453974080736089
 30
0.0
 40
0.1200000000000232
 50
90.0
 51
138.1896851042004926
  0
ARC
  5
6EC0
  8
0
 10
3032.9023255255410731
 20
175.4653974080738124
 30
0.0
 40
0.0600000000001506
 50
269.9999999522930807
 51
318.1896851042017147
  0
ARC
  5
6EC1
  8
0
 10
3032.5621092699348083
 20
175.279559586853992
 30
0.0
 40
0.1266117986095565
 50
96.3384951607944657
 51
123.9983960637692064
  0
LINE
  5
6EC2
  8
0
 10
3032.4913117890978356
 20
175.3845275069735976
 30
0.0
 11
3030.4345883800901902
 21
173.7233349490736032
 31
0.0
  0
ARC
  5
6EC3
  8
0
 10
3021.9751353733649921
 20
184.2674311045124966
 30
0.0
 40
13.5181473918633692
 50
296.4034976917832864
 51
308.7398229204982272
  0
ARC
  5
6EC4
  8
0
 10
3025.5916769581290282
 20
177.1676713818864926
 30
0.0
 40
5.5513694442142514
 50
279.3757734998034721
 51
295.5562195289463716
  0
ARC
  5
6EC5
  8
0
 10
3026.5335595037931853
 20
171.4432928200533013
 30
0.0
 40
0.249999999874765
 50
98.6305541096599114
 51
175.000000012813814
  0
LINE
  5
6EC6
  8
0
 10
3026.2845108293909107
 20
171.4650817556735944
 30
0.0
 11
3026.1840324367130961
 21
170.3166084723866902
 31
0.0
  0
ARC
  5
6EC7
  8
0
 10
3025.9349837621912229
 20
170.3383974080736039
 30
0.0
 40
0.2500000000000035
 50
270.0
 51
354.9999999999977831
  0
LINE
  5
6EC8
  8
0
 10
3023.1420892565911345
 20
171.6904619443735953
 30
0.0
 11
3026.4960438547900594
 21
171.6904619443735953
 31
0.0
  0
ARC
  5
6ECA
  8
0
 10
3033.4214682339929823
 20
175.9314584052206953
 30
0.0
 40
0.2729634005266579
 50
67.7979416954710956
 51
87.5752533759614522
  0
ENDSEC
  0
EOF
