  0
SECTION
  2
HEADER
  9
$ACADVER
  1
AC1009
  9
$INSBASE
 10
4350.1392552336192239
 20
80.0398517085985901
 30
0.0
  9
$EXTMIN
 10
4345.1935460671002147
 20
80.0378142832562247
 30
-0.0000000000112498
  9
$EXTMAX
 10
4352.1667836681453991
 20
86.7845451972962536
 30
0.0000000000002956
  9
$LIMMIN
 10
0.0
 20
0.0
  9
$LIMMAX
 10
11.6929133858000007
 20
8.2677165353999982
  9
$ORTHOMODE
 70
     0
  9
$REGENMODE
 70
     1
  9
$FILLMODE
 70
     1
  9
$QTEXTMODE
 70
     0
  9
$MIRRTEXT
 70
     0
  9
$DRAGMODE
 70
     2
  9
$LTSCALE
 40
0.6431102362
  9
$OSMODE
 70
  2039
  9
$ATTMODE
 70
     1
  9
$TEXTSIZE
 40
0.2
  9
$TRACEWID
 40
0.05
  9
$TEXTSTYLE
  7
STANDARD
  9
$CLAYER
  8
0
  9
$CELTYPE
  6
BYLAYER
  9
$CECOLOR
 62
   256
  9
$DIMSCALE
 40
1.0
  9
$DIMASZ
 40
0.1875
  9
$DIMEXO
 40
0.0625
  9
$DIMDLI
 40
0.4443307087
  9
$DIMRND
 40
0.0
  9
$DIMDLE
 40
0.0
  9
$DIMEXE
 40
0.125
  9
$DIMTP
 40
0.01
  9
$DIMTM
 40
0.01
  9
$DIMTXT
 40
2.0
  9
$DIMCEN
 40
0.1052362205
  9
$DIMTSZ
 40
0.0
  9
$DIMTOL
 70
     1
  9
$DIMLIM
 70
     0
  9
$DIMTIH
 70
     1
  9
$DIMTOH
 70
     1
  9
$DIMSE1
 70
     0
  9
$DIMSE2
 70
     0
  9
$DIMTAD
 70
     0
  9
$DIMZIN
 70
     0
  9
$DIMBLK
  1

  9
$DIMASO
 70
     1
  9
$DIMSHO
 70
     1
  9
$DIMPOST
  1
\X
  9
$DIMAPOST
  1

  9
$DIMALT
 70
     1
  9
$DIMALTD
 70
     2
  9
$DIMALTF
 40
25.3999999999999986
  9
$DIMLFAC
 40
1.0
  9
$DIMTOFL
 70
     0
  9
$DIMTVP
 40
0.0
  9
$DIMTIX
 70
     0
  9
$DIMSOXD
 70
     0
  9
$DIMSAH
 70
     0
  9
$DIMBLK1
  1

  9
$DIMBLK2
  1

  9
$DIMSTYLE
  2
STANDARD
  9
$DIMCLRD
 70
     0
  9
$DIMCLRE
 70
     0
  9
$DIMCLRT
 70
     0
  9
$DIMTFAC
 40
1.0
  9
$DIMGAP
 40
0.09
  9
$LUNITS
 70
     2
  9
$LUPREC
 70
     4
  9
$SKETCHINC
 40
0.1
  9
$FILLETRAD
 40
0.0
  9
$AUNITS
 70
     0
  9
$AUPREC
 70
     0
  9
$MENU
  1
.
  9
$ELEVATION
 40
0.0
  9
$PELEVATION
 40
0.0
  9
$THICKNESS
 40
0.0
  9
$LIMCHECK
 70
     0
  9
$BLIPMODE
 70
     0
  9
$CHAMFERA
 40
0.0
  9
$CHAMFERB
 40
0.0
  9
$SKPOLY
 70
     0
  9
$TDCREATE
 40
2458060.468368056230247
  9
$TDUPDATE
 40
2459160.7945254631340504
  9
$TDINDWG
 40
0.4395325231
  9
$TDUSRTIMER
 40
0.4395325231
  9
$USRTIMER
 70
     1
  9
$ANGBASE
 50
0.0
  9
$ANGDIR
 70
     0
  9
$PDMODE
 70
     0
  9
$PDSIZE
 40
0.3125
  9
$PLINEWID
 40
0.0
  9
$COORDS
 70
     1
  9
$SPLFRAME
 70
     0
  9
$SPLINETYPE
 70
     6
  9
$SPLINESEGS
 70
     8
  9
$ATTDIA
 70
     1
  9
$ATTREQ
 70
     1
  9
$HANDLING
 70
     1
  9
$HANDSEED
  5
12C06
  9
$SURFTAB1
 70
     6
  9
$SURFTAB2
 70
     6
  9
$SURFTYPE
 70
     6
  9
$SURFU
 70
     6
  9
$SURFV
 70
     6
  9
$UCSNAME
  2

  9
$UCSORG
 10
0.0
 20
0.0
 30
0.0
  9
$UCSXDIR
 10
1.0
 20
0.0
 30
0.0
  9
$UCSYDIR
 10
0.0
 20
1.0
 30
0.0
  9
$PUCSNAME
  2

  9
$PUCSORG
 10
0.0
 20
0.0
 30
0.0
  9
$PUCSXDIR
 10
1.0
 20
0.0
 30
0.0
  9
$PUCSYDIR
 10
0.0
 20
1.0
 30
0.0
  9
$USERI1
 70
     0
  9
$USERI2
 70
     0
  9
$USERI3
 70
     0
  9
$USERI4
 70
     0
  9
$USERI5
 70
     0
  9
$USERR1
 40
0.0
  9
$USERR2
 40
0.0
  9
$USERR3
 40
0.0
  9
$USERR4
 40
0.0
  9
$USERR5
 40
0.0
  9
$WORLDVIEW
 70
     1
  9
$SHADEDGE
 70
     3
  9
$SHADEDIF
 70
    70
  9
$TILEMODE
 70
     1
  9
$MAXACTVP
 70
    64
  9
$PLIMCHECK
 70
     0
  9
$PEXTMIN
 10
1.0000000000000000E+20
 20
1.0000000000000000E+20
 30
1.0000000000000000E+20
  9
$PEXTMAX
 10
-1.0000000000000000E+20
 20
-1.0000000000000000E+20
 30
-1.0000000000000000E+20
  9
$PLIMMIN
 10
0.0
 20
0.0
  9
$PLIMMAX
 10
12.0
 20
9.0
  9
$UNITMODE
 70
     0
  9
$VISRETAIN
 70
     1
  9
$PLINEGEN
 70
     0
  9
$PSLTSCALE
 70
     1
  0
ENDSEC
  0
SECTION
  2
TABLES
  0
TABLE
  2
VPORT
 70
     1
  0
VPORT
  2
*ACTIVE
 70
     0
 10
0.0
 20
0.0
 11
1.0
 21
1.0
 12
556.3222547113728069
 22
-36.7694766928292225
 13
0.0
 23
0.0
 14
1.0
 24
1.0
 15
0.0
 25
0.0
 16
0.0
 26
0.0
 36
5.1040778033513332
 17
3792.35791015625
 27
120.1806564331053977
 37
0.0
 40
6.8028756927976408
 41
2.6486111111111108
 42
50.0
 43
0.0
 44
0.0
 50
0.0
 51
0.0
 71
     0
 72
   100
 73
     1
 74
     1
 75
     0
 76
     0
 77
     0
 78
     0
  0
ENDTAB
  0
TABLE
  2
LTYPE
 70
     2
  0
LTYPE
  2
CONTINUOUS
 70
     0
  3
Solid line
 72
    65
 73
     0
 40
0.0
  0
LTYPE
  2
PHANTOM2
 70
     0
  3
___ _ _ ___ _ _ ___ _ _ ___ _ _
 72
    65
 73
     6
 40
1.25
 49
0.625
 49
-0.125
 49
0.125
 49
-0.125
 49
0.125
 49
-0.125
  0
ENDTAB
  0
TABLE
  2
LAYER
 70
     2
  0
LAYER
  2
0
 70
     0
 62
   255
  6
CONTINUOUS
  0
LAYER
  2
DEFPOINTS
 70
     0
 62
     7
  6
CONTINUOUS
  0
ENDTAB
  0
TABLE
  2
STYLE
 70
     1
  0
STYLE
  2
STANDARD
 70
     0
 40
0.0
 41
0.8
 50
0.0
 71
     0
 42
0.2
  3
txt
  4

  0
ENDTAB
  0
TABLE
  2
VIEW
 70
     0
  0
ENDTAB
  0
TABLE
  2
UCS
 70
     0
  0
ENDTAB
  0
TABLE
  2
APPID
 70
     9
  0
APPID
  2
ACAD
 70
     0
  0
APPID
  2
ACAD_MLEADERVER
 70
     0
  0
APPID
  2
ACAD_EXEMPT_FROM_CAD_STANDARDS
 70
     0
  0
APPID
  2
ACAD_NAV_VCDISPLAY
 70
     0
  0
APPID
  2
ACAECLAYERSTANDARD
 70
     0
  0
APPID
  2
ACCMTRANSPARENCY
 70
     0
  0
APPID
  2
ACAD_DSTYLE_DIMJAG
 70
     0
  0
APPID
  2
ACAD_DSTYLE_DIMTALN
 70
     0
  0
APPID
  2
ACDBATTR
 70
     0
  0
ENDTAB
  0
TABLE
  2
DIMSTYLE
 70
     1
  0
DIMSTYLE
  2
STANDARD
 70
     0
  3

  4

  5

  6

  7

 40
1.0
 41
0.1875
 42
0.0625
 43
0.38
 44
0.125
 45
0.0
 46
0.0
 47
0.01
 48
0.01
140
0.15625
141
0.09
142
0.0
143
25.3999999999999986
144
1.0
145
0.0
146
1.0
147
0.09
 71
     1
 72
     0
 73
     1
 74
     1
 75
     0
 76
     0
 77
     0
 78
     4
170
     0
171
     2
172
     0
173
     0
174
     0
175
     0
176
     0
177
     0
178
     0
  0
ENDTAB
  0
ENDSEC
  0
SECTION
  2
BLOCKS
  0
BLOCK
  8
0
  2
$MODEL_SPACE
 70
     0
 10
0.0
 20
0.0
 30
0.0
  3
$MODEL_SPACE
  1

  0
ENDBLK
  5
21
  8
0
  0
BLOCK
 67
     1
  8
0
  2
$PAPER_SPACE
 70
     0
 10
0.0
 20
0.0
 30
0.0
  3
$PAPER_SPACE
  1

  0
ENDBLK
  5
1D
 67
     1
  8
0
  0
BLOCK
  8
0
  2
_FILLED
 70
     0
 10
0.0
 20
0.0
 30
0.0
  3
_FILLED
  1

  0
SOLID
  5
69B4
  8
0
  6
BYBLOCK
 62
     0
 10
0.0
 20
0.0
 30
0.0
 11
-1.0
 21
0.1666666667
 31
0.0
 12
-1.0
 22
-0.1666666667
 32
0.0
 13
-1.0
 23
-0.1666666667
 33
0.0
  0
ENDBLK
  5
69B5
  8
0
  6
BYBLOCK
 62
     0
  0
BLOCK
  8
0
  2
A$CDFAF6206
 70
     0
 10
0.0
 20
0.0
 30
0.0
  3
A$CDFAF6206
  1

  0
LINE
  5
6A0E
  8
0
 10
7.4646650085734834
 20
10.9287685970688493
 30
0.0
 11
7.4646650085734896
 21
10.8905784766688498
 31
0.0
  0
ARC
  5
6A0F
  8
0
 10
7.7269027075262349
 20
10.8926811525838598
 30
0.0
 40
0.2622461286616791
 50
180.4593995232625048
 51
217.0214027758331099
  0
LINE
  5
6A10
  8
0
 10
9.767814609867095
 20
10.9287685970688493
 30
0.0
 11
9.767814609867095
 21
10.8905433757650094
 31
0.0
  0
ARC
  5
6A11
  8
0
 10
9.5068669568548287
 20
10.8922438613003703
 30
0.0
 40
0.2609531936261092
 50
322.8847083717149076
 51
359.6266329125650145
  0
LINE
  5
6A12
  8
0
 10
7.517522606271406
 20
10.7347792678688396
 30
0.0
 11
9.7149570120691777
 21
10.7347792678688396
 31
0.0
  0
LINE
  5
6A13
  8
0
 10
7.4646650085734834
 20
10.9287685970688493
 30
0.0
 11
9.7678146123202936
 21
10.9287685970688493
 31
0.0
  0
ARC
  5
6A14
  8
0
 10
4.0826771419203629
 20
8.527951346868889
 30
0.0
 40
4.0826771653999172
 50
13.3117747050523896
 51
32.7200330051415591
  0
ARC
  5
6A15
  8
0
 10
4.0826771460567306
 20
8.5279513475907933
 30
0.0
 40
4.0826771612084691
 50
359.6656501984817851
 51
13.3117747085593798
  0
ARC
  5
6A16
  8
0
 10
13.1498041284835097
 20
8.5279508235212234
 30
0.0
 40
4.0826788382043553
 50
147.2799733478981068
 51
166.6882233021349862
  0
ARC
  5
6A17
  8
0
 10
13.1498064934207992
 20
8.5279506557033251
 30
0.0
 40
4.0826811782395342
 50
166.688228652086309
 51
180.3343397625230011
  0
LINE
  5
6A18
  8
0
 10
8.1652847935202928
 20
8.504127000268852
 30
0.0
 11
9.0671948248202892
 21
8.5041270002687881
 31
0.0
  0
LINE
  5
6A19
  8
0
 10
8.1652847935202786
 20
8.5041270002667204
 30
0.0
 11
8.1652847935202928
 21
8.3607006934688481
 31
0.0
  0
ARC
  5
6A1A
  8
0
 10
5.6196779630382627
 20
8.3631022096452732
 30
0.0
 40
2.545607963272567
 50
342.0511668832173768
 51
359.945947387132378
  0
LINE
  5
6A1B
  8
0
 10
9.0671948248202892
 20
8.5041270002687881
 30
0.0
 11
9.0671948248202892
 21
8.2885990108688503
 31
0.0
  0
ARC
  5
6A1C
  8
0
 10
9.4521885297801163
 20
7.9614488056228501
 30
0.0
 40
0.5052201595850959
 50
139.6436242991769916
 51
174.6757930071850069
  0
ARC
  5
6A1D
  8
0
 10
9.9238413395551746
 20
8.1492417579399508
 30
0.0
 40
0.9848265662939324
 50
188.2263441834095943
 51
209.5593615864376034
  0
ARC
  5
6A1E
  8
0
 10
8.0788764238271256
 20
7.5665710856463297
 30
0.0
 40
0.0393715937169877
 50
162.1669117288323037
 51
227.2023190037006088
  0
ARC
  5
6A1F
  8
0
 10
8.7223682141740682
 20
8.2079667397440517
 30
0.0
 40
0.947895137885075
 50
225.0018610752970858
 51
261.4598823366255829
  0
ARC
  5
6A20
  8
0
 10
8.6645157662702701
 20
8.1695128573935332
 30
0.0
 40
0.9027466462812931
 50
264.7303071214498118
 51
281.8608311947915013
  0
ARC
  5
6A21
  8
0
 10
8.6645157662698935
 20
8.1695128573999671
 30
0.0
 40
0.9027466462876658
 50
299.1741886792128753
 51
299.1743179154552195
  0
ARC
  5
6A22
  8
0
 10
9.0843330931590316
 20
7.4150554710086141
 30
0.0
 40
0.0393703053609601
 50
251.9700352025496954
 51
252.4698971938937859
  0
ARC
  5
6A23
  8
0
 10
9.0843330931590316
 20
7.4150554710086141
 30
0.0
 40
0.0393703053609601
 50
297.2453716727138726
 51
6.8376113572703074
  0
LINE
  5
6A24
  8
0
 10
9.0671948248202892
 20
7.663402160468852
 30
0.0
 11
9.1234233799329516
 21
7.419742732911689
 31
0.0
  0
ARC
  5
6A25
  8
0
 10
8.8843741880892395
 20
9.8961379890094676
 30
0.0
 40
2.5255097382132701
 50
263.792800240752797
 51
274.9514951129821156
  0
ARC
  5
6A26
  8
0
 10
8.8258167405968848
 20
9.2763025889666508
 30
0.0
 40
1.9029970832759311
 50
246.0108363320686067
 51
263.5276935074397215
  0
ARC
  5
6A27
  8
0
 10
8.607491361665744
 20
8.3225444804829642
 30
0.0
 40
1.064510137163637
 50
283.1717405874071005
 51
297.7022170607311864
  0
LINE
  5
6A28
  8
0
 10
9.0671948248202892
 20
8.2885990108688503
 30
0.0
 11
26.2014378595979593
 21
8.2885990108689942
 31
0.0
  0
LINE
  5
6A29
  8
0
 10
26.2014378595979913
 20
7.6634021604689053
 30
0.0
 11
9.0671948248202892
 21
7.6634021604688618
 31
0.0
  0
LINE
  5
6A2A
  8
0
 10
27.8039676758446994
 20
10.9287685970690802
 30
0.0
 11
27.8039676758446888
 21
10.8905784766690807
 31
0.0
  0
ARC
  5
6A2B
  8
0
 10
27.5417299768919399
 20
10.8926811525840801
 30
0.0
 40
0.2622461286616791
 50
322.9785972241680838
 51
359.5406004767386889
  0
LINE
  5
6A2C
  8
0
 10
25.5008180745510913
 20
10.9287685970690305
 30
0.0
 11
25.5008180745510913
 21
10.8905433757651799
 31
0.0
  0
ARC
  5
6A2D
  8
0
 10
25.7617657275633505
 20
10.8922438613005497
 30
0.0
 40
0.2609531936261092
 50
180.3733670874362929
 51
217.1152916282862861
  0
LINE
  5
6A2E
  8
0
 10
27.7511100781467803
 20
10.7347792678690706
 30
0.0
 11
25.5536756723490015
 21
10.7347792678690208
 31
0.0
  0
LINE
  5
6A2F
  8
0
 10
27.8039676758446888
 20
10.9287685970686006
 30
0.0
 11
25.5008180745510806
 21
10.9287685970686006
 31
0.0
  0
ARC
  5
6A30
  8
0
 10
31.1859555424978616
 20
8.5279513468691981
 30
0.0
 40
4.0826771653999172
 50
147.2799669948597057
 51
166.6882252949490066
  0
ARC
  5
6A31
  8
0
 10
31.185955538361501
 20
8.5279513475911024
 30
0.0
 40
4.0826771612084691
 50
166.6882252914419098
 51
180.3343498015194086
  0
ARC
  5
6A32
  8
0
 10
22.1188285559344706
 20
8.5279508235212251
 30
0.0
 40
4.0826788382046102
 50
13.3117766978667795
 51
32.7200266521023977
  0
ARC
  5
6A33
  8
0
 10
22.1188261909974315
 20
8.5279506557034264
 30
0.0
 40
4.0826811782395342
 50
359.665660237478221
 51
13.31177134791497
  0
LINE
  5
6A34
  8
0
 10
27.1033478908979397
 20
8.5041270002690652
 30
0.0
 11
26.2014378595979416
 21
8.5041270002689835
 31
0.0
  0
LINE
  5
6A35
  8
0
 10
27.1033478908979504
 20
8.5041270002669354
 30
0.0
 11
27.1033478908979397
 21
8.3607006934690649
 31
0.0
  0
ARC
  5
6A36
  8
0
 10
29.6489547213799689
 20
8.3631022096455467
 30
0.0
 40
2.545607963272567
 50
180.0540526128687873
 51
197.9488331167837032
  0
LINE
  5
6A37
  8
0
 10
26.2014378595979416
 20
8.5041270002689835
 30
0.0
 11
26.2014378595979487
 21
8.2885990108690457
 31
0.0
  0
ARC
  5
6A38
  8
0
 10
25.8164441546381305
 20
7.9614488056230366
 30
0.0
 40
0.5052201595850959
 50
5.324206992816312
 51
40.3563757008241879
  0
ARC
  5
6A39
  8
0
 10
25.3447913448601803
 20
8.149241757940846
 30
0.0
 40
0.9848265662968968
 50
330.4406384136033807
 51
351.7736558165743759
  0
ARC
  5
6A3A
  8
0
 10
27.1897562605911212
 20
7.5665710856465473
 30
0.0
 40
0.0393715937169877
 50
312.7976809963004143
 51
17.8330882711689185
  0
ARC
  5
6A3B
  8
0
 10
26.5462644702441715
 20
8.2079667397442542
 30
0.0
 40
0.947895137885075
 50
278.5401176633754972
 51
314.9981389247041079
  0
ARC
  5
6A3C
  8
0
 10
26.6041169181479695
 20
8.1695128573937392
 30
0.0
 40
0.9027466462812931
 50
258.139168805210204
 51
275.2696928785518935
  0
ARC
  5
6A3D
  8
0
 10
26.6041169181483497
 20
8.1695128574001732
 30
0.0
 40
0.9027466462876658
 50
240.8256820845460027
 51
240.8258113207880058
  0
ARC
  5
6A3E
  8
0
 10
26.1842995912592293
 20
7.4150554710088086
 30
0.0
 40
0.0393703053609601
 50
287.5301028061073794
 51
288.0299647974517825
  0
ARC
  5
6A3F
  8
0
 10
26.1842995912592293
 20
7.4150554710088086
 30
0.0
 40
0.0393703053609601
 50
173.1623886427310026
 51
242.7546283272870085
  0
LINE
  5
6A40
  8
0
 10
26.2014378595981192
 20
7.6634021604690448
 30
0.0
 11
26.1452093044853093
 21
7.4197427329118826
 31
0.0
  0
ARC
  5
6A41
  8
0
 10
26.384258496328961
 20
9.8961379890096666
 30
0.0
 40
2.5255097382132701
 50
265.0485048870193054
 51
276.2071997592482262
  0
ARC
  5
6A42
  8
0
 10
26.4428159438213299
 20
9.2763025889668516
 30
0.0
 40
1.9029970832759311
 50
276.4723064925619838
 51
293.9891636679327007
  0
ARC
  5
6A43
  8
0
 10
26.6611413227524885
 20
8.3225444804831703
 30
0.0
 40
1.064510137163637
 50
242.2977829392704052
 51
256.8282594125943774
  0
LINE
  5
6A44
  8
0
 62
     4
 10
17.9031473532159602
 20
10.9287685970686006
 30
0.0
 11
24.6329820359843588
 21
20.0952817181593808
 31
0.0
  0
LINE
  5
6A45
  8
0
 62
     4
 10
17.9031473532159602
 20
-0.0000000300842942
 30
0.0
 11
22.3963351323106608
 21
4.993614497796286
 31
0.0
  0
ENDBLK
  5
6A49
  8
0
  0
ENDSEC
  0
SECTION
  2
ENTITIES
  0
ATTDEF
  5
3930
  8
DEFPOINTS
 10
4350.1411411416283954
 20
80.0439513756480778
 30
0.0
 40
0.001
  1
K-18000T
  3

  2
MODELNUMBER
 70
     0
1001
ACDBATTR
1070
     0
1070
     1
  0
ATTDEF
  5
3931
  8
DEFPOINTS
 10
4350.1411411416283954
 20
80.0422847089814127
 30
0.0
 40
0.001
  1
NATEO
  3

  2
TRADENAME
 70
     0
1001
ACDBATTR
1070
     0
1070
     1
  0
ATTDEF
  5
3932
  8
DEFPOINTS
 10
4350.1411411416283954
 20
80.0406180423147333
 30
0.0
 40
0.001
  1
BATHROOM SINK FAUCET
  3

  2
PRODUCT
 70
     0
1001
ACDBATTR
1070
     0
1070
     1
  0
ARC
  5
1275C
  8
0
 10
4346.0884312920679804
 20
86.5685527910853239
 30
0.0
 40
0.2489700360370713
 50
128.2084260059303915
 51
231.7836589714754041
  0
ARC
  5
1275D
  8
0
 10
4345.9754961597782312
 20
86.7217507816087618
 30
0.0
 40
0.0590464648933028
 50
89.9866742797045305
 51
134.0562490507581117
  0
ARC
  5
1275E
  8
0
 10
4345.9754607132535966
 20
86.4154463229102419
 30
0.0
 40
0.0590911172500732
 50
225.9969834409216105
 51
270.0107047849082846
  0
ARC
  5
1275F
  8
0
 10
4346.0828956894965813
 20
-83.6817432308110654
 30
0.0
 40
170.0381323707827903
 50
89.9638025984170326
 51
90.0361974015829531
  0
ARC
  5
12760
  8
0
 10
4346.0804009828543713
 20
-17669.4350901838515711
 30
0.0
 40
17756.215887738570018
 50
89.9996615376859097
 51
90.0003384626788687
  0
ARC
  5
12761
  8
0
 10
4347.0200315264610254
 20
77.0127959721424702
 30
0.0
 40
9.348195805774246
 50
86.609572440110199
 51
90.4413993670738421
  0
ARC
  5
12762
  8
0
 10
4347.3784231499248563
 20
82.6697176353840746
 30
0.0
 40
3.6800534229669659
 50
78.3021293070013655
 51
86.9710355161250703
  0
ARC
  5
12763
  8
0
 10
4347.7837095971963208
 20
84.6988670317324335
 30
0.0
 40
1.6109422100890589
 50
62.8621749853322029
 51
77.7848737663567249
  0
ARC
  5
12764
  8
0
 10
4347.9978890205893549
 20
85.1090609699259204
 30
0.0
 40
1.1482168865971061
 50
35.4081970135258572
 51
63.0367259657872268
  0
ARC
  5
12765
  8
0
 10
4348.0475912379288275
 20
85.1543290619397055
 30
0.0
 40
1.081509434428984
 50
18.2461768042323911
 51
34.9791711638701486
  0
ARC
  5
12766
  8
0
 10
4338.4851249640287278
 20
84.8552458778631831
 30
0.0
 40
10.6582457624021991
 50
359.5532131930481228
 51
1.3427284398895709
  0
ARC
  5
12767
  8
0
 10
4348.9719542937527876
 20
85.3544857827461385
 30
0.0
 40
0.1724345119405291
 50
15.9410225008573807
 51
53.4172317920226121
  0
ARC
  5
12768
  8
0
 10
4348.7152053209129008
 20
85.2495859247145944
 30
0.0
 40
0.4491473021959343
 50
341.2213157404705726
 51
19.8156445166290212
  0
ARC
  5
12769
  8
0
 10
4349.3531327590690125
 20
85.3422717400235626
 30
0.0
 40
0.2755905512000775
 50
153.9178045948002023
 51
223.6278944940879967
  0
LINE
  5
1276A
  8
0
 10
4349.1128781945062656
 20
85.453854364829283
 30
0.0
 11
4349.1599537071642771
 21
85.1868788916440423
 31
0.0
  0
ARC
  5
1276B
  8
0
 10
4349.0878596631446271
 20
85.311035309071201
 30
0.0
 40
0.0174252232812007
 50
18.2357137451517914
 51
63.6701136238098471
  0
ARC
  5
1276C
  8
0
 10
4349.0316563039996254
 20
85.2854674321978337
 30
0.0
 40
0.0790907493692634
 50
4.4832544152284024
 51
23.0924891637259897
  0
ARC
  5
1276D
  8
0
 10
4349.0951797234565674
 20
85.3223341688784274
 30
0.0
 40
0.0043378832819893
 50
84.5937565449520861
 51
156.6551056203680901
  0
ARC
  5
1276E
  8
0
 10
4349.1162049504036986
 20
85.3118689599128146
 30
0.0
 40
0.0278182234035954
 50
154.024164552576309
 51
181.7117141203301003
  0
ARC
  5
1276F
  8
0
 10
4349.1686559336094433
 20
85.3097175200229714
 30
0.0
 40
0.0802676559209153
 50
179.0573777837865066
 51
195.0836980576085864
  0
ARC
  5
12770
  8
0
 10
4349.144817541786324
 20
85.3020290640073284
 30
0.0
 40
0.0552632801012522
 50
193.8186182181636923
 51
210.225361569835286
  0
ARC
  5
12771
  8
0
 10
4349.0568410821797443
 20
85.2861867947567021
 30
0.0
 40
0.0539413195775386
 50
349.6960120369342917
 51
5.8126748723645161
  0
ARC
  5
12772
  8
0
 10
4349.1096261517568564
 20
85.2812425948065709
 30
0.0
 40
0.014394215204708
 50
209.2494652290407942
 51
239.7152209871460116
  0
ARC
  5
12773
  8
0
 10
4349.0945503954981177
 20
85.2790572832778935
 30
0.0
 40
0.0155672310459111
 50
326.721699618286209
 51
350.6877448111893045
  0
ARC
  5
12774
  8
0
 10
4349.1040553315588113
 20
85.2724440608365342
 30
0.0
 40
0.0040045208147729
 50
245.0667042000235085
 51
331.209442399539796
  0
ARC
  5
12775
  8
0
 10
4476.5312413315141384
 20
-1666.9518736219640687
 30
0.0
 40
1755.5059839679240667
 50
94.1986551113316466
 51
94.2291286874199017
  0
ARC
  5
12776
  8
0
 10
4347.8435266228561886
 20
86.2934820677659218
 30
0.0
 40
2.4559396048382238
 50
273.705373407108425
 51
288.810632287879514
  0
ARC
  5
12777
  8
0
 10
4348.27119424609009
 20
84.6554132968837223
 30
0.0
 40
0.8444535552854388
 50
334.4499558138728048
 51
0.7082785497625667
  0
ARC
  5
12778
  8
0
 10
4348.445319543126061
 20
84.6095280990751064
 30
0.0
 40
0.6684160906565018
 50
286.5235275059926039
 51
331.5598307068376016
  0
ARC
  5
12779
  8
0
 10
4353.7959647041925564
 20
-451.9617858305102231
 30
0.0
 40
535.7780604874642449
 50
90.7191742657343667
 51
90.8928985763449901
  0
ARC
  5
1277A
  8
0
 10
4346.1719847756194213
 20
83.4019180950460139
 30
0.0
 40
0.8520422332334266
 50
159.514417305245388
 51
199.1273616846883954
  0
ARC
  5
1277B
  8
0
 10
4345.4475580659327534
 20
83.6724819788998104
 30
0.0
 40
0.0787384044904982
 50
90.6050231760706737
 51
159.459602102360094
  0
ARC
  5
1277C
  8
0
 10
4345.5988586470530208
 20
82.8734071339154639
 30
0.0
 40
0.0157404667078235
 50
185.005748589089194
 51
253.0084121903340133
  0
ARC
  5
1277D
  8
0
 10
4346.2727943733107168
 20
82.6673722155620965
 30
0.0
 40
0.0157480314291309
 50
252.9999997867411139
 51
320.9486343706673779
  0
ARC
  5
1277E
  8
0
 10
4345.7526530841078056
 20
82.171252442361066
 30
0.0
 40
0.7920381940590659
 50
59.5195256018995522
 51
86.4804743783121097
  0
ARC
  5
1277F
  8
0
 10
4346.1671669566158016
 20
83.5270662273675839
 30
0.0
 40
0.7920381927704337
 50
239.5195255731231043
 51
266.480474418199492
  0
ARC
  5
12780
  8
0
 10
4346.992504574413033
 20
79.7507012942115239
 30
0.0
 40
2.8218459730668699
 50
61.7611327320486581
 51
86.0093996220430768
  0
ARC
  5
12781
  8
0
 10
4347.5583095252068233
 20
80.9390815500651257
 30
0.0
 40
1.5085441851002239
 50
359.6399107376295774
 51
59.3366250294577213
  0
ARC
  5
12782
  8
0
 10
4397.275208206854586
 20
83.1744547393163884
 30
0.0
 40
48.2606225087927783
 50
182.6660883538874032
 51
183.7240722290902966
  0
ARC
  5
12783
  8
0
 10
4312.0969663246560231
 20
82.3604622521759495
 30
0.0
 40
39.1339179470636225
 50
356.6004109828443234
 51
3.3772123826540601
  0
LINE
  5
12784
  8
0
 10
4349.1155832800677672
 20
84.6658519908235689
 30
0.0
 11
4351.1629218146690619
 21
84.6658159213235564
 31
0.0
  0
LINE
  5
12785
  8
0
 10
4351.0990321082481387
 20
85.2196856140273269
 30
0.0
 11
4350.1392355060688715
 21
84.7721257867235636
 31
0.0
  0
LINE
  5
12786
  8
0
 10
4350.1392355060688715
 20
84.7721257867235636
 30
0.0
 11
4349.1430466787269324
 21
84.7721347766235738
 31
0.0
  0
LINE
  5
12787
  8
0
 10
4349.3072377504759061
 20
84.7721333735288738
 30
0.0
 11
4349.292300438651182
 21
84.6658488774647253
 31
0.0
  0
LINE
  5
12788
  8
0
 10
4350.9201003158914318
 20
85.1362484754660045
 30
0.0
 11
4350.9862148622405584
 21
84.6658190345026043
 31
0.0
  0
ARC
  5
12789
  8
0
 10
4348.8787536061436185
 20
84.8690467826516937
 30
0.0
 40
2.2477954126156501
 50
8.9743523440564541
 51
30.9379218432777492
  0
ARC
  5
1278A
  8
0
 10
4350.1117545188899385
 20
85.6426526207488337
 30
0.0
 40
0.7930563823977684
 50
28.7957394208530815
 51
50.5496896950210086
  0
ARC
  5
1278B
  8
0
 10
4349.4997573967939388
 20
83.7414786749964435
 30
0.0
 40
2.7636652424804571
 50
71.2527810806653434
 51
76.6195389528323432
  0
ARC
  5
1278C
  8
0
 10
4349.9898318554260186
 20
85.1857552852933964
 30
0.0
 40
1.2385069305631959
 50
61.7729512455815097
 51
71.2478217454302012
  0
ARC
  5
1278D
  8
0
 10
4353.9194740929106047
 20
92.3336156678208368
 30
0.0
 40
6.9184035793252008
 50
241.0969061625249878
 51
241.475234598863409
  0
ARC
  5
1278E
  8
0
 10
4347.6199013253763042
 20
76.3426281984187227
 30
0.0
 40
10.3973558640804509
 50
75.976913491191155
 51
78.894037882062662
  0
ARC
  5
1278F
  8
0
 10
4346.6979247609997401
 20
71.4342812778998564
 30
0.0
 40
15.3914311757280498
 50
79.0457532773221629
 51
80.4599122098079533
  0
ARC
  5
12790
  8
0
 10
4347.3540654481821548
 20
75.2463071815963076
 30
0.0
 40
11.5233889514667993
 50
80.535836798758055
 51
83.4218752001036137
  0
ARC
  5
12791
  8
0
 10
4347.2527005390184058
 20
73.7489719206040064
 30
0.0
 40
13.0226714121477301
 50
83.7335245825398147
 51
87.4900828627983458
  0
ARC
  5
12792
  8
0
 10
4347.0739789164217655
 20
70.5057338029571525
 30
0.0
 40
16.2706657714875504
 50
87.3614761337191368
 51
88.3424096536536894
  0
ARC
  5
12793
  8
0
 10
4346.9429111229437694
 20
65.990325941600986
 30
0.0
 40
20.7879754571904591
 50
88.3413111096914463
 51
90.1654995229863658
  0
ARC
  5
12794
  8
0
 10
4370.863644145660146
 20
6658.39532475570104
 30
0.0
 40
6571.66086459559574
 50
269.7848384482583128
 51
269.7909203596943257
  0
LINE
  5
12795
  8
0
 10
4345.3669816290275776
 20
83.1227301633759907
 30
0.0
 11
4347.188884787868119
 21
82.5657056472235666
 31
0.0
  0
LINE
  5
12796
  8
0
 10
4345.5363613438694301
 20
83.070932765823585
 30
0.0
 11
4345.4926269898687679
 21
82.9278841396235862
 31
0.0
  0
LINE
  5
12797
  8
0
 10
4345.4926269898687679
 20
82.9278841396235862
 30
0.0
 11
4345.765409778969115
 21
82.844486071623578
 31
0.0
  0
LINE
  5
12798
  8
0
 10
4345.765409778969115
 20
82.844486071623578
 30
0.0
 11
4345.8012752686845488
 21
82.9617968016574139
 31
0.0
  0
LINE
  5
12799
  8
0
 10
4345.8012752686845488
 20
82.9617968016574139
 30
0.0
 11
4346.1544102620400736
 21
82.8538325994327067
 31
0.0
  0
LINE
  5
1279A
  8
0
 10
4346.1544102620400736
 20
82.8538325994327067
 30
0.0
 11
4346.1185447726693383
 21
82.7365218693235676
 31
0.0
  0
LINE
  5
1279B
  8
0
 10
4346.1185447726693383
 20
82.7365218693235676
 30
0.0
 11
4346.3913275617687759
 21
82.6531238013235736
 31
0.0
  0
LINE
  5
1279C
  8
0
 10
4346.3913275617687759
 20
82.6531238013235736
 30
0.0
 11
4346.4350619157667097
 21
82.796172427612504
 31
0.0
  0
LINE
  5
1279D
  8
0
 10
4345.4926269898687679
 20
82.9278841396235862
 30
0.0
 11
4345.529367060167715
 21
82.8884854097235859
 31
0.0
  0
LINE
  5
1279E
  8
0
 10
4345.529367060167715
 20
82.8884854097235859
 30
0.0
 11
4346.3388373970692555
 21
82.641005491923579
 31
0.0
  0
LINE
  5
1279F
  8
0
 10
4346.3388373970692555
 20
82.641005491923579
 30
0.0
 11
4346.3913275617687759
 21
82.6531238013235736
 31
0.0
  0
LINE
  5
127A0
  8
0
 10
4345.5942587900526632
 20
82.8583537752030708
 30
0.0
 11
4346.2681900944598965
 21
82.652312298226505
 31
0.0
  0
LINE
  5
127A1
  8
0
 10
4349.116491978367776
 20
80.039851708573579
 30
0.0
 11
4351.1620184888688527
 21
80.039851708623587
 31
0.0
  0
ARC
  5
127A2
  8
0
 10
4351.6609181101266586
 20
83.3707381230546503
 30
0.0
 40
0.1156806494262617
 50
185.0187499010274905
 51
201.9192157522186051
  0
ARC
  5
127A3
  8
0
 10
4351.5876688464313702
 20
83.3662487706844075
 30
0.0
 40
0.0423637305573941
 50
154.2563959486531076
 51
187.6378218384643048
  0
ARC
  5
127A4
  8
0
 10
4351.5635068549790958
 20
83.3771505420780841
 30
0.0
 40
0.0158791178437113
 50
90.1060461181391332
 51
151.8204627236785029
  0
ARC
  5
127A5
  8
0
 10
4351.5386226619339141
 20
82.892485871851818
 30
0.0
 40
0.5011604710933569
 50
84.3307012688893565
 51
87.1572782993043944
  0
ARC
  5
127A6
  8
0
 10
4351.4915213754620709
 20
82.3191340491221411
 30
0.0
 40
1.076405127259364
 50
78.5950134213549205
 51
84.8506767957168933
  0
ARC
  5
127A7
  8
0
 10
4351.5236624794852105
 20
82.4906176205031727
 30
0.0
 40
0.9019552101823446
 50
70.1427810761988155
 51
78.4423542113742087
  0
ARC
  5
127A8
  8
0
 10
4351.0902883905428098
 20
83.1497287668091474
 30
0.0
 40
0.4962656449685192
 50
356.7712223702521896
 51
20.9975502964002914
  0
ARC
  5
127A9
  8
0
 10
4350.5764188996899975
 20
83.1970693145014479
 30
0.0
 40
1.012151640299694
 50
337.8036183685944138
 51
355.7339539372927106
  0
ARC
  5
127AA
  8
0
 10
4332.9984308103103103
 20
89.398503159440935
 30
0.0
 40
19.6508698856321899
 50
339.5749065545314238
 51
340.4250934422291266
  0
ARC
  5
127AB
  8
0
 10
4351.9833277957131941
 20
83.2498041793102033
 30
0.0
 40
0.1099523571246402
 50
297.7643432093058209
 51
317.919410143767891
  0
ARC
  5
127AC
  8
0
 10
4352.0392956474652237
 20
83.2009810490480533
 30
0.0
 40
0.0357154459520423
 50
315.8790443039712272
 51
354.0842811273520852
  0
ARC
  5
127AD
  8
0
 10
4352.0588003301618301
 20
83.1967383455767049
 30
0.0
 40
0.0160304065309066
 50
2.0079492548037252
 51
51.1858982336667481
  0
ARC
  5
127AE
  8
0
 10
4351.5579028838128579
 20
82.5184033244373865
 30
0.0
 40
0.859246830441285
 50
53.5128033432651122
 51
55.2312861540091191
  0
ARC
  5
127AF
  8
0
 10
4351.4413617835443802
 20
82.3519707321024441
 30
0.0
 40
1.062424308841649
 50
55.1868895136809812
 51
61.4813352721601802
  0
ARC
  5
127B0
  8
0
 10
4351.5169038059639206
 20
82.4862168859353488
 30
0.0
 40
0.908403065730981
 50
61.6251873818450377
 51
69.8361191485427923
  0
ARC
  5
127B1
  8
0
 10
4352.3143120059548892
 20
82.6737052200871148
 30
0.0
 40
0.5545472548466371
 50
120.2976102449214011
 51
141.5518933604344056
  0
ARC
  5
127B2
  8
0
 10
4352.689996840393178
 20
82.4291010644761002
 30
0.0
 40
1.00175154449917
 50
143.9568668326745069
 51
162.1741696530692138
  0
ARC
  5
127B3
  8
0
 10
4377.7382180289177995
 20
73.1097873411909944
 30
0.0
 40
27.7264702727429899
 50
159.6852956951161104
 51
160.2920265747744963
  0
LINE
  5
127B4
  8
0
 10
4351.4138355295435758
 20
82.5406932839148055
 30
0.0
 11
4351.2295236571408168
 21
82.0341334191834761
 31
0.0
  0
LINE
  5
127B5
  8
0
 10
4351.6358638854680976
 20
82.4598815629235844
 30
0.0
 11
4351.2167385840157294
 21
81.3083442628961848
 31
0.0
  0
ARC
  5
127B7
  8
0
 10
4408.1261193575319339
 20
-10722.1148213631004182
 30
0.0
 40
10808.6486744214107603
 50
90.3243019552379849
 51
90.3259204903235684
  0
LINE
  5
127B8
  8
0
 10
4346.1903196255689181
 20
86.3563552066915179
 30
0.0
 11
4346.6426888603664338
 21
86.3589818547232255
 31
0.0
  0
ENDSEC
  0
EOF
