  0
SECTION
  2
HEADER
  9
$ACADVER
  1
AC1009
  9
$INSBASE
 10
684.371729215587834
 20
108.932283526561406
 30
0.0
  9
$EXTMIN
 10
681.5754557430469731
 20
104.8553217423022943
 30
-0.000000000000013
  9
$EXTMAX
 10
687.1712274616445484
 20
113.0142620363784971
 30
0.0000000000000023
  9
$LIMMIN
 10
0.0
 20
0.0
  9
$LIMMAX
 10
11.6929133858000007
 20
8.2677165353999982
  9
$ORTHOMODE
 70
     0
  9
$REGENMODE
 70
     1
  9
$FILLMODE
 70
     1
  9
$QTEXTMODE
 70
     0
  9
$MIRRTEXT
 70
     0
  9
$DRAGMODE
 70
     2
  9
$LTSCALE
 40
0.6431102362
  9
$OSMODE
 70
  4095
  9
$ATTMODE
 70
     1
  9
$TEXTSIZE
 40
0.2
  9
$TRACEWID
 40
0.05
  9
$TEXTSTYLE
  7
STANDARD
  9
$CLAYER
  8
0
  9
$CELTYPE
  6
BYLAYER
  9
$CECOLOR
 62
   256
  9
$DIMSCALE
 40
1.0
  9
$DIMASZ
 40
0.1875
  9
$DIMEXO
 40
0.0625
  9
$DIMDLI
 40
0.4443307087
  9
$DIMRND
 40
0.0
  9
$DIMDLE
 40
0.0
  9
$DIMEXE
 40
0.125
  9
$DIMTP
 40
0.01
  9
$DIMTM
 40
0.01
  9
$DIMTXT
 40
1.0
  9
$DIMCEN
 40
0.1052362205
  9
$DIMTSZ
 40
0.0
  9
$DIMTOL
 70
     1
  9
$DIMLIM
 70
     0
  9
$DIMTIH
 70
     0
  9
$DIMTOH
 70
     1
  9
$DIMSE1
 70
     0
  9
$DIMSE2
 70
     0
  9
$DIMTAD
 70
     0
  9
$DIMZIN
 70
     0
  9
$DIMBLK
  1

  9
$DIMASO
 70
     1
  9
$DIMSHO
 70
     1
  9
$DIMPOST
  1
\X
  9
$DIMAPOST
  1

  9
$DIMALT
 70
     1
  9
$DIMALTD
 70
     2
  9
$DIMALTF
 40
25.3999999999999986
  9
$DIMLFAC
 40
1.0
  9
$DIMTOFL
 70
     0
  9
$DIMTVP
 40
0.0
  9
$DIMTIX
 70
     0
  9
$DIMSOXD
 70
     0
  9
$DIMSAH
 70
     0
  9
$DIMBLK1
  1

  9
$DIMBLK2
  1

  9
$DIMSTYLE
  2
STANDARD
  9
$DIMCLRD
 70
     0
  9
$DIMCLRE
 70
     0
  9
$DIMCLRT
 70
     0
  9
$DIMTFAC
 40
1.0
  9
$DIMGAP
 40
0.09
  9
$LUNITS
 70
     2
  9
$LUPREC
 70
     4
  9
$SKETCHINC
 40
0.1
  9
$FILLETRAD
 40
0.0
  9
$AUNITS
 70
     0
  9
$AUPREC
 70
     0
  9
$MENU
  1
.
  9
$ELEVATION
 40
0.0
  9
$PELEVATION
 40
0.0
  9
$THICKNESS
 40
0.0
  9
$LIMCHECK
 70
     0
  9
$BLIPMODE
 70
     0
  9
$CHAMFERA
 40
0.0
  9
$CHAMFERB
 40
0.0
  9
$SKPOLY
 70
     0
  9
$TDCREATE
 40
2458172.5207638889551163
  9
$TDUPDATE
 40
2459104.4078819449059665
  9
$TDINDWG
 40
0.384132662
  9
$TDUSRTIMER
 40
0.384132662
  9
$USRTIMER
 70
     1
  9
$ANGBASE
 50
0.0
  9
$ANGDIR
 70
     0
  9
$PDMODE
 70
     0
  9
$PDSIZE
 40
0.3125
  9
$PLINEWID
 40
0.0
  9
$COORDS
 70
     1
  9
$SPLFRAME
 70
     0
  9
$SPLINETYPE
 70
     6
  9
$SPLINESEGS
 70
     8
  9
$ATTDIA
 70
     1
  9
$ATTREQ
 70
     1
  9
$HANDLING
 70
     1
  9
$HANDSEED
  5
BC29
  9
$SURFTAB1
 70
     6
  9
$SURFTAB2
 70
     6
  9
$SURFTYPE
 70
     6
  9
$SURFU
 70
     6
  9
$SURFV
 70
     6
  9
$UCSNAME
  2

  9
$UCSORG
 10
0.0
 20
0.0
 30
0.0
  9
$UCSXDIR
 10
1.0
 20
0.0
 30
0.0
  9
$UCSYDIR
 10
0.0
 20
1.0
 30
0.0
  9
$PUCSNAME
  2

  9
$PUCSORG
 10
0.0
 20
0.0
 30
0.0
  9
$PUCSXDIR
 10
1.0
 20
0.0
 30
0.0
  9
$PUCSYDIR
 10
0.0
 20
1.0
 30
0.0
  9
$USERI1
 70
     0
  9
$USERI2
 70
     0
  9
$USERI3
 70
     0
  9
$USERI4
 70
     0
  9
$USERI5
 70
     0
  9
$USERR1
 40
0.0
  9
$USERR2
 40
0.0
  9
$USERR3
 40
0.0
  9
$USERR4
 40
0.0
  9
$USERR5
 40
0.0
  9
$WORLDVIEW
 70
     1
  9
$SHADEDGE
 70
     3
  9
$SHADEDIF
 70
    70
  9
$TILEMODE
 70
     1
  9
$MAXACTVP
 70
    64
  9
$PLIMCHECK
 70
     0
  9
$PEXTMIN
 10
1.0000000000000000E+20
 20
1.0000000000000000E+20
 30
1.0000000000000000E+20
  9
$PEXTMAX
 10
-1.0000000000000000E+20
 20
-1.0000000000000000E+20
 30
-1.0000000000000000E+20
  9
$PLIMMIN
 10
0.0
 20
0.0
  9
$PLIMMAX
 10
12.0
 20
9.0
  9
$UNITMODE
 70
     0
  9
$VISRETAIN
 70
     1
  9
$PLINEGEN
 70
     0
  9
$PSLTSCALE
 70
     1
  0
ENDSEC
  0
SECTION
  2
TABLES
  0
TABLE
  2
VPORT
 70
     1
  0
VPORT
  2
*ACTIVE
 70
     0
 10
0.0
 20
0.0
 11
1.0
 21
1.0
 12
217.6311398945157123
 22
19.8016447694106397
 13
0.0
 23
0.0
 14
1.0
 24
1.0
 15
0.0
 25
0.0
 16
0.0
 26
0.0
 36
24.1179433675886514
 17
466.74220170783002
 27
89.133147119929788
 37
0.0
 40
8.2100401289034721
 41
2.005224660397074
 42
50.0
 43
0.0
 44
0.0
 50
0.0
 51
0.0
 71
     0
 72
   100
 73
     1
 74
     1
 75
     0
 76
     0
 77
     0
 78
     0
  0
ENDTAB
  0
TABLE
  2
LTYPE
 70
     2
  0
LTYPE
  2
CONTINUOUS
 70
     0
  3
Solid line
 72
    65
 73
     0
 40
0.0
  0
LTYPE
  2
PHANTOM2
 70
     0
  3
___ _ _ ___ _ _ ___ _ _ ___ _ _
 72
    65
 73
     6
 40
1.25
 49
0.625
 49
-0.125
 49
0.125
 49
-0.125
 49
0.125
 49
-0.125
  0
ENDTAB
  0
TABLE
  2
LAYER
 70
     2
  0
LAYER
  2
0
 70
     0
 62
   255
  6
CONTINUOUS
  0
LAYER
  2
DEFPOINTS
 70
     0
 62
     7
  6
CONTINUOUS
  0
ENDTAB
  0
TABLE
  2
STYLE
 70
     1
  0
STYLE
  2
STANDARD
 70
     0
 40
0.0
 41
0.8
 50
0.0
 71
     0
 42
0.2
  3
txt
  4

  0
ENDTAB
  0
TABLE
  2
VIEW
 70
     0
  0
ENDTAB
  0
TABLE
  2
UCS
 70
     0
  0
ENDTAB
  0
TABLE
  2
APPID
 70
    11
  0
APPID
  2
ACAD
 70
     0
  0
APPID
  2
ACAD_MLEADERVER
 70
     0
  0
APPID
  2
ACAD_EXEMPT_FROM_CAD_STANDARDS
 70
     0
  0
APPID
  2
ACAD_DSTYLE_DIMJAG
 70
     0
  0
APPID
  2
ACAD_DSTYLE_DIMTALN
 70
     0
  0
APPID
  2
ACAD_NAV_VCDISPLAY
 70
     0
  0
APPID
  2
ACAECLAYERSTANDARD
 70
     0
  0
APPID
  2
ACCMTRANSPARENCY
 70
     0
  0
APPID
  2
DCO15
 70
     0
  0
APPID
  2
ACDBATTR
 70
     0
  0
APPID
  2
ACADANNOTATIVE
 70
     0
  0
ENDTAB
  0
TABLE
  2
DIMSTYLE
 70
     1
  0
DIMSTYLE
  2
STANDARD
 70
     0
  3

  4

  5

  6

  7

 40
1.0
 41
0.1875
 42
0.0625
 43
0.38
 44
0.125
 45
0.0
 46
0.0
 47
0.01
 48
0.01
140
0.15625
141
0.09
142
0.0
143
25.3999999999999986
144
1.0
145
0.0
146
1.0
147
0.09
 71
     1
 72
     0
 73
     1
 74
     1
 75
     0
 76
     0
 77
     0
 78
     4
170
     0
171
     2
172
     0
173
     0
174
     0
175
     0
176
     0
177
     0
178
     0
  0
ENDTAB
  0
ENDSEC
  0
SECTION
  2
BLOCKS
  0
BLOCK
  8
0
  2
$MODEL_SPACE
 70
     0
 10
0.0
 20
0.0
 30
0.0
  3
$MODEL_SPACE
  1

  0
ENDBLK
  5
21
  8
0
  0
BLOCK
 67
     1
  8
0
  2
$PAPER_SPACE
 70
     0
 10
0.0
 20
0.0
 30
0.0
  3
$PAPER_SPACE
  1

  0
ENDBLK
  5
1D
 67
     1
  8
0
  0
ENDSEC
  0
SECTION
  2
ENTITIES
  0
ATTDEF
  5
829
  8
DEFPOINTS
 10
684.3686849183236518
 20
108.9369944891576978
 30
0.0
 40
0.001
  1
K-18019IN-4
  3

  2
MODELNUMBER
 70
     0
1001
ACDBATTR
1070
     0
1070
     1
  0
ATTDEF
  5
82A
  8
DEFPOINTS
 10
684.3686849183236518
 20
108.9353278224911037
 30
0.0
 40
0.001
  1
NATEO
  3

  2
TRADENAME
 70
     0
1001
ACDBATTR
1070
     0
1070
     1
  0
ATTDEF
  5
82B
  8
DEFPOINTS
 10
684.3686849183236518
 20
108.9336611558243959
 30
0.0
 40
0.001
  1
VALVE TRIM
  3

  2
PRODUCT
 70
     0
1001
ACDBATTR
1070
     0
1070
     1
  0
ARC
  5
BAD8
  8
0
 10
696.5534177617945488
 20
108.7504896882025065
 30
0.0
 40
14.93870025275708
 50
178.3605121591540978
 51
179.3027320577299122
  0
ARC
  5
BAD9
  8
0
 10
687.5555272410513226
 20
108.9356176363422009
 30
0.0
 40
5.939637602142521
 50
170.9271924471808859
 51
177.6622685850122991
  0
ARC
  5
BADA
  8
0
 10
687.151804112987179
 20
109.0000870974008933
 30
0.0
 40
5.5307993999854217
 50
159.6698262876525121
 51
170.9271924471808859
  0
ARC
  5
BADB
  8
0
 10
685.8694074003977903
 20
109.4752279556914942
 30
0.0
 40
4.1632102205616031
 50
141.2133643485421999
 51
159.6698262876525121
  0
ARC
  5
BADC
  8
0
 10
684.7622207245749451
 20
110.3650037769136958
 30
0.0
 40
2.7428006503490741
 50
120.2068787552152003
 51
141.2133643485421999
  0
ARC
  5
BADD
  8
0
 10
684.3953254515548679
 20
110.9952189241893024
 30
0.0
 40
2.0135659328403599
 50
104.2618588333741059
 51
120.2068787552152003
  0
ARC
  5
BADE
  8
0
 10
684.3909653501249295
 20
111.0123719829946936
 30
0.0
 40
1.9958674043460829
 50
94.884131605871417
 51
104.2618588333741059
  0
ARC
  5
BADF
  8
0
 10
684.4132317228594502
 20
110.1147709521004998
 30
0.0
 40
2.8926134732656799
 50
90.8220939717786422
 51
93.8097608197406458
  0
ARC
  5
BAE0
  8
0
 10
696.5534177617945488
 20
109.114077364920206
 30
0.0
 40
14.93870025275708
 50
180.6972679422700878
 51
181.6394878408449927
  0
ARC
  5
BAE1
  8
0
 10
687.5555272410513226
 20
108.9289494167804975
 30
0.0
 40
5.939637602142521
 50
182.3377314149877009
 51
189.0728075528191141
  0
ARC
  5
BAE2
  8
0
 10
687.151804112987179
 20
108.8644799557219045
 30
0.0
 40
5.5307993999854217
 50
189.0728075528191141
 51
200.3301737123474879
  0
ARC
  5
BAE3
  8
0
 10
685.8694074003977903
 20
108.3893390974313036
 30
0.0
 40
4.1632102205616031
 50
200.3301737123474879
 51
218.7866356514578001
  0
ARC
  5
BAE4
  8
0
 10
684.7622207245749451
 20
107.499563276209102
 30
0.0
 40
2.7428006503490741
 50
218.7866356514578001
 51
239.7931212447847997
  0
ARC
  5
BAE5
  8
0
 10
684.3953254515548679
 20
106.8693481289334954
 30
0.0
 40
2.0135659328403599
 50
239.7931212447847997
 51
255.7381411666258941
  0
ARC
  5
BAE6
  8
0
 10
684.3909653501249295
 20
106.8521950701281042
 30
0.0
 40
1.9958674043460829
 50
255.7381411666258941
 51
264.8027822805960909
  0
ARC
  5
BAE7
  8
0
 10
672.1900406693811192
 20
108.7504896882025065
 30
0.0
 40
14.93870025275708
 50
0.6972679422701387
 51
1.639487840845846
  0
ARC
  5
BAE8
  8
0
 10
681.1879311901243454
 20
108.9356176363422009
 30
0.0
 40
5.939637602142521
 50
2.3377314149877062
 51
9.0728075528191177
  0
ARC
  5
BAE9
  8
0
 10
681.5916543181883753
 20
109.0000870974008933
 30
0.0
 40
5.5307993999854217
 50
9.0728075528191177
 51
20.3301737123475199
  0
ARC
  5
BAEA
  8
0
 10
682.874051030777764
 20
109.4752279556914942
 30
0.0
 40
4.1632102205616031
 50
20.3301737123475199
 51
38.7866356514578214
  0
ARC
  5
BAEB
  8
0
 10
683.9812377066006093
 20
110.3650037769136958
 30
0.0
 40
2.7428006503490741
 50
38.7866356514578214
 51
59.7931212447847713
  0
ARC
  5
BAEC
  8
0
 10
684.3481329796205728
 20
110.9952189241893024
 30
0.0
 40
2.0135659328403599
 50
59.7931212447847713
 51
75.7381411666259083
  0
ARC
  5
BAED
  8
0
 10
684.3524930810508522
 20
111.0123719829946936
 30
0.0
 40
1.9958674043460829
 50
75.7381411666259083
 51
85.1158683941285545
  0
ARC
  5
BAEE
  8
0
 10
684.3302267083161041
 20
110.1147709521004998
 30
0.0
 40
2.8926134732656799
 50
86.1902391802593542
 51
89.1779060282213436
  0
ARC
  5
BAEF
  8
0
 10
672.1900406693811192
 20
109.114077364920206
 30
0.0
 40
14.93870025275708
 50
358.3605121591542115
 51
359.3027320577298838
  0
ARC
  5
BAF0
  8
0
 10
681.1879311901243454
 20
108.9289494167804975
 30
0.0
 40
5.939637602142521
 50
350.9271924471809143
 51
357.6622685850123275
  0
ARC
  5
BAF1
  8
0
 10
681.5916543181883753
 20
108.8644799557219045
 30
0.0
 40
5.5307993999854217
 50
339.6698262876524836
 51
350.9271924471809143
  0
ARC
  5
BAF2
  8
0
 10
682.874051030777764
 20
108.3893390974313036
 30
0.0
 40
4.1632102205616031
 50
321.2133643485420862
 51
339.6698262876524836
  0
ARC
  5
BAF3
  8
0
 10
683.9812377066006093
 20
107.499563276209102
 30
0.0
 40
2.7428006503490741
 50
300.206878755215314
 51
321.2133643485420862
  0
ARC
  5
BAF4
  8
0
 10
684.3481329796205728
 20
106.8693481289334954
 30
0.0
 40
2.0135659328403599
 50
284.2618588333741059
 51
300.206878755215314
  0
ARC
  5
BAF5
  8
0
 10
684.3524930810508522
 20
106.8521950701281042
 30
0.0
 40
1.9958674043460829
 50
275.1972176674971138
 51
284.2618588333741059
  0
ARC
  5
BAF6
  8
0
 10
684.3717302546466499
 20
106.7237424997641995
 30
0.0
 40
1.8621376869102451
 50
265.1486904066483135
 51
274.8512458992183269
  0
LINE
  5
BAF7
  8
0
 10
684.5292095304895383
 20
104.8682757006294963
 30
0.0
 11
684.5332871712707856
 21
104.8645330785730039
 31
0.0
  0
LINE
  5
BAF8
  8
0
 10
684.2142489161325329
 20
104.8682758756959998
 30
0.0
 11
684.2101712581040829
 21
104.8645330787367982
 31
0.0
  0
ARC
  5
BAF9
  8
0
 10
684.371729215587834
 20
109.9952756525793944
 30
0.0
 40
0.9645669290982548
 50
317.6163742429530998
 51
222.3836272414336008
  0
ARC
  5
BAFA
  8
0
 10
684.371729215587834
 20
109.9952756525793944
 30
0.0
 40
0.9597771687985251
 50
318.0911254622213278
 51
221.9088760596656016
  0
ARC
  5
BAFB
  8
0
 10
684.371729215587834
 20
109.9952756525793944
 30
0.0
 40
0.9842519684500118
 50
315.7987894490931922
 51
224.2012119026555865
  0
LINE
  5
BAFC
  8
0
 10
683.7693194969591559
 20
105.990059401106393
 30
0.0
 11
683.7682107807863758
 21
107.1404988457333047
 31
0.0
  0
ARC
  5
BAFD
  8
0
 10
684.3837885715163338
 20
106.531940976097502
 30
0.0
 40
0.8369166616660242
 50
242.2894612204507894
 51
269.1743802920577764
  0
ARC
  5
BAFE
  8
0
 10
684.387200640381252
 20
106.536400957615399
 30
0.0
 40
0.8424522802501746
 50
224.4750904664782922
 51
242.2250673722363103
  0
ARC
  5
BAFF
  8
0
 10
683.8279398947757954
 20
105.9872946892613044
 30
0.0
 40
0.0586855576080354
 50
177.2997619844207122
 51
224.4750904664782922
  0
ARC
  5
BB00
  8
0
 10
683.5027058668896416
 20
109.6167657978345034
 30
0.0
 40
0.036065508510939
 50
81.023040846985495
 51
131.7759974411648898
  0
ARC
  5
BB01
  8
0
 10
683.4857724937321564
 20
109.5620277649938998
 30
0.0
 40
0.0931356393962623
 50
27.2564020498010606
 51
75.981367930420987
  0
ARC
  5
BB02
  8
0
 10
682.8148408182252069
 20
109.1962610360218946
 30
0.0
 40
0.8572690414061149
 50
12.0445268565509895
 51
28.4518649300031115
  0
ARC
  5
BB03
  8
0
 10
679.9177065149973487
 20
108.6123782020489017
 30
0.0
 40
3.8126122825370592
 50
2.4574407864724388
 51
11.54076651438697
  0
ARC
  5
BB04
  8
0
 10
643.0303070672596277
 20
106.9075364682736051
 30
0.0
 40
40.7393686873406367
 50
1.470246160966622
 51
2.6285186630565018
  0
ARC
  5
BB05
  8
0
 10
643.8180518236015359
 20
106.9591866774810995
 30
0.0
 40
39.9505703940094321
 50
0.2600327748770008
 51
1.425182641210621
  0
LINE
  5
BB06
  8
0
 10
684.9741389367799229
 20
105.9900593992674942
 30
0.0
 11
684.9752476564641483
 21
107.1404988438909953
 31
0.0
  0
ARC
  5
BB07
  8
0
 10
684.3596698666137854
 20
106.5319409690005017
 30
0.0
 40
0.8369166540776193
 50
270.8256173771819135
 51
297.7105386658661814
  0
ARC
  5
BB08
  8
0
 10
684.3562577950253853
 20
106.5364009576627069
 30
0.0
 40
0.8424522802501746
 50
297.7749324528709849
 51
315.5249093586257914
  0
ARC
  5
BB09
  8
0
 10
684.9155185389547569
 20
105.987294687601306
 30
0.0
 40
0.0586855576080354
 50
315.5249093586264166
 51
2.7002378406814849
  0
ARC
  5
BB0A
  8
0
 10
685.2407525779201478
 20
109.6167657951818057
 30
0.0
 40
0.036065508510939
 50
48.2240023839416665
 51
98.9769589781202228
  0
ARC
  5
BB0B
  8
0
 10
685.257685950910286
 20
109.5620277622895031
 30
0.0
 40
0.0931356393962623
 50
104.0186318946797996
 51
152.7435977753006
  0
ARC
  5
BB0C
  8
0
 10
685.9286176253008307
 20
109.1962610312694011
 30
0.0
 40
0.8572690414061149
 50
151.5481348950995084
 51
167.9554729685517884
  0
ARC
  5
BB0D
  8
0
 10
688.8257519267463067
 20
108.6123781884528938
 30
0.0
 40
3.8126122825370592
 50
168.4592333107156037
 51
177.5425590386296051
  0
ARC
  5
BB0E
  8
0
 10
725.7131513692800127
 20
106.9075363420776057
 30
0.0
 40
40.7393686873406367
 50
177.3714811620459955
 51
178.5297536641363081
  0
ARC
  5
BB0F
  8
0
 10
724.9254066130957881
 20
106.9591865536897046
 30
0.0
 40
39.9505703940094321
 50
178.574817183891696
 51
179.739967050226312
  0
ARC
  5
BB10
  8
0
 10
684.3321471834067324
 20
106.8433231119146001
 30
0.0
 40
1.050272673925823
 50
238.6715244255429127
 51
265.8490608036116214
  0
ARC
  5
BB11
  8
0
 10
684.3961083440890434
 20
107.5753171497521947
 30
0.0
 40
1.7850090637792819
 50
265.5021215529113761
 51
269.2174467744437152
  0
ARC
  5
BB12
  8
0
 10
684.4113112477689356
 20
106.8433231119146001
 30
0.0
 40
1.050272673925823
 50
274.1509391963883786
 51
301.328475574457002
  0
ARC
  5
BB13
  8
0
 10
684.3473500870865109
 20
107.5753171497521947
 30
0.0
 40
1.7850090637792819
 50
270.7825532255562848
 51
274.4978784470886239
  0
ARC
  5
BB15
  8
0
 10
684.3746953031311477
 20
108.668578727854495
 30
0.0
 40
1.8031157154193149
 50
90.0942503984009875
 51
99.0000061864376448
  0
ARC
  5
BB16
  8
0
 10
684.2005154306324357
 20
109.7683063931569052
 30
0.0
 40
0.6896797873951522
 50
99.0000061864374885
 51
112.2188585777830951
  0
ARC
  5
BB17
  8
0
 10
684.1247274093866508
 20
110.0167438785098
 30
0.0
 40
0.4316865885529985
 50
115.3773384815222016
 51
146.7321182329343117
  0
ARC
  5
BB18
  8
0
 10
684.2518901886711546
 20
109.9397062483855052
 30
0.0
 40
0.5802932124583132
 50
147.2597071564416069
 51
167.9961887412993917
  0
ARC
  5
BB19
  8
0
 10
685.022981697777368
 20
109.7697503251023932
 30
0.0
 40
1.3698833165152069
 50
167.7506518495409864
 51
183.4882658098590014
  0
ARC
  5
BB1A
  8
0
 10
615.5463191543342418
 20
102.6796799672750069
 30
0.0
 40
68.4687756120809041
 50
5.4981706223951141
 51
5.8736198983313272
  0
ARC
  5
BB1B
  8
0
 10
677.7540394708255462
 20
108.6647244489439004
 30
0.0
 40
5.9738067691334029
 50
1.065910750950912
 51
5.525600032326297
  0
ARC
  5
BB1C
  8
0
 10
684.3687631280445203
 20
108.668578727854495
 30
0.0
 40
1.8031157154193149
 50
80.9999938135623836
 51
89.9057496015990267
  0
ARC
  5
BB1D
  8
0
 10
684.5429430005432323
 20
109.7683063931569052
 30
0.0
 40
0.6896797873951522
 50
67.7811414222169333
 51
80.9999938135625115
  0
ARC
  5
BB1E
  8
0
 10
684.6187310217890172
 20
110.0167438785098
 30
0.0
 40
0.4316865885529985
 50
33.2678817670657097
 51
64.6226615184777273
  0
ARC
  5
BB1F
  8
0
 10
684.491568242504286
 20
109.9397062483855052
 30
0.0
 40
0.5802932124583132
 50
12.0038112587005799
 51
32.7402928435583433
  0
ARC
  5
BB20
  8
0
 10
683.7204767333981863
 20
109.7697503251023932
 30
0.0
 40
1.3698833165152069
 50
356.5117341901408849
 51
12.2493481504589798
  0
ARC
  5
BB21
  8
0
 10
753.1971392768414262
 20
102.6796799672750069
 30
0.0
 40
68.4687756120809041
 50
174.1263801016687012
 51
174.5018293776047926
  0
ARC
  5
BB22
  8
0
 10
690.989411650303623
 20
108.6647250127918056
 30
0.0
 40
5.9737994387615023
 50
174.474398599393993
 51
178.9340933688712028
  0
ENDSEC
  0
EOF
