  0
SECTION
  2
HEADER
  9
$ACADVER
  1
AC1009
  9
$INSBASE
 10
3812.7629252557921973
 20
127.6500620848457004
 30
0.0
  9
$EXTMIN
 10
3811.5901959420239109
 20
121.9844913740231931
 30
0.0
  9
$EXTMAX
 10
3814.5215427198090765
 20
128.8237603740232089
 30
0.0
  9
$LIMMIN
 10
0.0
 20
0.0
  9
$LIMMAX
 10
11.6929133858000007
 20
8.2677165353999982
  9
$ORTHOMODE
 70
     0
  9
$REGENMODE
 70
     1
  9
$FILLMODE
 70
     1
  9
$QTEXTMODE
 70
     0
  9
$MIRRTEXT
 70
     0
  9
$DRAGMODE
 70
     2
  9
$LTSCALE
 40
0.6431102362
  9
$OSMODE
 70
  4095
  9
$ATTMODE
 70
     1
  9
$TEXTSIZE
 40
0.2
  9
$TRACEWID
 40
0.05
  9
$TEXTSTYLE
  7
STANDARD
  9
$CLAYER
  8
0
  9
$CELTYPE
  6
BYLAYER
  9
$CECOLOR
 62
   256
  9
$DIMSCALE
 40
1.0
  9
$DIMASZ
 40
0.1875
  9
$DIMEXO
 40
0.0625
  9
$DIMDLI
 40
0.4443307087
  9
$DIMRND
 40
0.0
  9
$DIMDLE
 40
0.0
  9
$DIMEXE
 40
0.125
  9
$DIMTP
 40
0.01
  9
$DIMTM
 40
0.01
  9
$DIMTXT
 40
2.0
  9
$DIMCEN
 40
0.1052362205
  9
$DIMTSZ
 40
0.0
  9
$DIMTOL
 70
     1
  9
$DIMLIM
 70
     0
  9
$DIMTIH
 70
     1
  9
$DIMTOH
 70
     1
  9
$DIMSE1
 70
     0
  9
$DIMSE2
 70
     0
  9
$DIMTAD
 70
     0
  9
$DIMZIN
 70
     0
  9
$DIMBLK
  1

  9
$DIMASO
 70
     1
  9
$DIMSHO
 70
     1
  9
$DIMPOST
  1
\X
  9
$DIMAPOST
  1

  9
$DIMALT
 70
     1
  9
$DIMALTD
 70
     2
  9
$DIMALTF
 40
25.3999999999999986
  9
$DIMLFAC
 40
1.0
  9
$DIMTOFL
 70
     0
  9
$DIMTVP
 40
0.0
  9
$DIMTIX
 70
     0
  9
$DIMSOXD
 70
     0
  9
$DIMSAH
 70
     0
  9
$DIMBLK1
  1

  9
$DIMBLK2
  1

  9
$DIMSTYLE
  2
STANDARD
  9
$DIMCLRD
 70
     0
  9
$DIMCLRE
 70
     0
  9
$DIMCLRT
 70
     0
  9
$DIMTFAC
 40
1.0
  9
$DIMGAP
 40
0.09
  9
$LUNITS
 70
     2
  9
$LUPREC
 70
     4
  9
$SKETCHINC
 40
0.1
  9
$FILLETRAD
 40
0.0
  9
$AUNITS
 70
     0
  9
$AUPREC
 70
     0
  9
$MENU
  1
.
  9
$ELEVATION
 40
0.0
  9
$PELEVATION
 40
0.0
  9
$THICKNESS
 40
0.0
  9
$LIMCHECK
 70
     0
  9
$BLIPMODE
 70
     0
  9
$CHAMFERA
 40
0.0
  9
$CHAMFERB
 40
0.0
  9
$SKPOLY
 70
     0
  9
$TDCREATE
 40
2458060.468368056230247
  9
$TDUPDATE
 40
2459165.5201736111193895
  9
$TDINDWG
 40
0.3112802083
  9
$TDUSRTIMER
 40
0.3112802083
  9
$USRTIMER
 70
     1
  9
$ANGBASE
 50
0.0
  9
$ANGDIR
 70
     0
  9
$PDMODE
 70
     0
  9
$PDSIZE
 40
0.3125
  9
$PLINEWID
 40
0.0
  9
$COORDS
 70
     1
  9
$SPLFRAME
 70
     0
  9
$SPLINETYPE
 70
     6
  9
$SPLINESEGS
 70
     8
  9
$ATTDIA
 70
     1
  9
$ATTREQ
 70
     1
  9
$HANDLING
 70
     1
  9
$HANDSEED
  5
6D58
  9
$SURFTAB1
 70
     6
  9
$SURFTAB2
 70
     6
  9
$SURFTYPE
 70
     6
  9
$SURFU
 70
     6
  9
$SURFV
 70
     6
  9
$UCSNAME
  2

  9
$UCSORG
 10
0.0
 20
0.0
 30
0.0
  9
$UCSXDIR
 10
1.0
 20
0.0
 30
0.0
  9
$UCSYDIR
 10
0.0
 20
1.0
 30
0.0
  9
$PUCSNAME
  2

  9
$PUCSORG
 10
0.0
 20
0.0
 30
0.0
  9
$PUCSXDIR
 10
1.0
 20
0.0
 30
0.0
  9
$PUCSYDIR
 10
0.0
 20
1.0
 30
0.0
  9
$USERI1
 70
     0
  9
$USERI2
 70
     0
  9
$USERI3
 70
     0
  9
$USERI4
 70
     0
  9
$USERI5
 70
     0
  9
$USERR1
 40
0.0
  9
$USERR2
 40
0.0
  9
$USERR3
 40
0.0
  9
$USERR4
 40
0.0
  9
$USERR5
 40
0.0
  9
$WORLDVIEW
 70
     1
  9
$SHADEDGE
 70
     3
  9
$SHADEDIF
 70
    70
  9
$TILEMODE
 70
     1
  9
$MAXACTVP
 70
    64
  9
$PLIMCHECK
 70
     0
  9
$PEXTMIN
 10
1.0000000000000000E+20
 20
1.0000000000000000E+20
 30
1.0000000000000000E+20
  9
$PEXTMAX
 10
-1.0000000000000000E+20
 20
-1.0000000000000000E+20
 30
-1.0000000000000000E+20
  9
$PLIMMIN
 10
0.0
 20
0.0
  9
$PLIMMAX
 10
12.0
 20
9.0
  9
$UNITMODE
 70
     0
  9
$VISRETAIN
 70
     1
  9
$PLINEGEN
 70
     0
  9
$PSLTSCALE
 70
     1
  0
ENDSEC
  0
SECTION
  2
TABLES
  0
TABLE
  2
VPORT
 70
     1
  0
VPORT
  2
*ACTIVE
 70
     0
 10
0.0
 20
0.0
 11
1.0
 21
1.0
 12
9.5118019481039937
 22
-0.5911363227266478
 13
0.0
 23
0.0
 14
1.0
 24
1.0
 15
0.0
 25
0.0
 16
0.0
 26
0.0
 36
17.1152628219792007
 17
3803.5440673828129547
 27
125.9952621967499056
 37
0.0
 40
6.9263934458598602
 41
2.8872340425531919
 42
50.0
 43
0.0
 44
0.0
 50
0.0
 51
0.0
 71
     0
 72
   100
 73
     1
 74
     1
 75
     0
 76
     0
 77
     0
 78
     0
  0
ENDTAB
  0
TABLE
  2
LTYPE
 70
     2
  0
LTYPE
  2
CONTINUOUS
 70
     0
  3
Solid line
 72
    65
 73
     0
 40
0.0
  0
LTYPE
  2
PHANTOM2
 70
     0
  3
___ _ _ ___ _ _ ___ _ _ ___ _ _
 72
    65
 73
     6
 40
1.25
 49
0.625
 49
-0.125
 49
0.125
 49
-0.125
 49
0.125
 49
-0.125
  0
ENDTAB
  0
TABLE
  2
LAYER
 70
     2
  0
LAYER
  2
0
 70
     0
 62
   255
  6
CONTINUOUS
  0
LAYER
  2
DEFPOINTS
 70
     0
 62
     7
  6
CONTINUOUS
  0
ENDTAB
  0
TABLE
  2
STYLE
 70
     1
  0
STYLE
  2
STANDARD
 70
     0
 40
0.0
 41
0.8
 50
0.0
 71
     0
 42
0.2
  3
txt
  4

  0
ENDTAB
  0
TABLE
  2
VIEW
 70
     0
  0
ENDTAB
  0
TABLE
  2
UCS
 70
     0
  0
ENDTAB
  0
TABLE
  2
APPID
 70
     9
  0
APPID
  2
ACAD
 70
     0
  0
APPID
  2
ACAD_MLEADERVER
 70
     0
  0
APPID
  2
ACAD_EXEMPT_FROM_CAD_STANDARDS
 70
     0
  0
APPID
  2
ACAD_NAV_VCDISPLAY
 70
     0
  0
APPID
  2
ACAECLAYERSTANDARD
 70
     0
  0
APPID
  2
ACCMTRANSPARENCY
 70
     0
  0
APPID
  2
ACAD_DSTYLE_DIMJAG
 70
     0
  0
APPID
  2
ACAD_DSTYLE_DIMTALN
 70
     0
  0
APPID
  2
ACDBATTR
 70
     0
  0
ENDTAB
  0
TABLE
  2
DIMSTYLE
 70
     1
  0
DIMSTYLE
  2
STANDARD
 70
     0
  3

  4

  5

  6

  7

 40
1.0
 41
0.1875
 42
0.0625
 43
0.38
 44
0.125
 45
0.0
 46
0.0
 47
0.01
 48
0.01
140
0.15625
141
0.09
142
0.0
143
25.3999999999999986
144
1.0
145
0.0
146
1.0
147
0.09
 71
     1
 72
     0
 73
     1
 74
     1
 75
     0
 76
     0
 77
     0
 78
     4
170
     0
171
     2
172
     0
173
     0
174
     0
175
     0
176
     0
177
     0
178
     0
  0
ENDTAB
  0
ENDSEC
  0
SECTION
  2
BLOCKS
  0
BLOCK
  8
0
  2
$MODEL_SPACE
 70
     0
 10
0.0
 20
0.0
 30
0.0
  3
$MODEL_SPACE
  1

  0
ENDBLK
  5
21
  8
0
  0
BLOCK
 67
     1
  8
0
  2
$PAPER_SPACE
 70
     0
 10
0.0
 20
0.0
 30
0.0
  3
$PAPER_SPACE
  1

  0
ENDBLK
  5
1D
 67
     1
  8
0
  0
ENDSEC
  0
SECTION
  2
ENTITIES
  0
ATTDEF
  5
3930
  8
DEFPOINTS
 10
3812.7579340296138071
 20
127.6479453797856962
 30
0.0
 40
0.001
  1
K-18055IN
  3

  2
MODELNUMBER
 70
     0
1001
ACDBATTR
1070
     0
1070
     1
  0
ATTDEF
  5
3931
  8
DEFPOINTS
 10
3812.7579340296138071
 20
127.6462787131191021
 30
0.0
 40
0.001
  1
TOUCHLESS
  3

  2
TRADENAME
 70
     0
1001
ACDBATTR
1070
     0
1070
     1
  0
ATTDEF
  5
3932
  8
DEFPOINTS
 10
3812.7579340296138071
 20
127.6446120464523943
 30
0.0
 40
0.001
  1
BATHROOM SINK FAUCET
  3

  2
PRODUCT
 70
     0
1001
ACDBATTR
1070
     0
1070
     1
  0
ARC
  5
6BDC
  8
0
 10
3812.771294706739809
 20
122.1001694951523007
 30
0.0
 40
0.115704359113503
 50
265.1706127941548061
 51
268.7797854142539791
  0
ARC
  5
6BDD
  8
0
 10
3812.7790125782271389
 20
122.1861007100064995
 30
0.0
 40
0.2019807759571985
 50
259.4486310817741241
 51
265.041255451296081
  0
ARC
  5
6BDE
  8
0
 10
3812.8265567885209748
 20
122.4413489521353
 30
0.0
 40
0.461619211174897
 50
248.9457668328890065
 51
259.4486310817741241
  0
ARC
  5
6BDF
  8
0
 10
3812.8511608427979809
 20
122.5052638120992015
 30
0.0
 40
0.5301062085617986
 50
222.9264331196191051
 51
248.9457668328890065
  0
ARC
  5
6BE0
  8
0
 10
3812.8978399569891735
 20
122.7089074643099025
 30
0.0
 40
0.7127022220627665
 50
213.3019083794588084
 51
232.4013881631788081
  0
ARC
  5
6BE1
  8
0
 10
3813.7913545584729036
 20
123.2600699559982047
 30
0.0
 40
1.762362245027838
 50
195.5661061785515074
 51
212.3288401612828977
  0
ARC
  5
6BE2
  8
0
 10
3817.9990267726630009
 20
124.468070520885405
 30
0.0
 40
6.1399675168622103
 50
187.8596234866946872
 51
195.8886458856069055
  0
ARC
  5
6BE3
  8
0
 10
3840.6777318981339704
 20
128.1167382261803027
 30
0.0
 40
29.1090966551336514
 50
185.3601573230843087
 51
188.8697325762977073
  0
ARC
  5
6BE4
  8
0
 10
3828.2270591963260813
 20
127.0177825037740007
 30
0.0
 40
16.6103517199509305
 50
179.1154108605200008
 51
185.5979658350497914
  0
ARC
  5
6BE5
  8
0
 10
3814.591604171491781
 20
127.3296736175776971
 30
0.0
 40
2.9734342440039132
 50
173.8479984604699951
 51
181.068621474463697
  0
ARC
  5
6BE6
  8
0
 10
3814.2822267975261639
 20
127.4586174673718943
 30
0.0
 40
2.65372273590806
 50
170.4287062185680099
 51
175.9005572173093128
  0
ARC
  5
6BE7
  8
0
 10
3812.7740437464408387
 20
127.726795192879905
 30
0.0
 40
1.1220265170699311
 50
149.8870598741360141
 51
171.1268692530319129
  0
ARC
  5
6BE8
  8
0
 10
3812.6991419045548355
 20
127.7380560893573005
 30
0.0
 40
1.051952302008365
 50
126.7717970444920041
 51
148.3706758850516962
  0
ARC
  5
6BE9
  8
0
 10
3812.838191118235045
 20
127.5868205755405
 30
0.0
 40
1.2565078129505789
 50
116.1636671600038966
 51
127.722494741110097
  0
ARC
  5
6BEA
  8
0
 10
3812.7438590298888812
 20
127.7742216195676974
 30
0.0
 40
1.046715714129048
 50
105.1922945774088021
 51
116.0522939844789931
  0
ARC
  5
6BEB
  8
0
 10
3812.7586434633421959
 20
127.7279192282122011
 30
0.0
 40
1.095276395918406
 50
95.1637218366918773
 51
105.303915624770994
  0
ARC
  5
6BEC
  8
0
 10
3812.7713921392769407
 20
127.5850015041523022
 30
0.0
 40
1.238761517937653
 50
90.1184699799517119
 51
95.156046530450979
  0
ARC
  5
6BED
  8
0
 10
3817.5706816560068546
 20
128.018577494034389
 30
0.0
 40
5.9946596446557203
 50
184.6755650248836105
 51
186.8044530591054126
  0
ARC
  5
6BEE
  8
0
 10
3813.4358788484978504
 20
127.6804100523599033
 30
0.0
 40
1.84605126646549
 50
181.1446143865121883
 51
184.6755650248827862
  0
ARC
  5
6BEF
  8
0
 10
3813.3599378562071252
 20
127.625782934166196
 30
0.0
 40
1.769830930346687
 50
177.3975218547512043
 51
179.4253439349897121
  0
ARC
  5
6BF0
  8
0
 10
3812.861958422526186
 20
127.6101656588676008
 30
0.0
 40
1.2736475935257421
 50
152.8723637670555036
 51
175.6782514032308029
  0
ARC
  5
6BF1
  8
0
 10
3812.7402887787461623
 20
127.6725012338482941
 30
0.0
 40
1.1369390490760429
 50
127.5419603467183975
 51
152.8723637670555036
  0
ARC
  5
6BF2
  8
0
 10
3812.8074119240050095
 20
127.5851571674850931
 30
0.0
 40
1.2470957672476031
 50
114.6370427932945972
 51
127.5419603467183975
  0
ARC
  5
6BF3
  8
0
 10
3812.6795898771920292
 20
127.8638685187819988
 30
0.0
 40
0.9404714156487067
 50
109.1641657298631003
 51
114.6370427932949951
  0
ARC
  5
6BF4
  8
0
 10
3812.7690186772238121
 20
128.4468462721476101
 30
0.0
 40
0.0180984675405731
 50
90.5947838252089781
 51
94.7030229365978187
  0
ARC
  5
6BF5
  8
0
 10
3812.7748289375031163
 20
128.3762203370303894
 30
0.0
 40
0.0889629991179932
 50
94.7030229365978187
 51
102.9007583626333968
  0
ARC
  5
6BF6
  8
0
 10
3812.9298653510531949
 20
127.6993369779660981
 30
0.0
 40
0.7833745278995567
 50
102.9007583626333968
 51
107.9449269660761956
  0
ARC
  5
6BF7
  8
0
 10
3812.9277215975648687
 20
127.7059564155784983
 30
0.0
 40
0.7764166091500906
 50
107.9449269660761956
 51
116.0671636053589992
  0
ARC
  5
6BF8
  8
0
 10
3812.7709525405089153
 20
128.0264266219244007
 30
0.0
 40
0.419656619232978
 50
116.0671636053589992
 51
137.4383727476437116
  0
ARC
  5
6BF9
  8
0
 10
3813.5450007925660429
 20
127.3156089276203033
 30
0.0
 40
1.470566934649969
 50
137.4383727476437116
 51
147.0551729926266091
  0
ARC
  5
6BFA
  8
0
 10
3813.701312201330893
 20
127.2143129772095023
 30
0.0
 40
1.6568305276562749
 50
147.0551729926266091
 51
162.5931672530730907
  0
ARC
  5
6BFB
  8
0
 10
3816.0475822103030623
 20
126.4787292339268987
 30
0.0
 40
4.1157055546521226
 50
162.5931672530730907
 51
176.3659381004322029
  0
ARC
  5
6BFC
  8
0
 10
3824.1303349560821516
 20
125.4675772686211985
 30
0.0
 40
12.2563692850768007
 50
174.0428591709300008
 51
180.1502290642168873
  0
ARC
  5
6BFD
  8
0
 10
3827.7061643824022212
 20
125.4319036521728066
 30
0.0
 40
15.8321569763431693
 50
179.9871977718644018
 51
183.1038996754747927
  0
ARC
  5
6BFE
  8
0
 10
3825.3735852668278312
 20
125.2725146476704055
 30
0.0
 40
13.4944093760796093
 50
182.964407011335993
 51
186.6627511648702864
  0
ARC
  5
6BFF
  8
0
 10
3817.5472266355909596
 20
124.2538974265720952
 30
0.0
 40
5.6036819178539039
 50
185.6025540719114133
 51
195.6656810998671006
  0
ARC
  5
6C00
  8
0
 10
3814.1806464016908649
 20
123.3574052208449956
 30
0.0
 40
2.120579697757186
 50
196.905024308198989
 51
209.3109095504806874
  0
ARC
  5
6C01
  8
0
 10
3813.0538235400008489
 20
122.7247795694872963
 30
0.0
 40
0.82831618887655
 50
209.3109095504806874
 51
224.4975502733402948
  0
ARC
  5
6C02
  8
0
 10
3812.766366822846976
 20
122.100169495152798
 30
0.0
 40
0.1157043591139534
 50
271.2202145857721121
 51
274.8293872058451939
  0
ARC
  5
6C03
  8
0
 10
3812.7586489513591914
 20
122.1861007100064995
 30
0.0
 40
0.2019807759571985
 50
274.958744548703919
 51
280.5513689182258759
  0
ARC
  5
6C04
  8
0
 10
3812.7111047410658102
 20
122.4413489521353
 30
0.0
 40
0.461619211174897
 50
280.5513689182258759
 51
291.0542331671110219
  0
ARC
  5
6C05
  8
0
 10
3812.6865006867888042
 20
122.5052638120992015
 30
0.0
 40
0.5301062085617986
 50
291.0542331671110219
 51
317.0735668803808949
  0
ARC
  5
6C06
  8
0
 10
3812.6398215725989758
 20
122.7089074643099025
 30
0.0
 40
0.7127022220627665
 50
307.5986118368211919
 51
326.69809162054122
  0
ARC
  5
6C07
  8
0
 10
3811.7463069711147909
 20
123.2600699559982047
 30
0.0
 40
1.762362245027838
 50
327.6711598387170739
 51
344.4338938214484074
  0
ARC
  5
6C08
  8
0
 10
3807.5386347569251484
 20
124.468070520885405
 30
0.0
 40
6.1399675168622103
 50
344.1113541143930092
 51
352.1403765133052843
  0
ARC
  5
6C09
  8
0
 10
3784.8599296314541789
 20
128.1167382261803027
 30
0.0
 40
29.1090966551336514
 50
351.1302674237022075
 51
354.6398426769155776
  0
ARC
  5
6C0A
  8
0
 10
3797.3106023332611585
 20
127.0177825037740007
 30
0.0
 40
16.6103517199509305
 50
354.4020341649501233
 51
0.8845891394800161
  0
ARC
  5
6C0B
  8
0
 10
3810.946057358095004
 20
127.3296736175776971
 30
0.0
 40
2.9734342440039132
 50
358.9313785255362745
 51
6.1520015395300014
  0
ARC
  5
6C0C
  8
0
 10
3811.2554347320610759
 20
127.4586174673718943
 30
0.0
 40
2.65372273590806
 50
4.0994427826907387
 51
9.5712937814319883
  0
ARC
  5
6C0D
  8
0
 10
3812.7636177831459463
 20
127.726795192879905
 30
0.0
 40
1.1220265170699311
 50
8.8731307469681031
 51
30.1129401258646503
  0
ARC
  5
6C0E
  8
0
 10
3812.8385196250319495
 20
127.7380560893573005
 30
0.0
 40
1.051952302008365
 50
31.6293241149482682
 51
53.228202955508003
  0
ARC
  5
6C0F
  8
0
 10
3812.6994704113521948
 20
127.5868205755405
 30
0.0
 40
1.2565078129505789
 50
52.2775052588898319
 51
63.8363328399961105
  0
ARC
  5
6C10
  8
0
 10
3812.7938024996979038
 20
127.7742216195676974
 30
0.0
 40
1.046715714129048
 50
63.9477060155209429
 51
74.8077054225912121
  0
ARC
  5
6C11
  8
0
 10
3812.7790180662441344
 20
127.7279192282122011
 30
0.0
 40
1.095276395918406
 50
74.6960843752289634
 51
84.8362781633081227
  0
ARC
  5
6C12
  8
0
 10
3812.7662693903112086
 20
127.5850015041523022
 30
0.0
 40
1.238761517937653
 50
84.8439534695490352
 51
89.8815300200483023
  0
ARC
  5
6C13
  8
0
 10
3807.9669798735799304
 20
128.018577494034389
 30
0.0
 40
5.9946596446557203
 50
353.1955469408944737
 51
354.332292606279907
  0
ARC
  5
6C14
  8
0
 10
3812.6757031070610537
 20
127.6101656588676008
 30
0.0
 40
1.2736475935257421
 50
5.1522205776641181
 51
27.1276362329445
  0
ARC
  5
6C15
  8
0
 10
3812.7973727508410775
 20
127.6725012338482941
 30
0.0
 40
1.1369390490760429
 50
27.1276362329445
 51
52.4580396532815527
  0
ARC
  5
6C16
  8
0
 10
3812.730249605580866
 20
127.5851571674850931
 30
0.0
 40
1.2470957672476031
 50
52.4580396532815527
 51
65.3629572067053175
  0
ARC
  5
6C17
  8
0
 10
3812.85807165239612
 20
127.8638685187819988
 30
0.0
 40
0.9404714156487067
 50
65.3629572067049622
 51
70.8358342701368997
  0
ARC
  5
6C18
  8
0
 10
3812.7686428523629729
 20
128.4468462721476101
 30
0.0
 40
0.0180984675405731
 50
85.2969770634021813
 51
89.4052161747910077
  0
ARC
  5
6C19
  8
0
 10
3812.762832592085033
 20
128.3762203370303894
 30
0.0
 40
0.0889629991179932
 50
77.0992416373665606
 51
85.2969770634021813
  0
ARC
  5
6C1A
  8
0
 10
3812.6077961785340449
 20
127.6993369779660981
 30
0.0
 40
0.7833745278995567
 50
72.0550730339237617
 51
77.0992416373665606
  0
ARC
  5
6C1B
  8
0
 10
3812.6099399320219163
 20
127.7059564155784983
 30
0.0
 40
0.7764166091500906
 50
63.9328363946409581
 51
72.0550730339237617
  0
ARC
  5
6C1C
  8
0
 10
3812.7667089890787793
 20
128.0264266219244007
 30
0.0
 40
0.419656619232978
 50
42.5616272523562813
 51
63.9328363946409581
  0
ARC
  5
6C1D
  8
0
 10
3811.9926607370211968
 20
127.3156089276203033
 30
0.0
 40
1.470566934649969
 50
32.9448270073733696
 51
42.5616272523562813
  0
ARC
  5
6C1E
  8
0
 10
3811.836349328255892
 20
127.2143129772095023
 30
0.0
 40
1.6568305276562749
 50
17.4068327469268809
 51
32.9448270073733696
  0
ARC
  5
6C1F
  8
0
 10
3809.4900793192841775
 20
126.4787292339268987
 30
0.0
 40
4.1157055546521226
 50
3.6340618995677652
 51
17.4068327469268809
  0
ARC
  5
6C20
  8
0
 10
3801.4073265735050882
 20
125.4675772686211985
 30
0.0
 40
12.2563692850768007
 50
359.8497709357831127
 51
5.9571408290699903
  0
ARC
  5
6C21
  8
0
 10
3797.831497147185928
 20
125.4319036521728066
 30
0.0
 40
15.8321569763431693
 50
356.8961003245252073
 51
0.0128022281355904
  0
ARC
  5
6C22
  8
0
 10
3800.1640762627589538
 20
125.2725146476704055
 30
0.0
 40
13.4944093760796093
 50
353.3372488351296283
 51
357.0355929886638933
  0
ARC
  5
6C23
  8
0
 10
3807.9904348939958254
 20
124.2538974265720952
 30
0.0
 40
5.6036819178539039
 50
344.3343189001329279
 51
354.3974459280885867
  0
ARC
  5
6C24
  8
0
 10
3811.3570151278959202
 20
123.3574052208449956
 30
0.0
 40
2.120579697757186
 50
330.6890904495193126
 51
343.0949756918009825
  0
ARC
  5
6C25
  8
0
 10
3812.4838379895859362
 20
122.7247795694872963
 30
0.0
 40
0.82831618887655
 50
315.5024497266596768
 51
330.6890904495193126
  0
LINE
  5
6C26
  8
0
 10
3814.1192244681769807
 20
127.7245418525030942
 30
0.0
 11
3814.1192244681769807
 21
127.031792858164593
 31
0.0
  0
ARC
  5
6C27
  8
0
 10
3817.2056694945849813
 20
127.4966810624714952
 30
0.0
 40
3.094844655337071
 50
174.5131995000388088
 51
175.7777248847474993
  0
ARC
  5
6C28
  8
0
 10
3814.1534257246630659
 20
127.789869046419895
 30
0.0
 40
0.0285519059475755
 50
68.8202495778873953
 51
174.5131995000371887
  0
ARC
  5
6C29
  8
0
 10
3814.4574430223119634
 20
128.7404127039480954
 30
0.0
 40
0.9694790019323951
 50
252.3652523457340919
 51
264.1717664464100039
  0
ARC
  5
6C2A
  8
0
 10
3814.3137235931408213
 20
127.5933596896664994
 30
0.0
 40
0.1881143786431314
 50
5.6834220462197189
 51
76.0743163878728552
  0
ARC
  5
6C2B
  8
0
 10
3814.4100332143439118
 20
127.6087794252206038
 30
0.0
 40
0.0909366951543812
 50
341.9233044630000222
 51
2.022653297722464
  0
ARC
  5
6C2C
  8
0
 10
3814.6596547018889396
 20
127.0436112867824932
 30
0.0
 40
0.5405594442465589
 50
181.2527762591539044
 51
187.2056395290861985
  0
ARC
  5
6C2D
  8
0
 10
3814.1514069962408939
 20
126.9793538450455941
 30
0.0
 40
0.0282658281299366
 50
187.205639529087108
 51
273.6096068089782989
  0
ARC
  5
6C2E
  8
0
 10
3814.1750171081189364
 20
126.6050832698552995
 30
0.0
 40
0.346748706036572
 50
90.3797639983170455
 51
93.6096068089783842
  0
ARC
  5
6C2F
  8
0
 10
3814.1723737783818251
 20
127.0038820516575981
 30
0.0
 40
0.052058835967152
 50
270.3797639983171166
 51
295.6116568411853223
  0
ARC
  5
6C30
  8
0
 10
3813.9630014308559112
 20
127.3641012785974027
 30
0.0
 40
0.4685595872196886
 50
299.6611357056746101
 51
316.1985582688695899
  0
ARC
  5
6C31
  8
0
 10
3813.8299425782479375
 20
127.5432363009576022
 30
0.0
 40
0.6895878326983997
 50
313.1069514906270115
 51
338.0127377061788252
  0
ARC
  5
6C32
  8
0
 10
3813.7514028365781087
 20
127.6012360369814047
 30
0.0
 40
0.7845090706080573
 50
336.232181005302607
 51
345.605903699675423
  0
ARC
  5
6C33
  8
0
 10
3814.1146758980858067
 20
127.4985826422939965
 30
0.0
 40
0.4072232238286388
 50
346.8898725604984747
 51
353.7566491169105234
  0
ARC
  5
6C34
  8
0
 10
3814.0875662987577925
 20
127.4996885507008955
 30
0.0
 40
0.4342962398499875
 50
354.0005661238623134
 51
357.8010100528466069
  0
ARC
  5
6C35
  8
0
 10
3814.4042349524820565
 20
127.4786789867832937
 30
0.0
 40
0.1173882274103184
 50
2.1214871408214422
 51
12.9416789472298603
  0
ARC
  5
6C36
  8
0
 10
3817.8763543908239626
 20
128.5303116257043996
 30
0.0
 40
3.5107782715079061
 50
195.049832416056006
 51
196.9810622666873883
  0
ARC
  5
6C37
  8
0
 10
3814.7314954197458974
 20
127.7036668180404035
 30
0.0
 40
0.2597863819953575
 50
190.1849213623191872
 51
199.0892157355148129
  0
ARC
  5
6C38
  8
0
 10
3814.4802591238490095
 20
127.6585305291049934
 30
0.0
 40
0.004527766166205
 50
69.7607483148741778
 51
190.1849213623102912
  0
ARC
  5
6C39
  8
0
 10
3814.2394939176938351
 20
127.5384357824575972
 30
0.0
 40
0.2723706077286887
 50
16.6909324626298883
 51
27.1628524880427911
  0
ARC
  5
6C3A
  8
0
 10
3814.4939989571139449
 20
127.3959057352034989
 30
0.0
 40
0.0099629747823603
 50
294.3103180781627088
 51
350.1287457608718228
  0
ARC
  5
6C3B
  8
0
 10
3814.4946048256601898
 20
127.3945645291534987
 30
0.0
 40
0.0084912715636947
 50
218.0985798548551031
 51
294.3103180781371861
  0
ARC
  5
6C3C
  8
0
 10
3814.5769519336699886
 20
127.4771235175395958
 30
0.0
 40
0.1250389961022069
 50
193.3024426585440949
 51
224.601112760602291
  0
ARC
  5
6C3D
  8
0
 10
3801.5668849233948094
 20
122.8069854340788964
 30
0.0
 40
13.6986389353447695
 50
19.8049755642989709
 51
20.1031695790508991
  0
ARC
  5
6C3E
  8
0
 10
3814.4582349592551509
 20
127.5253582889667001
 30
0.0
 40
0.0290683803291528
 50
160.726147305178614
 51
200.1031695790508991
  0
ARC
  5
6C3F
  8
0
 10
3814.4477195042600215
 20
127.5266751350291941
 30
0.0
 40
0.018839828064942
 50
71.2745987337915352
 51
153.9346301737928968
  0
ARC
  5
6C40
  8
0
 10
3814.4419660019948424
 20
127.5037545265315941
 30
0.0
 40
0.0424372404740222
 50
27.2947398480870405
 51
73.8532868247173866
  0
ARC
  5
6C41
  8
0
 10
3814.2826589485171098
 20
127.4165074883382971
 30
0.0
 40
0.224060426215412
 50
8.8723188272831965
 51
28.4403671714587709
  0
ARC
  5
6C42
  8
0
 10
3814.3590959210400797
 20
127.4232017177356937
 30
0.0
 40
0.1475963388433163
 50
348.6671213941750125
 51
10.8816180309969006
  0
ARC
  5
6C43
  8
0
 10
3814.4286228167311492
 20
127.4498620916059934
 30
0.0
 40
0.042784430401946
 50
324.2658916424334734
 51
8.7376504572256923
  0
ARC
  5
6C44
  8
0
 10
3814.1983640416001435
 20
127.4144726805160985
 30
0.0
 40
0.2757469036511959
 50
8.7376504572256923
 51
18.9557554844792016
  0
ARC
  5
6C45
  8
0
 10
3814.429657754074924
 20
127.493913761659698
 30
0.0
 40
0.031190842994286
 50
18.9557554844784306
 51
81.3336130336438288
  0
ARC
  5
6C46
  8
0
 10
3814.4680561616910381
 20
127.5181719151426023
 30
0.0
 40
0.0343342843213021
 50
168.9570271332659104
 51
199.190265923774291
  0
ARC
  5
6C47
  8
0
 10
3814.748350490813209
 20
127.5845412407198012
 30
0.0
 40
0.3222182337619099
 50
193.945682890872007
 51
197.4861162063764084
  0
ARC
  5
6C48
  8
0
 10
3814.4036117715418186
 20
127.4717253552031053
 30
0.0
 40
0.0541953740000097
 50
338.4508486795942872
 51
56.2124734552248384
  0
LINE
  5
6C49
  8
0
 10
3814.1192244681769807
 20
127.7245418525031937
 30
0.0
 11
3813.9140537340281298
 21
127.7245418525031937
 31
0.0
  0
LINE
  5
6C4A
  8
0
 10
3814.1192244681769807
 20
127.3702111439032052
 30
0.0
 11
3813.9264735879228283
 21
127.3702111439032052
 31
0.0
  0
ARC
  5
6C4B
  8
0
 10
3813.6641193681712139
 20
127.6872401211793999
 30
0.0
 40
0.2643838426775462
 50
8.1108842432111796
 51
23.8561996037599506
  0
ARC
  5
6C4C
  8
0
 10
3812.4682365057537936
 20
127.4862922524169022
 30
0.0
 40
1.4653157780880739
 50
357.663408262733526
 51
9.8900449229099561
  0
ARC
  5
6C4D
  8
0
 10
3814.3172688093750367
 20
127.808669006272396
 30
0.0
 40
0.411609162142549
 50
182.0189226052794993
 51
189.8900449229099081
  0
ENDSEC
  0
EOF
