  0
SECTION
  2
HEADER
  9
$ACADVER
  1
AC1009
  9
$INSBASE
 10
3828.1281228681991706
 20
123.1921080877248045
 30
0.0
  9
$EXTMIN
 10
3822.3594019588690571
 20
123.1782995102956022
 30
-0.0000000000112498
  9
$EXTMAX
 10
3829.3715071297410759
 20
128.706525246950207
 30
0.0000000000002956
  9
$LIMMIN
 10
0.0
 20
0.0
  9
$LIMMAX
 10
11.6929133858000007
 20
8.2677165353999982
  9
$ORTHOMODE
 70
     0
  9
$REGENMODE
 70
     1
  9
$FILLMODE
 70
     1
  9
$QTEXTMODE
 70
     0
  9
$MIRRTEXT
 70
     0
  9
$DRAGMODE
 70
     2
  9
$LTSCALE
 40
0.6431102362
  9
$OSMODE
 70
  4095
  9
$ATTMODE
 70
     1
  9
$TEXTSIZE
 40
0.2
  9
$TRACEWID
 40
0.05
  9
$TEXTSTYLE
  7
STANDARD
  9
$CLAYER
  8
0
  9
$CELTYPE
  6
BYLAYER
  9
$CECOLOR
 62
   256
  9
$DIMSCALE
 40
1.0
  9
$DIMASZ
 40
0.1875
  9
$DIMEXO
 40
0.0625
  9
$DIMDLI
 40
0.4443307087
  9
$DIMRND
 40
0.0
  9
$DIMDLE
 40
0.0
  9
$DIMEXE
 40
0.125
  9
$DIMTP
 40
0.01
  9
$DIMTM
 40
0.01
  9
$DIMTXT
 40
2.0
  9
$DIMCEN
 40
0.1052362205
  9
$DIMTSZ
 40
0.0
  9
$DIMTOL
 70
     1
  9
$DIMLIM
 70
     0
  9
$DIMTIH
 70
     1
  9
$DIMTOH
 70
     1
  9
$DIMSE1
 70
     0
  9
$DIMSE2
 70
     0
  9
$DIMTAD
 70
     0
  9
$DIMZIN
 70
     0
  9
$DIMBLK
  1

  9
$DIMASO
 70
     1
  9
$DIMSHO
 70
     1
  9
$DIMPOST
  1
\X
  9
$DIMAPOST
  1

  9
$DIMALT
 70
     1
  9
$DIMALTD
 70
     2
  9
$DIMALTF
 40
25.3999999999999986
  9
$DIMLFAC
 40
1.0
  9
$DIMTOFL
 70
     0
  9
$DIMTVP
 40
0.0
  9
$DIMTIX
 70
     0
  9
$DIMSOXD
 70
     0
  9
$DIMSAH
 70
     0
  9
$DIMBLK1
  1

  9
$DIMBLK2
  1

  9
$DIMSTYLE
  2
STANDARD
  9
$DIMCLRD
 70
     0
  9
$DIMCLRE
 70
     0
  9
$DIMCLRT
 70
     0
  9
$DIMTFAC
 40
1.0
  9
$DIMGAP
 40
0.09
  9
$LUNITS
 70
     2
  9
$LUPREC
 70
     4
  9
$SKETCHINC
 40
0.1
  9
$FILLETRAD
 40
0.0
  9
$AUNITS
 70
     0
  9
$AUPREC
 70
     0
  9
$MENU
  1
.
  9
$ELEVATION
 40
0.0
  9
$PELEVATION
 40
0.0
  9
$THICKNESS
 40
0.0
  9
$LIMCHECK
 70
     0
  9
$BLIPMODE
 70
     0
  9
$CHAMFERA
 40
0.0
  9
$CHAMFERB
 40
0.0
  9
$SKPOLY
 70
     0
  9
$TDCREATE
 40
2458060.468368056230247
  9
$TDUPDATE
 40
2459165.5199074079282582
  9
$TDINDWG
 40
0.3136297454
  9
$TDUSRTIMER
 40
0.3136297454
  9
$USRTIMER
 70
     1
  9
$ANGBASE
 50
0.0
  9
$ANGDIR
 70
     0
  9
$PDMODE
 70
     0
  9
$PDSIZE
 40
0.3125
  9
$PLINEWID
 40
0.0
  9
$COORDS
 70
     1
  9
$SPLFRAME
 70
     0
  9
$SPLINETYPE
 70
     6
  9
$SPLINESEGS
 70
     8
  9
$ATTDIA
 70
     1
  9
$ATTREQ
 70
     1
  9
$HANDLING
 70
     1
  9
$HANDSEED
  5
6E84
  9
$SURFTAB1
 70
     6
  9
$SURFTAB2
 70
     6
  9
$SURFTYPE
 70
     6
  9
$SURFU
 70
     6
  9
$SURFV
 70
     6
  9
$UCSNAME
  2

  9
$UCSORG
 10
0.0
 20
0.0
 30
0.0
  9
$UCSXDIR
 10
1.0
 20
0.0
 30
0.0
  9
$UCSYDIR
 10
0.0
 20
1.0
 30
0.0
  9
$PUCSNAME
  2

  9
$PUCSORG
 10
0.0
 20
0.0
 30
0.0
  9
$PUCSXDIR
 10
1.0
 20
0.0
 30
0.0
  9
$PUCSYDIR
 10
0.0
 20
1.0
 30
0.0
  9
$USERI1
 70
     0
  9
$USERI2
 70
     0
  9
$USERI3
 70
     0
  9
$USERI4
 70
     0
  9
$USERI5
 70
     0
  9
$USERR1
 40
0.0
  9
$USERR2
 40
0.0
  9
$USERR3
 40
0.0
  9
$USERR4
 40
0.0
  9
$USERR5
 40
0.0
  9
$WORLDVIEW
 70
     1
  9
$SHADEDGE
 70
     3
  9
$SHADEDIF
 70
    70
  9
$TILEMODE
 70
     1
  9
$MAXACTVP
 70
    64
  9
$PLIMCHECK
 70
     0
  9
$PEXTMIN
 10
1.0000000000000000E+20
 20
1.0000000000000000E+20
 30
1.0000000000000000E+20
  9
$PEXTMAX
 10
-1.0000000000000000E+20
 20
-1.0000000000000000E+20
 30
-1.0000000000000000E+20
  9
$PLIMMIN
 10
0.0
 20
0.0
  9
$PLIMMAX
 10
12.0
 20
9.0
  9
$UNITMODE
 70
     0
  9
$VISRETAIN
 70
     1
  9
$PLINEGEN
 70
     0
  9
$PSLTSCALE
 70
     1
  0
ENDSEC
  0
SECTION
  2
TABLES
  0
TABLE
  2
VPORT
 70
     1
  0
VPORT
  2
*ACTIVE
 70
     0
 10
0.0
 20
0.0
 11
1.0
 21
1.0
 12
22.3213871614925701
 22
-0.052849818127001
 13
0.0
 23
0.0
 14
1.0
 24
1.0
 15
0.0
 25
0.0
 16
0.0
 26
0.0
 36
17.1152628219792007
 17
3803.5440673828129547
 27
125.9952621967499056
 37
0.0
 40
5.5986489944463544
 41
2.887234042553191
 42
50.0
 43
0.0
 44
0.0
 50
0.0
 51
0.0
 71
     0
 72
   100
 73
     1
 74
     1
 75
     0
 76
     0
 77
     0
 78
     0
  0
ENDTAB
  0
TABLE
  2
LTYPE
 70
     2
  0
LTYPE
  2
CONTINUOUS
 70
     0
  3
Solid line
 72
    65
 73
     0
 40
0.0
  0
LTYPE
  2
PHANTOM2
 70
     0
  3
___ _ _ ___ _ _ ___ _ _ ___ _ _
 72
    65
 73
     6
 40
1.25
 49
0.625
 49
-0.125
 49
0.125
 49
-0.125
 49
0.125
 49
-0.125
  0
ENDTAB
  0
TABLE
  2
LAYER
 70
     2
  0
LAYER
  2
0
 70
     0
 62
   255
  6
CONTINUOUS
  0
LAYER
  2
DEFPOINTS
 70
     0
 62
     7
  6
CONTINUOUS
  0
ENDTAB
  0
TABLE
  2
STYLE
 70
     1
  0
STYLE
  2
STANDARD
 70
     0
 40
0.0
 41
0.8
 50
0.0
 71
     0
 42
0.2
  3
txt
  4

  0
ENDTAB
  0
TABLE
  2
VIEW
 70
     0
  0
ENDTAB
  0
TABLE
  2
UCS
 70
     0
  0
ENDTAB
  0
TABLE
  2
APPID
 70
     9
  0
APPID
  2
ACAD
 70
     0
  0
APPID
  2
ACAD_MLEADERVER
 70
     0
  0
APPID
  2
ACAD_EXEMPT_FROM_CAD_STANDARDS
 70
     0
  0
APPID
  2
ACAD_NAV_VCDISPLAY
 70
     0
  0
APPID
  2
ACAECLAYERSTANDARD
 70
     0
  0
APPID
  2
ACCMTRANSPARENCY
 70
     0
  0
APPID
  2
ACAD_DSTYLE_DIMJAG
 70
     0
  0
APPID
  2
ACAD_DSTYLE_DIMTALN
 70
     0
  0
APPID
  2
ACDBATTR
 70
     0
  0
ENDTAB
  0
TABLE
  2
DIMSTYLE
 70
     1
  0
DIMSTYLE
  2
STANDARD
 70
     0
  3

  4

  5

  6

  7

 40
1.0
 41
0.1875
 42
0.0625
 43
0.38
 44
0.125
 45
0.0
 46
0.0
 47
0.01
 48
0.01
140
0.15625
141
0.09
142
0.0
143
25.3999999999999986
144
1.0
145
0.0
146
1.0
147
0.09
 71
     1
 72
     0
 73
     1
 74
     1
 75
     0
 76
     0
 77
     0
 78
     4
170
     0
171
     2
172
     0
173
     0
174
     0
175
     0
176
     0
177
     0
178
     0
  0
ENDTAB
  0
ENDSEC
  0
SECTION
  2
BLOCKS
  0
BLOCK
  8
0
  2
$MODEL_SPACE
 70
     0
 10
0.0
 20
0.0
 30
0.0
  3
$MODEL_SPACE
  1

  0
ENDBLK
  5
21
  8
0
  0
BLOCK
 67
     1
  8
0
  2
$PAPER_SPACE
 70
     0
 10
0.0
 20
0.0
 30
0.0
  3
$PAPER_SPACE
  1

  0
ENDBLK
  5
1D
 67
     1
  8
0
  0
ENDSEC
  0
SECTION
  2
ENTITIES
  0
ATTDEF
  5
3930
  8
DEFPOINTS
 10
3828.1237709638039632
 20
123.1902413179299032
 30
0.0
 40
0.001
  1
K-18055IN
  3

  2
MODELNUMBER
 70
     0
1001
ACDBATTR
1070
     0
1070
     1
  0
ATTDEF
  5
3931
  8
DEFPOINTS
 10
3828.1237709638039632
 20
123.1885746512631954
 30
0.0
 40
0.001
  1
TOUCHLESS
  3

  2
TRADENAME
 70
     0
1001
ACDBATTR
1070
     0
1070
     1
  0
ATTDEF
  5
3932
  8
DEFPOINTS
 10
3828.1237709638039632
 20
123.1869079845965018
 30
0.0
 40
0.001
  1
BATHROOM SINK FAUCET
  3

  2
PRODUCT
 70
     0
1001
ACDBATTR
1070
     0
1070
     1
  0
LINE
  5
6D2C
  8
0
 10
3826.9725656370710567
 20
123.1921080877248045
 30
0.0
 11
3829.2677737897088264
 21
123.1921080877248045
 31
0.0
  0
ARC
  5
6D2D
  8
0
 10
5013.0401383599646579
 20
300.5549997278405954
 30
0.0
 40
1199.2811169568381047
 50
188.4984796589320126
 51
188.5034921386449014
  0
ARC
  5
6D2E
  8
0
 10
3676.4071554068978003
 20
100.8301215326524982
 30
0.0
 40
152.1913237862569019
 50
8.4984796589320251
 51
8.7326515234322741
  0
ARC
  5
6D2F
  8
0
 10
3824.0807017647562134
 20
123.8726546517600013
 30
0.0
 40
2.7542420851404041
 50
1.3269163290515791
 51
4.708813672064954
  0
ARC
  5
6D30
  8
0
 10
3823.1013578397428319
 20
123.5648277508264954
 30
0.0
 40
3.7623680474785361
 50
8.1585385302045914
 51
23.2643141158333293
  0
ARC
  5
6D31
  8
0
 10
3822.2578207790411398
 20
123.3283116827270049
 30
0.0
 40
4.632186721501764
 50
21.8307252777744516
 51
69.762993879837282
  0
ARC
  5
6D32
  8
0
 10
3822.7913808928160506
 20
126.2614179253152997
 30
0.0
 40
1.7717618630181351
 50
52.9003167140541066
 51
84.3681555122397384
  0
ARC
  5
6D33
  8
0
 10
3816.649808730877794
 20
109.9292132328620966
 30
0.0
 40
19.1658256781486784
 50
70.7605999280562372
 51
72.0960854271664715
  0
ARC
  5
6D34
  8
0
 10
3822.5514756479660718
 20
128.1954534554002123
 30
0.0
 40
0.0301458487495436
 50
192.4138401257943087
 51
251.27520529142339
  0
ARC
  5
6D35
  8
0
 10
3822.6498831667240665
 20
128.4863486514504984
 30
0.0
 40
0.1873937475327506
 50
181.8098119591676891
 51
193.0236397873144085
  0
ARC
  5
6D36
  8
0
 10
3822.5251647994009545
 20
128.482407839505413
 30
0.0
 40
0.06261313547116
 50
157.9896514372117906
 51
181.8098119591685133
  0
ARC
  5
6D37
  8
0
 10
3822.5064445170928593
 20
128.4899752579281085
 30
0.0
 40
0.0424211867961296
 50
117.4861729742872001
 51
157.9896514372103127
  0
ARC
  5
6D38
  8
0
 10
3822.5601171515168062
 20
128.3868103080949084
 30
0.0
 40
0.158712882802966
 50
95.0784112607078384
 51
117.4861729742872001
  0
ARC
  5
6D39
  8
0
 10
3824.9926085204488118
 20
111.0484995488239974
 30
0.0
 40
17.6666237491754003
 50
95.3036048982740738
 51
97.9601174320694099
  0
ARC
  5
6D3A
  8
0
 10
3824.5367243509058426
 20
117.3255099955966045
 30
0.0
 40
11.3750479402077094
 50
82.3801997022004144
 51
95.9396458259584364
  0
ARC
  5
6D3B
  8
0
 10
3824.871810091397947
 20
120.5876950342323966
 30
0.0
 40
8.0978595762612553
 50
60.1265619665070901
 51
81.6695587315179665
  0
ARC
  5
6D3C
  8
0
 10
3828.8709989825320008
 20
127.5460853034249027
 30
0.0
 40
0.0721329621265886
 50
331.8648541711414737
 51
61.6615862394901271
  0
ARC
  5
6D3D
  8
0
 10
3828.7602704298969911
 20
127.6312892859150026
 30
0.0
 40
0.2112032898676634
 50
281.1734357827193094
 51
325.6343178038720794
  0
ARC
  5
6D3E
  8
0
 10
27237.9396624828514177
 20
3621.7270978907881727
 30
0.0
 40
23668.6298005922108132
 50
188.4995999018275086
 51
188.5001329612628922
  0
ARC
  5
6D3F
  8
0
 10
3829.4571913994777788
 20
123.4730655211244965
 30
0.0
 40
0.1944303779748228
 50
158.3320634535004103
 51
188.4995999018275086
  0
ARC
  5
6D40
  8
0
 10
3825.9695305350228409
 20
125.0226044626770943
 30
0.0
 40
3.622125011090632
 50
335.9220736706483876
 51
336.8449100472805071
  0
ARC
  5
6D41
  8
0
 10
3829.2713451911640732
 20
123.6090341592369981
 30
0.0
 40
0.0304759662122182
 50
339.3922692213797063
 51
8.6739679459238346
  0
ARC
  5
6D42
  8
0
 10
1757.0709705587319149
 20
-204.0024565384076993
 30
0.0
 40
2097.9684349134699914
 50
8.9840049821537953
 51
9.0238715850908058
  0
ARC
  5
6D43
  8
0
 10
3879.4648391576160975
 20
133.058220238417988
 30
0.0
 40
51.0233364284743018
 50
187.9924026366551004
 51
189.0238715850908022
  0
ARC
  5
6D44
  8
0
 10
3839.378934992827908
 20
127.4299340446802944
 30
0.0
 40
10.5442391289142705
 50
184.0139999831563955
 51
187.9924026366551004
  0
ARC
  5
6D45
  8
0
 10
3831.7954627099647951
 20
126.8977839223402952
 30
0.0
 40
2.9421186604102698
 50
174.0748447293235017
 51
184.0139999831563955
  0
ARC
  5
6D46
  8
0
 10
3830.3849991435240554
 20
127.0437628328253936
 30
0.0
 40
1.524121127788137
 50
162.1055602991750959
 51
174.0597303910570872
  0
ARC
  5
6D47
  8
0
 10
3828.6498732629361257
 20
128.0768935065871119
 30
0.0
 40
0.6701136134075782
 50
272.8774926707387181
 51
283.0510126509424822
  0
ARC
  5
6D48
  8
0
 10
3828.4120976328499637
 20
132.8074300692005068
 30
0.0
 40
5.4066221820143197
 50
266.9476836669450108
 51
272.8774926707387181
  0
ARC
  5
6D49
  8
0
 10
3828.4049188374610821
 20
132.6728026406055108
 30
0.0
 40
5.2718034903082112
 50
257.9831179399099028
 51
266.9476836669450108
  0
ARC
  5
6D4A
  8
0
 10
3817.238257129988142
 20
68.9495433563586175
 30
0.0
 40
59.426235241850641
 50
80.2448450675028369
 51
81.3106931243621176
  0
ARC
  5
6D4B
  8
0
 10
4370.6909947422573168
 20
3760.0226991460390309
 30
0.0
 40
3672.9098655644111204
 50
261.4438850291870153
 51
261.4750119693046031
  0
ARC
  5
6D4C
  8
0
 10
3827.1020514329711659
 20
146.4412853963270891
 30
0.0
 40
18.6714709666687213
 50
257.7107410638391798
 51
261.191702622269986
  0
ARC
  5
6D4D
  8
0
 10
3824.0842536400618883
 20
132.6035197121844078
 30
0.0
 40
4.508462208085958
 50
251.5344834391970892
 51
257.7528888655144215
  0
ARC
  5
6D4E
  8
0
 10
3822.7674589576481594
 20
128.7179826884695046
 30
0.0
 40
0.4063138469405807
 50
222.3781187387941998
 51
254.1184018510301996
  0
LINE
  5
6D4F
  8
0
 10
3822.5220345977268153
 20
128.1889729648617902
 30
0.0
 11
3822.4673097169238645
 21
128.4441188984060034
 31
0.0
  0
ARC
  5
6D50
  8
0
 10
3826.9725656370710567
 20
123.222108087725104
 30
0.0
 40
0.03
 50
188.503492133966688
 51
269.999999999791612
  0
ARC
  5
6D51
  8
0
 10
3829.2677737897120096
 20
123.2221080877201018
 30
0.0
 40
0.03
 50
269.9999999961698904
 51
8.5001329612629597
  0
ARC
  5
6D52
  8
0
 10
3830.1906699690230198
 20
124.8928855890029013
 30
0.0
 40
1.5714499263596451
 50
213.8213095414066061
 51
235.4681460328139906
  0
ARC
  5
6D53
  8
0
 10
3879.4787882731288846
 20
157.9984266005606059
 30
0.0
 40
60.9456474168637428
 50
213.1820910633441883
 51
213.8865005344894996
  0
ARC
  5
6D54
  8
0
 10
3820.3852501484961977
 20
119.5422927140800056
 30
0.0
 40
9.5602176437161663
 50
32.2429820750298504
 51
38.2076359478085124
  0
ARC
  5
6D55
  8
0
 10
3822.6914309606881943
 20
121.2089392127177945
 30
0.0
 40
6.7182522074708944
 50
39.2037563123042077
 51
52.2322935846205212
  0
ARC
  5
6D56
  8
0
 10
3822.3086637794021954
 20
120.6152108359253958
 30
0.0
 40
7.4222760392284677
 50
52.7036340790483777
 51
71.8574683191549326
  0
ARC
  5
6D57
  8
0
 10
3821.0415835529888682
 20
116.7741852979567057
 30
0.0
 40
11.4668931312903002
 50
71.8171895058619327
 51
77.7246043764477008
  0
ARC
  5
6D58
  8
0
 10
3819.2877879631801079
 20
109.5018569601427032
 30
0.0
 40
18.9465704742648988
 50
77.2179963434417971
 51
80.1106109519335945
  0
ARC
  5
6D59
  8
0
 10
3829.2188688732530863
 20
124.2593911633023964
 30
0.0
 40
0.2914982731276312
 50
153.9223802229248861
 51
226.7323105114074053
  0
ARC
  5
6D5A
  8
0
 10
3829.0541391514097995
 20
124.084386606894796
 30
0.0
 40
0.0511600197802744
 50
226.7323105114074053
 51
336.8032741724680932
  0
ARC
  5
6D5B
  8
0
 10
3828.7198637791830151
 20
124.1746330151044049
 30
0.0
 40
0.3969596791091031
 50
343.8526631510554239
 51
28.6439690315750184
  0
ARC
  5
6D5C
  8
0
 10
3828.9620582779321012
 20
124.3051470641461975
 30
0.0
 40
0.1218521025761114
 50
29.3768302135332107
 51
55.186818296327381
  0
ARC
  5
6D5D
  8
0
 10
3829.0026701463948484
 20
124.3611578339308039
 30
0.0
 40
0.0526985597118383
 50
56.6725664843728367
 51
149.9707478092599047
  0
ARC
  5
6D5E
  8
0
 10
3828.0927354596078658
 20
123.9357762070304005
 30
0.0
 40
0.1998941099595143
 50
285.7494182720809022
 51
299.5885290753780055
  0
ARC
  5
6D5F
  8
0
 10
3828.0938083281757827
 20
123.9791988570794956
 30
0.0
 40
0.2444525995113423
 50
255.1456779567841977
 51
268.6299135483070017
  0
ARC
  5
6D60
  8
0
 10
3828.0828962081291138
 20
123.9772881998098057
 30
0.0
 40
0.2425249971049585
 50
271.1971973120988082
 51
285.3246986492003998
  0
ARC
  5
6D61
  8
0
 10
3828.1335233341937965
 20
124.0627228425010031
 30
0.0
 40
0.3357960558471038
 50
227.6013723309235957
 51
252.2479926863152002
  0
ARC
  5
6D62
  8
0
 10
3828.919691678370782
 20
124.832051805616203
 30
0.0
 40
1.435356577314014
 50
209.5441776083999912
 51
225.1330652127400924
  0
ARC
  5
6D63
  8
0
 10
3829.8234933144990464
 20
125.3443185091193044
 30
0.0
 40
2.4742379819920681
 50
197.8309222351929861
 51
209.5441776083999912
  0
ARC
  5
6D64
  8
0
 10
3828.2496951196599184
 20
124.8380900990105005
 30
0.0
 40
0.8210265734660369
 50
182.0988240327451138
 51
197.8309222351929861
  0
ARC
  5
6D65
  8
0
 10
3827.6881382368010236
 20
124.8175102840528012
 30
0.0
 40
0.2590927148405796
 50
154.6652458713224121
 51
182.0988240327451138
  0
ARC
  5
6D66
  8
0
 10
3827.5521389597679445
 20
124.8818978030160025
 30
0.0
 40
0.1086216014942867
 50
123.3388796855941933
 51
154.6652458713230942
  0
CIRCLE
  5
6D67
  8
0
 10
3828.0254508564989919
 20
124.0494451835247958
 30
0.0
 40
0.0885826717999998
  0
CIRCLE
  5
6D68
  8
0
 10
3827.7861413694990915
 20
124.274964995724801
 30
0.0
 40
0.0492125983999993
  0
CIRCLE
  5
6D69
  8
0
 10
3827.7861413694990915
 20
124.274964995724801
 30
0.0
 40
0.0531496063000005
  0
ARC
  5
6D6A
  8
0
 10
3828.0902489831928506
 20
123.9343406386004034
 30
0.0
 40
0.1998941099595143
 50
300.4114917274869185
 51
314.2506025308363746
  0
ARC
  5
6D6B
  8
0
 10
3828.0786365079948155
 20
123.9462609270323981
 30
0.0
 40
0.2165357101384479
 50
314.2506025308363746
 51
345.2837209984323863
  0
ARC
  5
6D6C
  8
0
 10
3827.9599160244360974
 20
123.9624905734565061
 30
0.0
 40
0.3357960558471038
 50
347.7520281166139853
 51
12.3986484720002004
  0
ARC
  5
6D6D
  8
0
 10
3826.9005735339587773
 20
123.6663129126804961
 30
0.0
 40
1.435356577314014
 50
14.8669555901810995
 51
30.4558431945190087
  0
ARC
  5
6D6E
  8
0
 10
3826.0050369283389955
 20
123.1397307624120998
 30
0.0
 40
2.4742379819920681
 50
30.4558431945190087
 51
42.1690985677391268
  0
ARC
  5
6D6F
  8
0
 10
3827.2303422860709361
 20
124.249566219401899
 30
0.0
 40
0.8210265734660369
 50
42.1690985677391268
 51
57.9011967701849173
  0
ARC
  5
6D70
  8
0
 10
3827.5347532254768339
 20
124.7379233161638012
 30
0.0
 40
0.2455703866998543
 50
57.5215712294737997
 51
88.3743012950667151
  0
ARC
  5
6D71
  8
0
 10
3827.5436327993220402
 20
124.856313401549599
 30
0.0
 40
0.1270958508564627
 50
90.8623125566360272
 51
113.7518401929180953
  0
CIRCLE
  5
6D72
  8
0
 10
3828.0254510216891504
 20
124.0494452788973945
 30
0.0
 40
0.0885826717999998
  0
CIRCLE
  5
6D73
  8
0
 10
3827.9497997625780954
 20
124.369453252638607
 30
0.0
 40
0.0492125983999993
  0
CIRCLE
  5
6D74
  8
0
 10
3827.9497997625780954
 20
124.369453252638607
 30
0.0
 40
0.0531496063000005
  0
LINE
  5
6D75
  8
0
 10
3823.7656668674990215
 20
127.5531937768247985
 30
0.0
 11
3823.8204452682998635
 21
127.7036961960930057
 31
0.0
  0
LINE
  5
6D76
  8
0
 10
3823.7656668674990215
 20
127.5531937768247985
 30
0.0
 11
3822.9517598730990358
 21
127.8494316962247979
 31
0.0
  0
LINE
  5
6D77
  8
0
 10
3823.0056213129992102
 20
127.9974147861248071
 30
0.0
 11
3822.9517598730990358
 21
127.8494316962247979
 31
0.0
  0
LINE
  5
6D78
  8
0
 10
3823.0056213129992102
 20
127.9974147861248071
 30
0.0
 11
3822.9686255405958946
 21
128.0108801460193888
 31
0.0
  0
LINE
  5
6D79
  8
0
 10
3822.9733324392241229
 20
128.0238122438505002
 30
0.0
 11
3822.9686255405958946
 21
128.0108801460193888
 31
0.0
  0
ENDSEC
  0
EOF
