  0
SECTION
  2
HEADER
  9
$ACADVER
  1
AC1009
  9
$INSBASE
 10
3511.2081021042040447
 20
161.3116016047474943
 30
0.0
  9
$EXTMIN
 10
3509.9681021042051725
 20
155.8588456991475084
 30
0.0
  9
$EXTMAX
 10
3512.4481021042038265
 20
162.5516016047475034
 30
0.0
  9
$LIMMIN
 10
0.0
 20
0.0
  9
$LIMMAX
 10
11.6929133858000007
 20
8.2677165353999982
  9
$ORTHOMODE
 70
     0
  9
$REGENMODE
 70
     1
  9
$FILLMODE
 70
     1
  9
$QTEXTMODE
 70
     0
  9
$MIRRTEXT
 70
     0
  9
$DRAGMODE
 70
     2
  9
$LTSCALE
 40
0.6431102362
  9
$OSMODE
 70
  3839
  9
$ATTMODE
 70
     1
  9
$TEXTSIZE
 40
0.2
  9
$TRACEWID
 40
0.05
  9
$TEXTSTYLE
  7
STANDARD
  9
$CLAYER
  8
0
  9
$CELTYPE
  6
BYLAYER
  9
$CECOLOR
 62
   256
  9
$DIMSCALE
 40
1.0
  9
$DIMASZ
 40
0.1875
  9
$DIMEXO
 40
0.0625
  9
$DIMDLI
 40
0.4443307087
  9
$DIMRND
 40
0.0
  9
$DIMDLE
 40
0.0
  9
$DIMEXE
 40
0.125
  9
$DIMTP
 40
0.01
  9
$DIMTM
 40
0.01
  9
$DIMTXT
 40
2.0
  9
$DIMCEN
 40
0.1052362205
  9
$DIMTSZ
 40
0.0
  9
$DIMTOL
 70
     1
  9
$DIMLIM
 70
     0
  9
$DIMTIH
 70
     1
  9
$DIMTOH
 70
     1
  9
$DIMSE1
 70
     0
  9
$DIMSE2
 70
     0
  9
$DIMTAD
 70
     0
  9
$DIMZIN
 70
     0
  9
$DIMBLK
  1

  9
$DIMASO
 70
     1
  9
$DIMSHO
 70
     1
  9
$DIMPOST
  1
\X
  9
$DIMAPOST
  1

  9
$DIMALT
 70
     1
  9
$DIMALTD
 70
     2
  9
$DIMALTF
 40
25.3999999999999986
  9
$DIMLFAC
 40
1.0
  9
$DIMTOFL
 70
     0
  9
$DIMTVP
 40
0.0
  9
$DIMTIX
 70
     0
  9
$DIMSOXD
 70
     0
  9
$DIMSAH
 70
     0
  9
$DIMBLK1
  1

  9
$DIMBLK2
  1

  9
$DIMSTYLE
  2
STANDARD
  9
$DIMCLRD
 70
     0
  9
$DIMCLRE
 70
     0
  9
$DIMCLRT
 70
     0
  9
$DIMTFAC
 40
1.0
  9
$DIMGAP
 40
0.09
  9
$LUNITS
 70
     2
  9
$LUPREC
 70
     4
  9
$SKETCHINC
 40
0.1
  9
$FILLETRAD
 40
0.0
  9
$AUNITS
 70
     0
  9
$AUPREC
 70
     0
  9
$MENU
  1
.
  9
$ELEVATION
 40
0.0
  9
$PELEVATION
 40
0.0
  9
$THICKNESS
 40
0.0
  9
$LIMCHECK
 70
     0
  9
$BLIPMODE
 70
     0
  9
$CHAMFERA
 40
0.0
  9
$CHAMFERB
 40
0.0
  9
$SKPOLY
 70
     0
  9
$TDCREATE
 40
2458060.468368056230247
  9
$TDUPDATE
 40
2459178.5166782410815358
  9
$TDINDWG
 40
0.5821366898
  9
$TDUSRTIMER
 40
0.5821366898
  9
$USRTIMER
 70
     1
  9
$ANGBASE
 50
0.0
  9
$ANGDIR
 70
     0
  9
$PDMODE
 70
     0
  9
$PDSIZE
 40
0.3125
  9
$PLINEWID
 40
0.0
  9
$COORDS
 70
     1
  9
$SPLFRAME
 70
     0
  9
$SPLINETYPE
 70
     6
  9
$SPLINESEGS
 70
     8
  9
$ATTDIA
 70
     1
  9
$ATTREQ
 70
     1
  9
$HANDLING
 70
     1
  9
$HANDSEED
  5
13D73
  9
$SURFTAB1
 70
     6
  9
$SURFTAB2
 70
     6
  9
$SURFTYPE
 70
     6
  9
$SURFU
 70
     6
  9
$SURFV
 70
     6
  9
$UCSNAME
  2

  9
$UCSORG
 10
0.0
 20
0.0
 30
0.0
  9
$UCSXDIR
 10
1.0
 20
0.0
 30
0.0
  9
$UCSYDIR
 10
0.0
 20
1.0
 30
0.0
  9
$PUCSNAME
  2

  9
$PUCSORG
 10
0.0
 20
0.0
 30
0.0
  9
$PUCSXDIR
 10
1.0
 20
0.0
 30
0.0
  9
$PUCSYDIR
 10
0.0
 20
1.0
 30
0.0
  9
$USERI1
 70
     0
  9
$USERI2
 70
     0
  9
$USERI3
 70
     0
  9
$USERI4
 70
     0
  9
$USERI5
 70
     0
  9
$USERR1
 40
0.0
  9
$USERR2
 40
0.0
  9
$USERR3
 40
0.0
  9
$USERR4
 40
0.0
  9
$USERR5
 40
0.0
  9
$WORLDVIEW
 70
     1
  9
$SHADEDGE
 70
     3
  9
$SHADEDIF
 70
    70
  9
$TILEMODE
 70
     1
  9
$MAXACTVP
 70
    64
  9
$PLIMCHECK
 70
     0
  9
$PEXTMIN
 10
1.0000000000000000E+20
 20
1.0000000000000000E+20
 30
1.0000000000000000E+20
  9
$PEXTMAX
 10
-1.0000000000000000E+20
 20
-1.0000000000000000E+20
 30
-1.0000000000000000E+20
  9
$PLIMMIN
 10
0.0
 20
0.0
  9
$PLIMMAX
 10
12.0
 20
9.0
  9
$UNITMODE
 70
     0
  9
$VISRETAIN
 70
     1
  9
$PLINEGEN
 70
     0
  9
$PSLTSCALE
 70
     1
  0
ENDSEC
  0
SECTION
  2
TABLES
  0
TABLE
  2
VPORT
 70
     1
  0
VPORT
  2
*ACTIVE
 70
     0
 10
0.0
 20
0.0
 11
1.0
 21
1.0
 12
0.0
 22
0.0
 13
0.0
 23
0.0
 14
1.0
 24
1.0
 15
0.0
 25
0.0
 16
0.0
 26
0.0
 36
28.0498232996294092
 17
3511.2080078125009095
 27
159.2052230834960938
 37
0.0
 40
7.1366163931979001
 41
3.1182994454713491
 42
50.0
 43
0.0
 44
0.0
 50
0.0
 51
0.0
 71
     0
 72
   100
 73
     1
 74
     1
 75
     0
 76
     0
 77
     0
 78
     0
  0
ENDTAB
  0
TABLE
  2
LTYPE
 70
     2
  0
LTYPE
  2
CONTINUOUS
 70
     0
  3
Solid line
 72
    65
 73
     0
 40
0.0
  0
LTYPE
  2
PHANTOM2
 70
     0
  3
___ _ _ ___ _ _ ___ _ _ ___ _ _
 72
    65
 73
     6
 40
1.25
 49
0.625
 49
-0.125
 49
0.125
 49
-0.125
 49
0.125
 49
-0.125
  0
ENDTAB
  0
TABLE
  2
LAYER
 70
     2
  0
LAYER
  2
0
 70
     0
 62
   255
  6
CONTINUOUS
  0
LAYER
  2
DEFPOINTS
 70
     0
 62
     7
  6
CONTINUOUS
  0
ENDTAB
  0
TABLE
  2
STYLE
 70
     1
  0
STYLE
  2
STANDARD
 70
     0
 40
0.0
 41
0.8
 50
0.0
 71
     0
 42
0.2
  3
txt
  4

  0
ENDTAB
  0
TABLE
  2
VIEW
 70
     0
  0
ENDTAB
  0
TABLE
  2
UCS
 70
     0
  0
ENDTAB
  0
TABLE
  2
APPID
 70
     9
  0
APPID
  2
ACAD
 70
     0
  0
APPID
  2
ACAD_MLEADERVER
 70
     0
  0
APPID
  2
ACAD_EXEMPT_FROM_CAD_STANDARDS
 70
     0
  0
APPID
  2
ACAD_NAV_VCDISPLAY
 70
     0
  0
APPID
  2
ACAECLAYERSTANDARD
 70
     0
  0
APPID
  2
ACCMTRANSPARENCY
 70
     0
  0
APPID
  2
ACAD_DSTYLE_DIMJAG
 70
     0
  0
APPID
  2
ACAD_DSTYLE_DIMTALN
 70
     0
  0
APPID
  2
ACDBATTR
 70
     0
  0
ENDTAB
  0
TABLE
  2
DIMSTYLE
 70
     1
  0
DIMSTYLE
  2
STANDARD
 70
     0
  3

  4

  5

  6

  7

 40
1.0
 41
0.1875
 42
0.0625
 43
0.38
 44
0.125
 45
0.0
 46
0.0
 47
0.01
 48
0.01
140
0.15625
141
0.09
142
0.0
143
25.3999999999999986
144
1.0
145
0.0
146
1.0
147
0.09
 71
     1
 72
     0
 73
     1
 74
     1
 75
     0
 76
     0
 77
     0
 78
     4
170
     0
171
     2
172
     0
173
     0
174
     0
175
     0
176
     0
177
     0
178
     0
  0
ENDTAB
  0
ENDSEC
  0
SECTION
  2
BLOCKS
  0
BLOCK
  8
0
  2
$MODEL_SPACE
 70
     0
 10
0.0
 20
0.0
 30
0.0
  3
$MODEL_SPACE
  1

  0
ENDBLK
  5
21
  8
0
  0
BLOCK
 67
     1
  8
0
  2
$PAPER_SPACE
 70
     0
 10
0.0
 20
0.0
 30
0.0
  3
$PAPER_SPACE
  1

  0
ENDBLK
  5
1D
 67
     1
  8
0
  0
BLOCK
  8
0
  2
_FILLED
 70
     0
 10
0.0
 20
0.0
 30
0.0
  3
_FILLED
  1

  0
SOLID
  5
13356
  8
0
  6
BYBLOCK
 62
     0
 10
0.0
 20
0.0
 30
0.0
 11
-1.0
 21
0.1666666667
 31
0.0
 12
-1.0
 22
-0.1666666667
 32
0.0
 13
-1.0
 23
-0.1666666667
 33
0.0
  0
ENDBLK
  5
13357
  8
0
  6
BYBLOCK
 62
     0
  0
ENDSEC
  0
SECTION
  2
ENTITIES
  0
ATTDEF
  5
12BEB
  8
DEFPOINTS
 10
3511.2082811038258114
 20
161.3102777047085965
 30
0.0
 40
0.001
  1
K-18082T
  3

  2
MODELNUMBER
 70
     0
1001
ACDBATTR
1070
     0
1070
     1
  0
ATTDEF
  5
12BEC
  8
DEFPOINTS
 10
3511.2082811038258114
 20
161.3086110380419029
 30
0.0
 40
0.001
  1
FALLING WATER
  3

  2
TRADENAME
 70
     0
1001
ACDBATTR
1070
     0
1070
     1
  0
ATTDEF
  5
12BED
  8
DEFPOINTS
 10
3511.2082811038258114
 20
161.3069443713752094
 30
0.0
 40
0.001
  1
BATHROOM SINK FAUCET
  3

  2
PRODUCT
 70
     0
1001
ACDBATTR
1070
     0
1070
     1
  0
ARC
  5
13A9D
  8
0
 10
3511.2081021042040447
 20
161.3116016047474943
 30
0.0
 40
1.24
 50
286.0821983917327884
 51
253.9178016082672116
  0
ARC
  5
13A9E
  8
0
 10
3511.2081021042040447
 20
161.3116016047474943
 30
0.0
 40
0.8737500000000002
 50
293.1495877616212056
 51
246.8504122383789081
  0
ARC
  5
13A9F
  8
0
 10
3511.2081021042040447
 20
161.3116016047474943
 30
0.0
 40
0.8849999999999997
 50
292.8385402071057229
 51
247.1614597928943056
  0
ARC
  5
13AA0
  8
0
 10
3511.2081021042040447
 20
161.3116016047474943
 30
0.0
 40
0.3600000000000003
 50
342.5858920394109077
 51
197.4141079605890923
  0
ARC
  5
13AA1
  8
0
 10
3511.2081021042040447
 20
161.3116016047474943
 30
0.0
 40
1.179939749499999
 50
286.9248146205504781
 51
253.0751853794494934
  0
LINE
  5
13AA2
  8
0
 10
3511.5516021042049033
 20
161.3116016047474943
 30
0.0
 11
3511.5516021042049033
 21
158.8092350425663994
 31
0.0
  0
ARC
  5
13AA3
  8
0
 10
3511.2872406645328738
 20
158.606516645632297
 30
0.0
 40
0.3458043873376764
 50
47.1955172430462966
 51
76.7423519534072511
  0
ARC
  5
13AA4
  8
0
 10
3511.3949043280649676
 20
158.7528873694672029
 30
0.0
 40
0.1665210296349854
 50
11.9885450839047607
 51
40.1349909308564179
  0
ARC
  5
13AA5
  8
0
 10
3510.5886308089898193
 20
158.4876862784778098
 30
0.0
 40
1.0144704399561479
 50
341.3673396957030945
 51
17.188360262731301
  0
ARC
  5
13AA6
  8
0
 10
3511.303595907827912
 20
158.0382855576623058
 30
0.0
 40
0.312926490181137
 50
43.6095369747961925
 51
79.1204990207122165
  0
ARC
  5
13AA7
  8
0
 10
3511.4594033372309241
 20
158.1911073000518115
 30
0.0
 40
0.0947592831280327
 50
327.4067900306868069
 51
41.6833574393299529
  0
ARC
  5
13AA8
  8
0
 10
3511.3598262700288615
 20
158.2634599892703875
 30
0.0
 40
0.2177519087623542
 50
296.8511791872883805
 51
325.4806104952397163
  0
ARC
  5
13AA9
  8
0
 10
3511.2457276712748353
 20
158.488177000376993
 30
0.0
 40
0.4697760826142517
 50
278.9785176694915094
 51
296.8875023497192274
  0
ARC
  5
13AAA
  8
0
 10
3511.2081021042040447
 20
156.941522864547494
 30
0.0
 40
1.0826771653999989
 50
94.6394038970974805
 51
85.3605961029025053
  0
ARC
  5
13AAB
  8
0
 10
3510.0782497153240911
 20
156.9414620961368882
 30
0.0
 40
1.2991437296020301
 50
337.0071503147642034
 51
22.9990129212306407
  0
ARC
  5
13AAC
  8
0
 10
3510.3839358229670324
 20
156.9415228645607101
 30
0.0
 40
0.9914891158379368
 50
328.0033028017300012
 51
32.9046955905987204
  0
ARC
  5
13AAD
  8
0
 10
3511.2081021042040447
 20
156.941522864547693
 30
0.0
 40
0.5118110236002015
 50
272.8434315192569102
 51
277.418068310802596
  0
ARC
  5
13AAE
  8
0
 10
3511.2081021042040447
 20
156.9415228645482898
 30
0.0
 40
0.511811023599188
 50
82.588094925183924
 51
87.1565684788909749
  0
ARC
  5
13AAF
  8
0
 10
3511.2207758391527932
 20
157.8572872036149874
 30
0.0
 40
0.4714645162279614
 50
68.3672996173693264
 51
84.4547763381588936
  0
ARC
  5
13AB0
  8
0
 10
3511.3084779867749603
 20
158.0784287138313005
 30
0.0
 40
0.2335669873665515
 50
48.0429891057822118
 51
68.3672996173693264
  0
ARC
  5
13AB1
  8
0
 10
3511.4037034125340142
 20
158.1843469722801956
 30
0.0
 40
0.0911360947067105
 50
308.3516474232122277
 51
48.0429891057822118
  0
ARC
  5
13AB2
  8
0
 10
3511.2719672597581848
 20
158.3508450845891957
 30
0.0
 40
0.3034472704625146
 50
281.3922591384350085
 51
308.3516474232122277
  0
ARC
  5
13AB3
  8
0
 10
3511.2562865746799616
 20
158.3834633895147022
 30
0.0
 40
0.3273698768750457
 50
278.7025653489188812
 51
305.5478782509651978
  0
ARC
  5
13AB4
  8
0
 10
3511.3872180382140868
 20
158.2002283207893925
 30
0.0
 40
0.1021629974200034
 50
305.5478782509651978
 51
11.4754581882201396
  0
ARC
  5
13AB5
  8
0
 10
3511.2427497921089525
 20
158.5804115582174063
 30
0.0
 40
0.3690315594991041
 50
277.6046241038282005
 51
302.7164393633574946
  0
ARC
  5
13AB6
  8
0
 10
3511.2330169719889454
 20
158.5878161365012033
 30
0.0
 40
0.3453646879398037
 50
279.9501302254117263
 51
300.3816428023113758
  0
ARC
  5
13AB7
  8
0
 10
3511.2411647850558438
 20
158.5336370131572892
 30
0.0
 40
0.3027272608494363
 50
278.5400646487453855
 51
305.139813270057914
  0
LINE
  5
13AB8
  8
0
 10
3511.2081021042040447
 20
158.2839430242599121
 30
0.0
 11
3511.2323392952039285
 21
158.2769485229474924
 31
0.0
  0
ARC
  5
13AB9
  8
0
 10
3511.233594428860215
 20
158.2812977842847033
 30
0.0
 40
0.0045267465879252
 50
253.9026282384693047
 51
289.0323289808455911
  0
LINE
  5
13ABA
  8
0
 10
3511.2350706082052056
 20
158.2770184935475015
 30
0.0
 11
3511.2350706082052056
 21
158.2986123028474879
 31
0.0
  0
ARC
  5
13ABB
  8
0
 10
3511.2064458980498785
 20
158.2912586809410129
 30
0.0
 40
0.0066226708218665
 50
284.4823233817169807
 51
353.3017630309001902
  0
LINE
  5
13ABC
  8
0
 10
3511.2130233641041741
 20
158.2904862114475009
 30
0.0
 11
3511.2130233641041741
 21
158.3009359193169985
 31
0.0
  0
LINE
  5
13ABD
  8
0
 10
3511.2350706082052056
 20
158.2986123028474879
 30
0.0
 11
3511.2200234513102259
 21
158.3029560428182947
 31
0.0
  0
LINE
  5
13ABE
  8
0
 10
3511.2620391122040928
 20
158.2839430242599121
 30
0.0
 11
3511.2378019212042091
 21
158.2769485229474924
 31
0.0
  0
ARC
  5
13ABF
  8
0
 10
3511.2365467875488321
 20
158.2812977842847033
 30
0.0
 40
0.0045267465879252
 50
250.9676710191544089
 51
286.09737176153061
  0
ARC
  5
13AC0
  8
0
 10
3511.2636953183591686
 20
158.2912586809410129
 30
0.0
 40
0.0066226708218665
 50
186.6982369690998098
 51
255.5176766182829056
  0
LINE
  5
13AC1
  8
0
 10
3511.2571178523048729
 20
158.2904862114475009
 30
0.0
 11
3511.2571178523048729
 21
158.3009342748524091
 31
0.0
  0
LINE
  5
13AC2
  8
0
 10
3511.2350706082052056
 20
158.2986123028474879
 30
0.0
 11
3511.2501177650988211
 21
158.3029560428182947
 31
0.0
  0
LINE
  5
13AC3
  8
0
 10
3511.2620391122040928
 20
158.2839430242599121
 30
0.0
 11
3511.2862763032048861
 21
158.2769485229474924
 31
0.0
  0
ARC
  5
13AC4
  8
0
 10
3511.2875314368598083
 20
158.2812977842847033
 30
0.0
 40
0.0045267465879252
 50
253.9026282384693047
 51
289.0323289808455911
  0
LINE
  5
13AC5
  8
0
 10
3511.289007616204799
 20
158.2770184935475015
 30
0.0
 11
3511.289007616204799
 21
158.2986123028474879
 31
0.0
  0
ARC
  5
13AC6
  8
0
 10
3511.2603829060499265
 20
158.2912586809410129
 30
0.0
 40
0.0066226708218665
 50
284.4823233817169807
 51
353.3017630309001902
  0
LINE
  5
13AC7
  8
0
 10
3511.2669603721042222
 20
158.2904862114475009
 30
0.0
 11
3511.2669603721042222
 21
158.3009342748524091
 31
0.0
  0
LINE
  5
13AC8
  8
0
 10
3511.289007616204799
 20
158.2986123028474879
 30
0.0
 11
3511.2739604593089098
 21
158.3029560428182947
 31
0.0
  0
LINE
  5
13AC9
  8
0
 10
3511.3159761202041409
 20
158.2839430242599121
 30
0.0
 11
3511.2917389292038024
 21
158.2769485229474924
 31
0.0
  0
ARC
  5
13ACA
  8
0
 10
3511.2904837955488802
 20
158.2812977842847033
 30
0.0
 40
0.0045267465879252
 50
250.9676710191544089
 51
286.09737176153061
  0
ARC
  5
13ACB
  8
0
 10
3511.3176323263592167
 20
158.2912586809410129
 30
0.0
 40
0.0066226708218665
 50
186.6982369690998098
 51
255.5176766182829056
  0
LINE
  5
13ACC
  8
0
 10
3511.3110548603040115
 20
158.2904862114475009
 30
0.0
 11
3511.3110548603040115
 21
158.3009342748524091
 31
0.0
  0
LINE
  5
13ACD
  8
0
 10
3511.289007616204799
 20
158.2986123028474879
 30
0.0
 11
3511.3040547730988692
 21
158.3029560428182947
 31
0.0
  0
LINE
  5
13ACE
  8
0
 10
3511.3159761202041409
 20
158.2839430242599121
 30
0.0
 11
3511.3402133112040246
 21
158.2769485229474924
 31
0.0
  0
ARC
  5
13ACF
  8
0
 10
3511.3414684448598564
 20
158.2812977842847033
 30
0.0
 40
0.0045267465879252
 50
253.9026282384693047
 51
289.0323289808455911
  0
LINE
  5
13AD0
  8
0
 10
3511.3429446242048471
 20
158.2770184935475015
 30
0.0
 11
3511.3429446242048471
 21
158.2986123028474879
 31
0.0
  0
ARC
  5
13AD1
  8
0
 10
3511.3143199140499746
 20
158.2912586809410129
 30
0.0
 40
0.0066226708218665
 50
284.4823233817169807
 51
353.3017630309001902
  0
LINE
  5
13AD2
  8
0
 10
3511.3208973801038155
 20
158.2904862114475009
 30
0.0
 11
3511.3208973801038155
 21
158.3009342748524091
 31
0.0
  0
LINE
  5
13AD3
  8
0
 10
3511.3429446242048471
 20
158.2986123028474879
 30
0.0
 11
3511.3278974673089579
 21
158.3029560428182947
 31
0.0
  0
LINE
  5
13AD4
  8
0
 10
3511.369913128204189
 20
158.2839430242599121
 30
0.0
 11
3511.3456759372038505
 21
158.2769485229474924
 31
0.0
  0
ARC
  5
13AD5
  8
0
 10
3511.3444208035489282
 20
158.2812977842847033
 30
0.0
 40
0.0045267465879252
 50
250.9676710191544089
 51
286.09737176153061
  0
ARC
  5
13AD6
  8
0
 10
3511.37156933435881
 20
158.2912586809410129
 30
0.0
 40
0.0066226708218665
 50
186.6982369690998098
 51
255.5176766182829056
  0
LINE
  5
13AD7
  8
0
 10
3511.3649918683049691
 20
158.2904862114475009
 30
0.0
 11
3511.3649918683049691
 21
158.3061530265484862
 31
0.0
  0
LINE
  5
13AD8
  8
0
 10
3511.3429446242048471
 20
158.2986123028474879
 30
0.0
 11
3511.3579917810989173
 21
158.3029560428182947
 31
0.0
  0
LINE
  5
13AD9
  8
0
 10
3511.369913128204189
 20
158.2839430242599121
 30
0.0
 11
3511.3863222798131574
 21
158.2792075814249131
 31
0.0
  0
ARC
  5
13ADA
  8
0
 10
3511.3682569220500227
 20
158.2912586809410129
 30
0.0
 40
0.0066226708218665
 50
284.4823233817169807
 51
353.3017630309001902
  0
LINE
  5
13ADB
  8
0
 10
3511.3748343881038636
 20
158.2904862114475009
 30
0.0
 11
3511.3748343881038636
 21
158.3028708136781972
 31
0.0
  0
LINE
  5
13ADC
  8
0
 10
3511.2081021042040447
 20
158.3003739030475003
 30
0.0
 11
3511.2081021042040447
 21
158.3219677123474867
 31
0.0
  0
LINE
  5
13ADD
  8
0
 10
3511.2350706082052056
 20
158.3072984337599109
 30
0.0
 11
3511.2108334172039577
 21
158.3003039324474912
 31
0.0
  0
ARC
  5
13ADE
  8
0
 10
3511.2095782835490354
 20
158.3046531937847021
 30
0.0
 40
0.0045267465879252
 50
250.9676710191544089
 51
286.09737176153061
  0
ARC
  5
13ADF
  8
0
 10
3511.2367268143589172
 20
158.3146140904410117
 30
0.0
 40
0.0066226708218665
 50
186.6982369690998098
 51
255.5176766182829056
  0
LINE
  5
13AE0
  8
0
 10
3511.2301493483050763
 20
158.3138416209474997
 30
0.0
 11
3511.2301493483050763
 21
158.3242913288459022
 31
0.0
  0
LINE
  5
13AE1
  8
0
 10
3511.2081021042040447
 20
158.3219677123474867
 30
0.0
 11
3511.2231492611490467
 21
158.3263114523327886
 31
0.0
  0
LINE
  5
13AE2
  8
0
 10
3511.2350706082052056
 20
158.3072984337599109
 30
0.0
 11
3511.2593077992050894
 21
158.3003039324474912
 31
0.0
  0
ARC
  5
13AE3
  8
0
 10
3511.2605629328600116
 20
158.3046531937847021
 30
0.0
 40
0.0045267465879252
 50
253.9026282384693047
 51
289.0323289808455911
  0
LINE
  5
13AE4
  8
0
 10
3511.2620391122040928
 20
158.3003739030475003
 30
0.0
 11
3511.2620391122040928
 21
158.3219677123474867
 31
0.0
  0
ARC
  5
13AE5
  8
0
 10
3511.2334144020501299
 20
158.3146140904410117
 30
0.0
 40
0.0066226708218665
 50
284.4823233817169807
 51
353.3017630309001902
  0
LINE
  5
13AE6
  8
0
 10
3511.2399918681039708
 20
158.3138416209474997
 30
0.0
 11
3511.2399918681039708
 21
158.3242913287882061
 31
0.0
  0
LINE
  5
13AE7
  8
0
 10
3511.2620391122040928
 20
158.3219677123474867
 30
0.0
 11
3511.2469919553600448
 21
158.3263114523039121
 31
0.0
  0
LINE
  5
13AE8
  8
0
 10
3511.289007616204799
 20
158.3072984337599109
 30
0.0
 11
3511.2647704252040057
 21
158.3003039324474912
 31
0.0
  0
ARC
  5
13AE9
  8
0
 10
3511.2635152915490835
 20
158.3046531937847021
 30
0.0
 40
0.0045267465879252
 50
250.9676710191544089
 51
286.09737176153061
  0
ARC
  5
13AEA
  8
0
 10
3511.2906638223589653
 20
158.3146140904410117
 30
0.0
 40
0.0066226708218665
 50
186.6982369690998098
 51
255.5176766182829056
  0
LINE
  5
13AEB
  8
0
 10
3511.2840863563051244
 20
158.3138416209474997
 30
0.0
 11
3511.2840863563051244
 21
158.3244815619713961
 31
0.0
  0
LINE
  5
13AEC
  8
0
 10
3511.2620391122040928
 20
158.3219677123474867
 30
0.0
 11
3511.2747870532330126
 21
158.3256477258792927
 31
0.0
  0
LINE
  5
13AED
  8
0
 10
3511.289007616204799
 20
158.3072984337599109
 30
0.0
 11
3511.3132448072051375
 21
158.3003039324474912
 31
0.0
  0
ARC
  5
13AEE
  8
0
 10
3511.3144999408600597
 20
158.3046531937847021
 30
0.0
 40
0.0045267465879252
 50
253.9026282384693047
 51
289.0323289808455911
  0
LINE
  5
13AEF
  8
0
 10
3511.3159761202041409
 20
158.3003739030475003
 30
0.0
 11
3511.3159761202041409
 21
158.3190400558528097
 31
0.0
  0
ARC
  5
13AF0
  8
0
 10
3511.2873514100501779
 20
158.3146140904410117
 30
0.0
 40
0.0066226708218665
 50
284.4823233817169807
 51
353.3017630309001902
  0
LINE
  5
13AF1
  8
0
 10
3511.2939288761040189
 20
158.3138416209474997
 30
0.0
 11
3511.2939288761040189
 21
158.3230418850158117
 31
0.0
  0
LINE
  5
13AF2
  8
0
 10
3511.3429446242048471
 20
158.3072984337599109
 30
0.0
 11
3511.3187074332040538
 21
158.3003039324474912
 31
0.0
  0
ARC
  5
13AF3
  8
0
 10
3511.3174522995491316
 20
158.3046531937847021
 30
0.0
 40
0.0045267465879252
 50
250.9676710191544089
 51
286.09737176153061
  0
ARC
  5
13AF4
  8
0
 10
3511.3446008303590133
 20
158.3146140904410117
 30
0.0
 40
0.0066226708218665
 50
186.6982369690998098
 51
255.5176766182829056
  0
LINE
  5
13AF5
  8
0
 10
3511.3380233643051724
 20
158.3138416209474997
 30
0.0
 11
3511.3380233643051724
 21
158.3139400344481089
 31
0.0
  0
LINE
  5
13AF6
  8
0
 10
3511.3429446242048471
 20
158.3072984337599109
 30
0.0
 11
3511.3649918683049691
 21
158.3009359193169985
 31
0.0
  0
ARC
  5
13AF7
  8
0
 10
3511.341288418050226
 20
158.3146140904410117
 30
0.0
 40
0.0066226708218665
 50
284.4823233817169807
 51
331.9829025941955933
  0
LINE
  5
13AF8
  8
0
 10
3511.2081021042040447
 20
158.2536630840475027
 30
0.0
 11
3511.2081021042040447
 21
158.275256893347489
 31
0.0
  0
LINE
  5
13AF9
  8
0
 10
3511.2350706082052056
 20
158.2605876147599133
 30
0.0
 11
3511.2108334172039577
 21
158.2535931134474936
 31
0.0
  0
ARC
  5
13AFA
  8
0
 10
3511.2095782835490354
 20
158.2579423747847045
 30
0.0
 40
0.0045267465879252
 50
250.9676710191544089
 51
286.09737176153061
  0
ARC
  5
13AFB
  8
0
 10
3511.2367268143589172
 20
158.2679032714410141
 30
0.0
 40
0.0066226708218665
 50
186.6982369690998098
 51
255.5176766182829056
  0
LINE
  5
13AFC
  8
0
 10
3511.2301493483050763
 20
158.2671308019475021
 30
0.0
 11
3511.2301493483050763
 21
158.2775805098169997
 31
0.0
  0
LINE
  5
13AFD
  8
0
 10
3511.2081021042040447
 20
158.275256893347489
 30
0.0
 11
3511.2231492610990244
 21
158.2796006333182959
 31
0.0
  0
LINE
  5
13AFE
  8
0
 10
3511.2350706082052056
 20
158.2605876147599133
 30
0.0
 11
3511.2593077992050894
 21
158.2535931134474936
 31
0.0
  0
ARC
  5
13AFF
  8
0
 10
3511.2605629328600116
 20
158.2579423747847045
 30
0.0
 40
0.0045267465879252
 50
253.9026282384693047
 51
289.0323289808455911
  0
LINE
  5
13B00
  8
0
 10
3511.2620391122040928
 20
158.2536630840475027
 30
0.0
 11
3511.2620391122040928
 21
158.275256893347489
 31
0.0
  0
ARC
  5
13B01
  8
0
 10
3511.2334144020501299
 20
158.2679032714410141
 30
0.0
 40
0.0066226708218665
 50
284.4823233817169807
 51
353.3017630309001902
  0
LINE
  5
13B02
  8
0
 10
3511.2399918681039708
 20
158.2671308019475021
 30
0.0
 11
3511.2399918681039708
 21
158.2775805098169997
 31
0.0
  0
LINE
  5
13B03
  8
0
 10
3511.2620391122040928
 20
158.275256893347489
 30
0.0
 11
3511.2469919553100226
 21
158.2796006333182959
 31
0.0
  0
LINE
  5
13B04
  8
0
 10
3511.289007616204799
 20
158.2605876147599133
 30
0.0
 11
3511.2647704252040057
 21
158.2535931134474936
 31
0.0
  0
ARC
  5
13B05
  8
0
 10
3511.2635152915490835
 20
158.2579423747847045
 30
0.0
 40
0.0045267465879252
 50
250.9676710191544089
 51
286.09737176153061
  0
ARC
  5
13B06
  8
0
 10
3511.2906638223589653
 20
158.2679032714410141
 30
0.0
 40
0.0066226708218665
 50
186.6982369690998098
 51
255.5176766182829056
  0
LINE
  5
13B07
  8
0
 10
3511.2840863563051244
 20
158.2671308019475021
 30
0.0
 11
3511.2840863563051244
 21
158.2775805098169997
 31
0.0
  0
LINE
  5
13B08
  8
0
 10
3511.2620391122040928
 20
158.275256893347489
 30
0.0
 11
3511.277086269099982
 21
158.2796006333182959
 31
0.0
  0
LINE
  5
13B09
  8
0
 10
3511.289007616204799
 20
158.2605876147599133
 30
0.0
 11
3511.3132448072051375
 21
158.2535931134474936
 31
0.0
  0
ARC
  5
13B0A
  8
0
 10
3511.3144999408600597
 20
158.2579423747847045
 30
0.0
 40
0.0045267465879252
 50
253.9026282384693047
 51
289.0323289808455911
  0
LINE
  5
13B0B
  8
0
 10
3511.3159761202041409
 20
158.2536630840475027
 30
0.0
 11
3511.3159761202041409
 21
158.275256893347489
 31
0.0
  0
ARC
  5
13B0C
  8
0
 10
3511.2873514100501779
 20
158.2679032714410141
 30
0.0
 40
0.0066226708218665
 50
284.4823233817169807
 51
353.3017630309001902
  0
LINE
  5
13B0D
  8
0
 10
3511.2939288761040189
 20
158.2671308019475021
 30
0.0
 11
3511.2939288761040189
 21
158.2775805098169997
 31
0.0
  0
LINE
  5
13B0E
  8
0
 10
3511.3159761202041409
 20
158.275256893347489
 30
0.0
 11
3511.3009289633100707
 21
158.2796006333182959
 31
0.0
  0
ARC
  5
13B0F
  8
0
 10
3511.3446008303590133
 20
158.2679032714410141
 30
0.0
 40
0.0066226708218665
 50
186.6982369690998098
 51
255.5176766182829056
  0
LINE
  5
13B10
  8
0
 10
3511.3380233643051724
 20
158.2671308019475021
 30
0.0
 11
3511.3380233643051724
 21
158.2775788653524103
 31
0.0
  0
LINE
  5
13B11
  8
0
 10
3511.3159761202041409
 20
158.275256893347489
 30
0.0
 11
3511.3310232770991206
 21
158.2796006333182959
 31
0.0
  0
ARC
  5
13B12
  8
0
 10
3511.341288418050226
 20
158.2679032714410141
 30
0.0
 40
0.0066226708218665
 50
284.4823233817169807
 51
353.3017630309001902
  0
LINE
  5
13B13
  8
0
 10
3511.3478658841040669
 20
158.2671308019475021
 30
0.0
 11
3511.3478658841040669
 21
158.2775788653524103
 31
0.0
  0
LINE
  5
13B14
  8
0
 10
3511.2121523684181739
 20
158.3294849958610087
 30
0.0
 11
3511.2323392953039729
 21
158.32365934194749
 31
0.0
  0
ARC
  5
13B15
  8
0
 10
3511.2335944289598046
 20
158.3280086032847009
 30
0.0
 40
0.0045267465879252
 50
253.9026282384693047
 51
289.0323289808455911
  0
LINE
  5
13B16
  8
0
 10
3511.2350706083038858
 20
158.3237293125474991
 30
0.0
 11
3511.2350706083038858
 21
158.3288669767451893
 31
0.0
  0
LINE
  5
13B17
  8
0
 10
3511.2521801003349537
 20
158.3278086755935874
 30
0.0
 11
3511.237801921305163
 21
158.32365934194749
 31
0.0
  0
ARC
  5
13B18
  8
0
 10
3511.2365467876488765
 20
158.3280086032847009
 30
0.0
 40
0.0045267465879252
 50
250.9676710191544089
 51
286.09737176153061
  0
ARC
  5
13B19
  8
0
 10
3511.3851546613491337
 20
158.2855138572828082
 30
0.0
 40
0.006413458355274
 50
280.4896288060451752
 51
1.2704460622486651
  0
LINE
  5
13B1A
  8
0
 10
3511.3915665431400157
 20
158.2856560542356021
 30
0.0
 11
3511.3913188381779946
 21
158.2968254562682944
 31
0.0
  0
ARC
  5
13B1B
  8
0
 10
3511.1289635438761252
 20
158.606516645632297
 30
0.0
 40
0.3458043873376764
 50
103.2576480465927062
 51
132.8044827569536892
  0
ARC
  5
13B1C
  8
0
 10
3511.0212998803440314
 20
158.7528873694672029
 30
0.0
 40
0.1665210296349854
 50
139.8650090691434968
 51
168.0114549160952038
  0
ARC
  5
13B1D
  8
0
 10
3511.8275733994191796
 20
158.4876862784778098
 30
0.0
 40
1.0144704399561479
 50
162.8116397372687061
 51
198.6326603042967918
  0
ARC
  5
13B1E
  8
0
 10
3511.1126083005801775
 20
158.0382855576623058
 30
0.0
 40
0.312926490181137
 50
100.8795009792877977
 51
136.3904630252037862
  0
ARC
  5
13B1F
  8
0
 10
3510.9568008711780749
 20
158.1911073000518115
 30
0.0
 40
0.0947592831280327
 50
138.3166425606700045
 51
212.5932099693133068
  0
ARC
  5
13B20
  8
0
 10
3511.0563779383801375
 20
158.2634599892703875
 30
0.0
 40
0.2177519087623542
 50
214.5193895047603121
 51
243.1488208127115911
  0
ARC
  5
13B21
  8
0
 10
3511.1704765371341637
 20
158.488177000376993
 30
0.0
 40
0.4697760826142517
 50
243.1124976502808011
 51
261.0214823305084906
  0
ARC
  5
13B22
  8
0
 10
3512.3379544930849079
 20
156.9414620961368882
 30
0.0
 40
1.2991437296020301
 50
157.0009870787694126
 51
202.9928496852357966
  0
ARC
  5
13B23
  8
0
 10
3512.0322683854419665
 20
156.9415228645607101
 30
0.0
 40
0.9914891158379368
 50
147.095304409401308
 51
211.9966971982701125
  0
ARC
  5
13B24
  8
0
 10
3511.2081021042040447
 20
156.941522864547693
 30
0.0
 40
0.5118110236002015
 50
262.581931689197404
 51
267.1565684807430898
  0
ARC
  5
13B25
  8
0
 10
3511.2081021042040447
 20
156.9415228645482898
 30
0.0
 40
0.511811023599188
 50
92.8434315211090251
 51
97.4119050748160618
  0
ARC
  5
13B26
  8
0
 10
3511.1954283692562058
 20
157.8572872036149874
 30
0.0
 40
0.4714645162279614
 50
95.5452236618411206
 51
111.6327003826307021
  0
ARC
  5
13B27
  8
0
 10
3511.1077262216331292
 20
158.0784287138313005
 30
0.0
 40
0.2335669873665515
 50
111.6327003826307021
 51
131.9570108942178024
  0
ARC
  5
13B28
  8
0
 10
3511.0125007958749848
 20
158.1843469722801956
 30
0.0
 40
0.0911360947067105
 50
131.9570108942178024
 51
231.6483525767878007
  0
ARC
  5
13B29
  8
0
 10
3511.1442369486508142
 20
158.3508450845891957
 30
0.0
 40
0.3034472704625146
 50
231.6483525767878007
 51
258.6077408615649915
  0
ARC
  5
13B2A
  8
0
 10
3511.1599176337281278
 20
158.3834633895147022
 30
0.0
 40
0.3273698768750457
 50
234.4521217490348022
 51
261.2974346510811188
  0
ARC
  5
13B2B
  8
0
 10
3511.0289861701940026
 20
158.2002283207893925
 30
0.0
 40
0.1021629974200034
 50
168.5245418117798124
 51
234.4521217490348022
  0
ARC
  5
13B2C
  8
0
 10
3511.1734544163009559
 20
158.5804115582174063
 30
0.0
 40
0.3690315594991041
 50
237.2835606366425907
 51
262.3953758961717995
  0
ARC
  5
13B2D
  8
0
 10
3511.1831872364200535
 20
158.5878161365012033
 30
0.0
 40
0.3453646879398037
 50
239.6183571976885958
 51
260.0498697745882737
  0
ARC
  5
13B2E
  8
0
 10
3511.1750394233531551
 20
158.5336370131572892
 30
0.0
 40
0.3027272608494363
 50
234.860186729942086
 51
261.4599353512546145
  0
LINE
  5
13B2F
  8
0
 10
3511.2081021042040447
 20
158.2839430242599121
 30
0.0
 11
3511.183864913204161
 21
158.2769485229474924
 31
0.0
  0
ARC
  5
13B30
  8
0
 10
3511.182609779548784
 20
158.2812977842847033
 30
0.0
 40
0.0045267465879252
 50
250.9676710191544089
 51
286.09737176153061
  0
LINE
  5
13B31
  8
0
 10
3511.1811336002037933
 20
158.2770184935475015
 30
0.0
 11
3511.1811336002037933
 21
158.2986123028474879
 31
0.0
  0
ARC
  5
13B32
  8
0
 10
3511.2097583103591205
 20
158.2912586809410129
 30
0.0
 40
0.0066226708218665
 50
186.6982369690998098
 51
255.5176766182829056
  0
LINE
  5
13B33
  8
0
 10
3511.2031808443039154
 20
158.2904862114475009
 30
0.0
 11
3511.2031808443039154
 21
158.3009359193169985
 31
0.0
  0
LINE
  5
13B34
  8
0
 10
3511.1811336002037933
 20
158.2986123028474879
 30
0.0
 11
3511.196180757098773
 21
158.3029560428182947
 31
0.0
  0
LINE
  5
13B35
  8
0
 10
3511.1541650962049061
 20
158.2839430242599121
 30
0.0
 11
3511.1784022872047899
 21
158.2769485229474924
 31
0.0
  0
ARC
  5
13B36
  8
0
 10
3511.1796574208588027
 20
158.2812977842847033
 30
0.0
 40
0.0045267465879252
 50
253.9026282384693047
 51
289.0323289808455911
  0
ARC
  5
13B37
  8
0
 10
3511.1525088900498304
 20
158.2912586809410129
 30
0.0
 40
0.0066226708218665
 50
284.4823233817169807
 51
353.3017630309001902
  0
LINE
  5
13B38
  8
0
 10
3511.159086356104126
 20
158.2904862114475009
 30
0.0
 11
3511.159086356104126
 21
158.3009342748524091
 31
0.0
  0
LINE
  5
13B39
  8
0
 10
3511.1811336002037933
 20
158.2986123028474879
 30
0.0
 11
3511.1660864433101779
 21
158.3029560428182947
 31
0.0
  0
LINE
  5
13B3A
  8
0
 10
3511.1541650962049061
 20
158.2839430242599121
 30
0.0
 11
3511.1299279052041129
 21
158.2769485229474924
 31
0.0
  0
ARC
  5
13B3B
  8
0
 10
3511.1286727715501002
 20
158.2812977842847033
 30
0.0
 40
0.0045267465879252
 50
250.9676710191544089
 51
286.09737176153061
  0
LINE
  5
13B3C
  8
0
 10
3511.1271965922042
 20
158.2770184935475015
 30
0.0
 11
3511.1271965922042
 21
158.2986123028474879
 31
0.0
  0
ARC
  5
13B3D
  8
0
 10
3511.1558213023590724
 20
158.2912586809410129
 30
0.0
 40
0.0066226708218665
 50
186.6982369690998098
 51
255.5176766182829056
  0
LINE
  5
13B3E
  8
0
 10
3511.1492438363047768
 20
158.2904862114475009
 30
0.0
 11
3511.1492438363047768
 21
158.3009342748524091
 31
0.0
  0
LINE
  5
13B3F
  8
0
 10
3511.1271965922042
 20
158.2986123028474879
 30
0.0
 11
3511.1422437490991797
 21
158.3029560428182947
 31
0.0
  0
LINE
  5
13B40
  8
0
 10
3511.1002280882048581
 20
158.2839430242599121
 30
0.0
 11
3511.1244652792051966
 21
158.2769485229474924
 31
0.0
  0
ARC
  5
13B41
  8
0
 10
3511.1257204128592093
 20
158.2812977842847033
 30
0.0
 40
0.0045267465879252
 50
253.9026282384693047
 51
289.0323289808455911
  0
ARC
  5
13B42
  8
0
 10
3511.0985718820497823
 20
158.2912586809410129
 30
0.0
 40
0.0066226708218665
 50
284.4823233817169807
 51
353.3017630309001902
  0
LINE
  5
13B43
  8
0
 10
3511.1051493481040779
 20
158.2904862114475009
 30
0.0
 11
3511.1051493481040779
 21
158.3009342748524091
 31
0.0
  0
LINE
  5
13B44
  8
0
 10
3511.1271965922042
 20
158.2986123028474879
 30
0.0
 11
3511.1121494353101298
 21
158.3029560428182947
 31
0.0
  0
LINE
  5
13B45
  8
0
 10
3511.1002280882048581
 20
158.2839430242599121
 30
0.0
 11
3511.0759908972040648
 21
158.2769485229474924
 31
0.0
  0
ARC
  5
13B46
  8
0
 10
3511.0747357635491426
 20
158.2812977842847033
 30
0.0
 40
0.0045267465879252
 50
250.9676710191544089
 51
286.09737176153061
  0
LINE
  5
13B47
  8
0
 10
3511.0732595842041519
 20
158.2770184935475015
 30
0.0
 11
3511.0732595842041519
 21
158.2986123028474879
 31
0.0
  0
ARC
  5
13B48
  8
0
 10
3511.1018842943590244
 20
158.2912586809410129
 30
0.0
 40
0.0066226708218665
 50
186.6982369690998098
 51
255.5176766182829056
  0
LINE
  5
13B49
  8
0
 10
3511.0953068283051834
 20
158.2904862114475009
 30
0.0
 11
3511.0953068283051834
 21
158.3009342748524091
 31
0.0
  0
LINE
  5
13B4A
  8
0
 10
3511.0732595842041519
 20
158.2986123028474879
 30
0.0
 11
3511.0883067410991316
 21
158.3029560428182947
 31
0.0
  0
LINE
  5
13B4B
  8
0
 10
3511.0462910802039005
 20
158.2839430242599121
 30
0.0
 11
3511.0705282712037842
 21
158.2769485229474924
 31
0.0
  0
ARC
  5
13B4C
  8
0
 10
3511.0717834048600707
 20
158.2812977842847033
 30
0.0
 40
0.0045267465879252
 50
253.9026282384693047
 51
289.0323289808455911
  0
ARC
  5
13B4D
  8
0
 10
3511.044634874050189
 20
158.2912586809410129
 30
0.0
 40
0.0066226708218665
 50
284.4823233817169807
 51
353.3017630309001902
  0
LINE
  5
13B4E
  8
0
 10
3511.0512123401049394
 20
158.2904862114475009
 30
0.0
 11
3511.0512123401049394
 21
158.3061530265484862
 31
0.0
  0
LINE
  5
13B4F
  8
0
 10
3511.0732595842041519
 20
158.2986123028474879
 30
0.0
 11
3511.0582124273100817
 21
158.3029560428182947
 31
0.0
  0
LINE
  5
13B50
  8
0
 10
3511.0462910802039005
 20
158.2839430242599121
 30
0.0
 11
3511.0298819285949321
 21
158.2792075814249131
 31
0.0
  0
ARC
  5
13B51
  8
0
 10
3511.0479472863589763
 20
158.2912586809410129
 30
0.0
 40
0.0066226708218665
 50
186.6982369690998098
 51
255.5176766182829056
  0
LINE
  5
13B52
  8
0
 10
3511.0413698203042259
 20
158.2904862114475009
 30
0.0
 11
3511.0413698203042259
 21
158.3028708136781972
 31
0.0
  0
LINE
  5
13B53
  8
0
 10
3511.1811336002037933
 20
158.3072984337599109
 30
0.0
 11
3511.2053707912041318
 21
158.3003039324474912
 31
0.0
  0
ARC
  5
13B54
  8
0
 10
3511.2066259248590541
 20
158.3046531937847021
 30
0.0
 40
0.0045267465879252
 50
253.9026282384693047
 51
289.0323289808455911
  0
ARC
  5
13B55
  8
0
 10
3511.1794773940500818
 20
158.3146140904410117
 30
0.0
 40
0.0066226708218665
 50
284.4823233817169807
 51
353.3017630309001902
  0
LINE
  5
13B56
  8
0
 10
3511.1860548601039227
 20
158.3138416209474997
 30
0.0
 11
3511.1860548601039227
 21
158.3242913288459022
 31
0.0
  0
LINE
  5
13B57
  8
0
 10
3511.2081021042040447
 20
158.3219677123474867
 30
0.0
 11
3511.1930549472599523
 21
158.3263114523327886
 31
0.0
  0
LINE
  5
13B58
  8
0
 10
3511.1811336002037933
 20
158.3072984337599109
 30
0.0
 11
3511.1568964092039096
 21
158.3003039324474912
 31
0.0
  0
ARC
  5
13B59
  8
0
 10
3511.1556412755489873
 20
158.3046531937847021
 30
0.0
 40
0.0045267465879252
 50
250.9676710191544089
 51
286.09737176153061
  0
LINE
  5
13B5A
  8
0
 10
3511.1541650962049061
 20
158.3003739030475003
 30
0.0
 11
3511.1541650962039967
 21
158.3219677123474867
 31
0.0
  0
ARC
  5
13B5B
  8
0
 10
3511.1827898063588691
 20
158.3146140904410117
 30
0.0
 40
0.0066226708218665
 50
186.6982369690998098
 51
255.5176766182829056
  0
LINE
  5
13B5C
  8
0
 10
3511.1762123403041187
 20
158.3138416209474997
 30
0.0
 11
3511.1762123403041187
 21
158.3242913287882061
 31
0.0
  0
LINE
  5
13B5D
  8
0
 10
3511.1541650962039967
 20
158.3219677123474867
 30
0.0
 11
3511.1692122530498636
 21
158.3263114523039121
 31
0.0
  0
LINE
  5
13B5E
  8
0
 10
3511.1271965922042
 20
158.3072984337599109
 30
0.0
 11
3511.1514337832040837
 21
158.3003039324474912
 31
0.0
  0
ARC
  5
13B5F
  8
0
 10
3511.1526889168599155
 20
158.3046531937847021
 30
0.0
 40
0.0045267465879252
 50
253.9026282384693047
 51
289.0323289808455911
  0
ARC
  5
13B60
  8
0
 10
3511.1255403860500337
 20
158.3146140904410117
 30
0.0
 40
0.0066226708218665
 50
284.4823233817169807
 51
353.3017630309001902
  0
LINE
  5
13B61
  8
0
 10
3511.1321178521047841
 20
158.3138416209474997
 30
0.0
 11
3511.1321178521047841
 21
158.3244815619713961
 31
0.0
  0
LINE
  5
13B62
  8
0
 10
3511.1541650962049061
 20
158.3219677123474867
 30
0.0
 11
3511.1414171551759864
 21
158.3256477258792927
 31
0.0
  0
LINE
  5
13B63
  8
0
 10
3511.1271965922042
 20
158.3072984337599109
 30
0.0
 11
3511.1029594012052257
 21
158.3003039324474912
 31
0.0
  0
ARC
  5
13B64
  8
0
 10
3511.1017042675489392
 20
158.3046531937847021
 30
0.0
 40
0.0045267465879252
 50
250.9676710191544089
 51
286.09737176153061
  0
LINE
  5
13B65
  8
0
 10
3511.1002280882048581
 20
158.3003739030475003
 30
0.0
 11
3511.1002280882048581
 21
158.3190400558528097
 31
0.0
  0
ARC
  5
13B66
  8
0
 10
3511.128852798358821
 20
158.3146140904410117
 30
0.0
 40
0.0066226708218665
 50
186.6982369690998098
 51
255.5176766182829056
  0
LINE
  5
13B67
  8
0
 10
3511.1222753323040706
 20
158.3138416209474997
 30
0.0
 11
3511.1222753323040706
 21
158.3230418850158117
 31
0.0
  0
LINE
  5
13B68
  8
0
 10
3511.0732595842041519
 20
158.3072984337599109
 30
0.0
 11
3511.0974967752040357
 21
158.3003039324474912
 31
0.0
  0
ARC
  5
13B69
  8
0
 10
3511.0987519088598674
 20
158.3046531937847021
 30
0.0
 40
0.0045267465879252
 50
253.9026282384693047
 51
289.0323289808455911
  0
ARC
  5
13B6A
  8
0
 10
3511.0716033780499856
 20
158.3146140904410117
 30
0.0
 40
0.0066226708218665
 50
284.4823233817169807
 51
353.3017630309001902
  0
LINE
  5
13B6B
  8
0
 10
3511.0781808441051908
 20
158.3138416209474997
 30
0.0
 11
3511.0781808441051908
 21
158.3139400344481089
 31
0.0
  0
LINE
  5
13B6C
  8
0
 10
3511.0732595842041519
 20
158.3072984337599109
 30
0.0
 11
3511.0512123401049394
 21
158.3009359193169985
 31
0.0
  0
ARC
  5
13B6D
  8
0
 10
3511.0749157903587729
 20
158.3146140904410117
 30
0.0
 40
0.0066226708218665
 50
208.017097405804293
 51
255.5176766182829056
  0
LINE
  5
13B6E
  8
0
 10
3511.1811336002037933
 20
158.2605876147599133
 30
0.0
 11
3511.2053707912041318
 21
158.2535931134474936
 31
0.0
  0
ARC
  5
13B6F
  8
0
 10
3511.2066259248590541
 20
158.2579423747847045
 30
0.0
 40
0.0045267465879252
 50
253.9026282384693047
 51
289.0323289808455911
  0
ARC
  5
13B70
  8
0
 10
3511.1794773940500818
 20
158.2679032714410141
 30
0.0
 40
0.0066226708218665
 50
284.4823233817169807
 51
353.3017630309001902
  0
LINE
  5
13B71
  8
0
 10
3511.1860548601039227
 20
158.2671308019475021
 30
0.0
 11
3511.1860548601039227
 21
158.2775805098169997
 31
0.0
  0
LINE
  5
13B72
  8
0
 10
3511.2081021042040447
 20
158.275256893347489
 30
0.0
 11
3511.193054947309065
 21
158.2796006333182959
 31
0.0
  0
LINE
  5
13B73
  8
0
 10
3511.1811336002037933
 20
158.2605876147599133
 30
0.0
 11
3511.1568964092039096
 21
158.2535931134474936
 31
0.0
  0
ARC
  5
13B74
  8
0
 10
3511.1556412755489873
 20
158.2579423747847045
 30
0.0
 40
0.0045267465879252
 50
250.9676710191544089
 51
286.09737176153061
  0
LINE
  5
13B75
  8
0
 10
3511.1541650962049061
 20
158.2536630840475027
 30
0.0
 11
3511.1541650962039967
 21
158.275256893347489
 31
0.0
  0
ARC
  5
13B76
  8
0
 10
3511.1827898063588691
 20
158.2679032714410141
 30
0.0
 40
0.0066226708218665
 50
186.6982369690998098
 51
255.5176766182829056
  0
LINE
  5
13B77
  8
0
 10
3511.1762123403041187
 20
158.2671308019475021
 30
0.0
 11
3511.1762123403041187
 21
158.2775805098169997
 31
0.0
  0
LINE
  5
13B78
  8
0
 10
3511.1541650962039967
 20
158.275256893347489
 30
0.0
 11
3511.1692122530989764
 21
158.2796006333182959
 31
0.0
  0
LINE
  5
13B79
  8
0
 10
3511.1271965922042
 20
158.2605876147599133
 30
0.0
 11
3511.1514337832040837
 21
158.2535931134474936
 31
0.0
  0
ARC
  5
13B7A
  8
0
 10
3511.1526889168599155
 20
158.2579423747847045
 30
0.0
 40
0.0045267465879252
 50
253.9026282384693047
 51
289.0323289808455911
  0
ARC
  5
13B7B
  8
0
 10
3511.1255403860500337
 20
158.2679032714410141
 30
0.0
 40
0.0066226708218665
 50
284.4823233817169807
 51
353.3017630309001902
  0
LINE
  5
13B7C
  8
0
 10
3511.1321178521047841
 20
158.2671308019475021
 30
0.0
 11
3511.1321178521047841
 21
158.2775805098169997
 31
0.0
  0
LINE
  5
13B7D
  8
0
 10
3511.1541650962049061
 20
158.275256893347489
 30
0.0
 11
3511.1391179393099264
 21
158.2796006333182959
 31
0.0
  0
LINE
  5
13B7E
  8
0
 10
3511.1271965922042
 20
158.2605876147599133
 30
0.0
 11
3511.1029594012052257
 21
158.2535931134474936
 31
0.0
  0
ARC
  5
13B7F
  8
0
 10
3511.1017042675489392
 20
158.2579423747847045
 30
0.0
 40
0.0045267465879252
 50
250.9676710191544089
 51
286.09737176153061
  0
LINE
  5
13B80
  8
0
 10
3511.1002280882048581
 20
158.2536630840475027
 30
0.0
 11
3511.1002280882048581
 21
158.275256893347489
 31
0.0
  0
ARC
  5
13B81
  8
0
 10
3511.128852798358821
 20
158.2679032714410141
 30
0.0
 40
0.0066226708218665
 50
186.6982369690998098
 51
255.5176766182829056
  0
LINE
  5
13B82
  8
0
 10
3511.1222753323040706
 20
158.2671308019475021
 30
0.0
 11
3511.1222753323040706
 21
158.2775805098169997
 31
0.0
  0
LINE
  5
13B83
  8
0
 10
3511.1002280882048581
 20
158.275256893347489
 30
0.0
 11
3511.1152752450989283
 21
158.2796006333182959
 31
0.0
  0
ARC
  5
13B84
  8
0
 10
3511.0716033780499856
 20
158.2679032714410141
 30
0.0
 40
0.0066226708218665
 50
284.4823233817169807
 51
353.3017630309001902
  0
LINE
  5
13B85
  8
0
 10
3511.0781808441051908
 20
158.2671308019475021
 30
0.0
 11
3511.0781808441051908
 21
158.2775788653524103
 31
0.0
  0
LINE
  5
13B86
  8
0
 10
3511.1002280882048581
 20
158.275256893347489
 30
0.0
 11
3511.0851809313098784
 21
158.2796006333182959
 31
0.0
  0
ARC
  5
13B87
  8
0
 10
3511.0749157903587729
 20
158.2679032714410141
 30
0.0
 40
0.0066226708218665
 50
186.6982369690998098
 51
255.5176766182829056
  0
LINE
  5
13B88
  8
0
 10
3511.0683383243040225
 20
158.2671308019475021
 30
0.0
 11
3511.0683383243040225
 21
158.2775788653524103
 31
0.0
  0
LINE
  5
13B89
  8
0
 10
3511.2040518399908251
 20
158.3294849958610087
 30
0.0
 11
3511.1838649131050261
 21
158.32365934194749
 31
0.0
  0
ARC
  5
13B8A
  8
0
 10
3511.1826097794491943
 20
158.3280086032847009
 30
0.0
 40
0.0045267465879252
 50
250.9676710191544089
 51
286.09737176153061
  0
LINE
  5
13B8B
  8
0
 10
3511.1811336001042037
 20
158.3237293125474991
 30
0.0
 11
3511.1811336001042037
 21
158.3288669767451893
 31
0.0
  0
LINE
  5
13B8C
  8
0
 10
3511.1640241080740452
 20
158.3278086755935874
 30
0.0
 11
3511.178402287103836
 21
158.32365934194749
 31
0.0
  0
ARC
  5
13B8D
  8
0
 10
3511.1796574207601225
 20
158.3280086032847009
 30
0.0
 40
0.0045267465879252
 50
253.9026282384693047
 51
289.0323289808455911
  0
ARC
  5
13B8E
  8
0
 10
3511.0310495470598653
 20
158.2855138572828082
 30
0.0
 40
0.006413458355274
 50
178.729553937751291
 51
259.5103711939548248
  0
LINE
  5
13B8F
  8
0
 10
3511.0246376652689833
 20
158.2856560542356021
 30
0.0
 11
3511.0248853702310043
 21
158.2968254562682944
 31
0.0
  0
LINE
  5
13B90
  8
0
 10
3510.8646021042040957
 20
161.3116016047474943
 30
0.0
 11
3510.8646021042040957
 21
158.8092350425663994
 31
0.0
  0
ARC
  5
13B91
  8
0
 10
3511.2081021042040447
 20
161.3116016047474943
 30
0.0
 40
0.3434999999999988
 50
0.0
 51
180.0
  0
ARC
  5
13B92
  8
0
 10
3511.2081021042040447
 20
156.4621809022982859
 30
0.0
 40
0.0718391400841837
 50
203.1002570626052943
 51
336.8997429373931141
  0
ARC
  5
13B93
  8
0
 10
3511.2081021042040447
 20
156.4265926715266062
 30
0.0
 40
0.0196850394790488
 50
211.9966974484206048
 51
328.0033025515780878
  0
ARC
  5
13B94
  8
0
 10
3511.2081021042040447
 20
157.4209428577190977
 30
0.0
 40
0.0717611092616982
 50
23.0652706868439488
 51
156.9347293131559979
  0
ARC
  5
13B95
  8
0
 10
3511.2081021042040447
 20
157.4747957594894956
 30
0.0
 40
0.0098425197580087
 50
32.9046959959204628
 51
147.0953040040795088
  0
ARC
  5
13B96
  8
0
 10
3511.2081021042040447
 20
158.30451437649441
 30
0.0
 40
0.6579526555531352
 50
76.0656109134340994
 51
103.9343890865659006
  0
ARC
  5
13B97
  8
0
 10
3511.2081021042040447
 20
157.6988695493135992
 30
0.0
 40
0.6649301130338762
 50
76.5591900345614107
 51
103.4408099654386035
  0
ARC
  5
13B98
  8
0
 10
3511.2081021042040447
 20
157.7540355456760039
 30
0.0
 40
0.5754637037714945
 50
84.1922163981501512
 51
95.8077836018498346
  0
ARC
  5
13B99
  8
0
 10
3511.2081021042040447
 20
158.8304318797007113
 30
0.0
 40
0.5888927691714958
 50
261.7412511141087066
 51
278.2587488858914071
  0
ARC
  5
13B9A
  8
0
 10
3511.2081021042040447
 20
158.6962836961052119
 30
0.0
 40
0.468558284957756
 50
260.4152426780510154
 51
279.5847573219489846
  0
ARC
  5
13B9B
  8
0
 10
3511.2081021042040447
 20
158.7618397641714978
 30
0.0
 40
0.5535456880240207
 50
261.3257355481107993
 51
278.674264451889087
  0
ARC
  5
13B9C
  8
0
 10
3511.2081021042040447
 20
158.6009977246673088
 30
0.0
 40
0.54988725931982
 50
259.7639440614128716
 51
280.2360559385871284
  0
ARC
  5
13B9D
  8
0
 10
3511.2081021042040447
 20
158.5986891363849907
 30
0.0
 40
0.5591898869374897
 50
257.2088398555860067
 51
282.7911601444139933
  0
ARC
  5
13B9E
  8
0
 10
3511.2081021042040447
 20
158.6842760788026112
 30
0.0
 40
0.6693764959491738
 50
260.4599219839143984
 51
279.5400780160857153
  0
ARC
  5
13B9F
  8
0
 10
3511.2212241956681282
 20
158.4056130863683904
 30
0.0
 40
0.5553385682799217
 50
65.6944986281643111
 51
86.7172985537362848
  0
ARC
  5
13BA0
  8
0
 10
3511.1949800127408707
 20
158.4056130863683904
 30
0.0
 40
0.5553385682799217
 50
93.2827014462637152
 51
114.3055013718357031
  0
ARC
  5
13BA1
  8
0
 10
3511.2081021042040447
 20
158.2814353815064123
 30
0.0
 40
0.6800902992761531
 50
86.2126657270617329
 51
93.7873342729382955
  0
ENDSEC
  0
EOF
