  0
SECTION
  2
HEADER
  9
$ACADVER
  1
AC1009
  9
$INSBASE
 10
3507.1317268185857756
 20
161.2984279863246115
 30
0.0
  9
$EXTMIN
 10
3505.8917268185859939
 20
152.6131279863245993
 30
0.0
  9
$EXTMAX
 10
3508.3717268185860121
 20
161.3030661376371029
 30
0.0
  9
$LIMMIN
 10
0.0
 20
0.0
  9
$LIMMAX
 10
11.6929133858000007
 20
8.2677165353999982
  9
$ORTHOMODE
 70
     0
  9
$REGENMODE
 70
     1
  9
$FILLMODE
 70
     1
  9
$QTEXTMODE
 70
     0
  9
$MIRRTEXT
 70
     0
  9
$DRAGMODE
 70
     2
  9
$LTSCALE
 40
0.6431102362
  9
$OSMODE
 70
  3839
  9
$ATTMODE
 70
     1
  9
$TEXTSIZE
 40
0.2
  9
$TRACEWID
 40
0.05
  9
$TEXTSTYLE
  7
STANDARD
  9
$CLAYER
  8
0
  9
$CELTYPE
  6
BYLAYER
  9
$CECOLOR
 62
   256
  9
$DIMSCALE
 40
1.0
  9
$DIMASZ
 40
0.1875
  9
$DIMEXO
 40
0.0625
  9
$DIMDLI
 40
0.4443307087
  9
$DIMRND
 40
0.0
  9
$DIMDLE
 40
0.0
  9
$DIMEXE
 40
0.125
  9
$DIMTP
 40
0.01
  9
$DIMTM
 40
0.01
  9
$DIMTXT
 40
2.0
  9
$DIMCEN
 40
0.1052362205
  9
$DIMTSZ
 40
0.0
  9
$DIMTOL
 70
     1
  9
$DIMLIM
 70
     0
  9
$DIMTIH
 70
     1
  9
$DIMTOH
 70
     1
  9
$DIMSE1
 70
     0
  9
$DIMSE2
 70
     0
  9
$DIMTAD
 70
     0
  9
$DIMZIN
 70
     0
  9
$DIMBLK
  1

  9
$DIMASO
 70
     1
  9
$DIMSHO
 70
     1
  9
$DIMPOST
  1
\X
  9
$DIMAPOST
  1

  9
$DIMALT
 70
     1
  9
$DIMALTD
 70
     2
  9
$DIMALTF
 40
25.3999999999999986
  9
$DIMLFAC
 40
1.0
  9
$DIMTOFL
 70
     0
  9
$DIMTVP
 40
0.0
  9
$DIMTIX
 70
     0
  9
$DIMSOXD
 70
     0
  9
$DIMSAH
 70
     0
  9
$DIMBLK1
  1

  9
$DIMBLK2
  1

  9
$DIMSTYLE
  2
STANDARD
  9
$DIMCLRD
 70
     0
  9
$DIMCLRE
 70
     0
  9
$DIMCLRT
 70
     0
  9
$DIMTFAC
 40
1.0
  9
$DIMGAP
 40
0.09
  9
$LUNITS
 70
     2
  9
$LUPREC
 70
     4
  9
$SKETCHINC
 40
0.1
  9
$FILLETRAD
 40
0.0
  9
$AUNITS
 70
     0
  9
$AUPREC
 70
     0
  9
$MENU
  1
.
  9
$ELEVATION
 40
0.0
  9
$PELEVATION
 40
0.0
  9
$THICKNESS
 40
0.0
  9
$LIMCHECK
 70
     0
  9
$BLIPMODE
 70
     0
  9
$CHAMFERA
 40
0.0
  9
$CHAMFERB
 40
0.0
  9
$SKPOLY
 70
     0
  9
$TDCREATE
 40
2458060.468368056230247
  9
$TDUPDATE
 40
2459178.5163773149251938
  9
$TDINDWG
 40
0.5838612269
  9
$TDUSRTIMER
 40
0.5838612269
  9
$USRTIMER
 70
     1
  9
$ANGBASE
 50
0.0
  9
$ANGDIR
 70
     0
  9
$PDMODE
 70
     0
  9
$PDSIZE
 40
0.3125
  9
$PLINEWID
 40
0.0
  9
$COORDS
 70
     1
  9
$SPLFRAME
 70
     0
  9
$SPLINETYPE
 70
     6
  9
$SPLINESEGS
 70
     8
  9
$ATTDIA
 70
     1
  9
$ATTREQ
 70
     1
  9
$HANDLING
 70
     1
  9
$HANDSEED
  5
13E7D
  9
$SURFTAB1
 70
     6
  9
$SURFTAB2
 70
     6
  9
$SURFTYPE
 70
     6
  9
$SURFU
 70
     6
  9
$SURFV
 70
     6
  9
$UCSNAME
  2

  9
$UCSORG
 10
0.0
 20
0.0
 30
0.0
  9
$UCSXDIR
 10
1.0
 20
0.0
 30
0.0
  9
$UCSYDIR
 10
0.0
 20
1.0
 30
0.0
  9
$PUCSNAME
  2

  9
$PUCSORG
 10
0.0
 20
0.0
 30
0.0
  9
$PUCSXDIR
 10
1.0
 20
0.0
 30
0.0
  9
$PUCSYDIR
 10
0.0
 20
1.0
 30
0.0
  9
$USERI1
 70
     0
  9
$USERI2
 70
     0
  9
$USERI3
 70
     0
  9
$USERI4
 70
     0
  9
$USERI5
 70
     0
  9
$USERR1
 40
0.0
  9
$USERR2
 40
0.0
  9
$USERR3
 40
0.0
  9
$USERR4
 40
0.0
  9
$USERR5
 40
0.0
  9
$WORLDVIEW
 70
     1
  9
$SHADEDGE
 70
     3
  9
$SHADEDIF
 70
    70
  9
$TILEMODE
 70
     1
  9
$MAXACTVP
 70
    64
  9
$PLIMCHECK
 70
     0
  9
$PEXTMIN
 10
1.0000000000000000E+20
 20
1.0000000000000000E+20
 30
1.0000000000000000E+20
  9
$PEXTMAX
 10
-1.0000000000000000E+20
 20
-1.0000000000000000E+20
 30
-1.0000000000000000E+20
  9
$PLIMMIN
 10
0.0
 20
0.0
  9
$PLIMMAX
 10
12.0
 20
9.0
  9
$UNITMODE
 70
     0
  9
$VISRETAIN
 70
     1
  9
$PLINEGEN
 70
     0
  9
$PSLTSCALE
 70
     1
  0
ENDSEC
  0
SECTION
  2
TABLES
  0
TABLE
  2
VPORT
 70
     1
  0
VPORT
  2
*ACTIVE
 70
     0
 10
0.0
 20
0.0
 11
1.0
 21
1.0
 12
0.0
 22
0.0
 13
0.0
 23
0.0
 14
1.0
 24
1.0
 15
0.0
 25
0.0
 16
0.0
 26
0.0
 36
35.5134143021129418
 17
3507.1318359375
 27
156.9587916747755969
 37
0.0
 40
9.0355512039976542
 41
3.1182994454713491
 42
50.0
 43
0.0
 44
0.0
 50
0.0
 51
0.0
 71
     0
 72
   100
 73
     1
 74
     1
 75
     0
 76
     0
 77
     0
 78
     0
  0
ENDTAB
  0
TABLE
  2
LTYPE
 70
     2
  0
LTYPE
  2
CONTINUOUS
 70
     0
  3
Solid line
 72
    65
 73
     0
 40
0.0
  0
LTYPE
  2
PHANTOM2
 70
     0
  3
___ _ _ ___ _ _ ___ _ _ ___ _ _
 72
    65
 73
     6
 40
1.25
 49
0.625
 49
-0.125
 49
0.125
 49
-0.125
 49
0.125
 49
-0.125
  0
ENDTAB
  0
TABLE
  2
LAYER
 70
     2
  0
LAYER
  2
0
 70
     0
 62
   255
  6
CONTINUOUS
  0
LAYER
  2
DEFPOINTS
 70
     0
 62
     7
  6
CONTINUOUS
  0
ENDTAB
  0
TABLE
  2
STYLE
 70
     1
  0
STYLE
  2
STANDARD
 70
     0
 40
0.0
 41
0.8
 50
0.0
 71
     0
 42
0.2
  3
txt
  4

  0
ENDTAB
  0
TABLE
  2
VIEW
 70
     0
  0
ENDTAB
  0
TABLE
  2
UCS
 70
     0
  0
ENDTAB
  0
TABLE
  2
APPID
 70
     9
  0
APPID
  2
ACAD
 70
     0
  0
APPID
  2
ACAD_MLEADERVER
 70
     0
  0
APPID
  2
ACAD_EXEMPT_FROM_CAD_STANDARDS
 70
     0
  0
APPID
  2
ACAD_NAV_VCDISPLAY
 70
     0
  0
APPID
  2
ACAECLAYERSTANDARD
 70
     0
  0
APPID
  2
ACCMTRANSPARENCY
 70
     0
  0
APPID
  2
ACAD_DSTYLE_DIMJAG
 70
     0
  0
APPID
  2
ACAD_DSTYLE_DIMTALN
 70
     0
  0
APPID
  2
ACDBATTR
 70
     0
  0
ENDTAB
  0
TABLE
  2
DIMSTYLE
 70
     1
  0
DIMSTYLE
  2
STANDARD
 70
     0
  3

  4

  5

  6

  7

 40
1.0
 41
0.1875
 42
0.0625
 43
0.38
 44
0.125
 45
0.0
 46
0.0
 47
0.01
 48
0.01
140
0.15625
141
0.09
142
0.0
143
25.3999999999999986
144
1.0
145
0.0
146
1.0
147
0.09
 71
     1
 72
     0
 73
     1
 74
     1
 75
     0
 76
     0
 77
     0
 78
     4
170
     0
171
     2
172
     0
173
     0
174
     0
175
     0
176
     0
177
     0
178
     0
  0
ENDTAB
  0
ENDSEC
  0
SECTION
  2
BLOCKS
  0
BLOCK
  8
0
  2
$MODEL_SPACE
 70
     0
 10
0.0
 20
0.0
 30
0.0
  3
$MODEL_SPACE
  1

  0
ENDBLK
  5
21
  8
0
  0
BLOCK
 67
     1
  8
0
  2
$PAPER_SPACE
 70
     0
 10
0.0
 20
0.0
 30
0.0
  3
$PAPER_SPACE
  1

  0
ENDBLK
  5
1D
 67
     1
  8
0
  0
BLOCK
  8
0
  2
_FILLED
 70
     0
 10
0.0
 20
0.0
 30
0.0
  3
_FILLED
  1

  0
SOLID
  5
13356
  8
0
  6
BYBLOCK
 62
     0
 10
0.0
 20
0.0
 30
0.0
 11
-1.0
 21
0.1666666667
 31
0.0
 12
-1.0
 22
-0.1666666667
 32
0.0
 13
-1.0
 23
-0.1666666667
 33
0.0
  0
ENDBLK
  5
13357
  8
0
  6
BYBLOCK
 62
     0
  0
ENDSEC
  0
SECTION
  2
ENTITIES
  0
ATTDEF
  5
12BEB
  8
DEFPOINTS
 10
3507.1321786260327826
 20
161.3020661376370128
 30
0.0
 40
0.001
  1
K-18082T
  3

  2
MODELNUMBER
 70
     0
1001
ACDBATTR
1070
     0
1070
     1
  0
ATTDEF
  5
12BEC
  8
DEFPOINTS
 10
3507.1321786260327826
 20
161.3003994709704045
 30
0.0
 40
0.001
  1
FALLING WATER
  3

  2
TRADENAME
 70
     0
1001
ACDBATTR
1070
     0
1070
     1
  0
ATTDEF
  5
12BED
  8
DEFPOINTS
 10
3507.1321786260327826
 20
161.298732804303711
 30
0.0
 40
0.001
  1
BATHROOM SINK FAUCET
  3

  2
PRODUCT
 70
     0
1001
ACDBATTR
1070
     0
1070
     1
  0
LINE
  5
13C4E
  8
0
 10
3507.4752268185861794
 20
158.6484279863246059
 30
0.0
 11
3507.4752268185861794
 21
153.2479976820600029
 31
0.0
  0
LINE
  5
13C4F
  8
0
 10
3508.3423698105370931
 20
161.2984279863246115
 30
0.0
 11
3505.9210838266349128
 21
161.2984279863246115
 31
0.0
  0
LINE
  5
13C50
  8
0
 10
3508.312781835279111
 20
161.1104279863245949
 30
0.0
 11
3505.950671801892895
 21
161.1104279863245949
 31
0.0
  0
LINE
  5
13C51
  8
0
 10
3508.0054768185859757
 20
161.1104279863245949
 30
0.0
 11
3508.0054768185859757
 21
160.537135078250401
 31
0.0
  0
LINE
  5
13C52
  8
0
 10
3508.0054768185859757
 20
161.0929160433558991
 30
0.0
 11
3508.1011407974078793
 21
161.0966744852246109
 31
0.0
  0
ARC
  5
13C53
  8
0
 10
3508.0965410425669688
 20
161.2137524832689053
 30
0.0
 40
0.1171683206786681
 50
272.2498767536911828
 51
298.1340615519281982
  0
LINE
  5
13C54
  8
0
 10
3507.5267615460629713
 20
158.6484279863246059
 30
0.0
 11
3506.7366920911099442
 21
158.6484279863246059
 31
0.0
  0
ARC
  5
13C55
  8
0
 10
3508.3417053300709085
 20
161.2683999045381995
 30
0.0
 40
0.0300354329094619
 50
1.745972205722367
 51
88.7323294901301978
  0
ARC
  5
13C56
  8
0
 10
3507.8822161164412137
 20
161.3081790172363981
 30
0.0
 40
0.4910510532498293
 50
338.6683647268591244
 51
355.4606072403179269
  0
ARC
  5
13C57
  8
0
 10
3508.3116145210988179
 20
161.1404685239965886
 30
0.0
 40
0.0300632088443458
 50
272.2252778688596777
 51
338.7071806760130812
  0
ARC
  5
13C58
  8
0
 10
3507.5225930613160017
 20
158.679320431874487
 30
0.0
 40
0.0311724150032125
 50
277.6848131341902217
 51
332.7479220590154796
  0
ARC
  5
13C59
  8
0
 10
3503.9047820943219449
 20
160.5427815322869947
 30
0.0
 40
4.100698611706699
 50
332.7479220590170144
 51
359.9211065922239072
  0
ARC
  5
13C5A
  8
0
 10
3506.9359580199620723
 20
153.0858094077842111
 30
0.0
 40
0.5907354940732602
 50
1.7524815146821731
 51
24.09400169173108
  0
ARC
  5
13C5B
  8
0
 10
3507.0100632795079036
 20
153.0708188436940134
 30
0.0
 40
0.5174109580547857
 50
310.772467347116617
 51
3.6630041504170312
  0
ARC
  5
13C5C
  8
0
 10
3507.1893849395651159
 20
153.267290986871501
 30
0.0
 40
0.2864922536698421
 50
305.5762810514647185
 51
356.1385965212318183
  0
LINE
  5
13C5D
  8
0
 10
3506.7882268185858265
 20
158.6484279863246059
 30
0.0
 11
3506.7882268185858265
 21
153.2479976820600029
 31
0.0
  0
LINE
  5
13C5E
  8
0
 10
3506.2579768185860303
 20
161.1104279863245949
 30
0.0
 11
3506.2579768185860303
 21
160.537135078250401
 31
0.0
  0
LINE
  5
13C5F
  8
0
 10
3506.2579768185860303
 20
161.0929160433558991
 30
0.0
 11
3506.1623128397641267
 21
161.0966744852246109
 31
0.0
  0
ARC
  5
13C60
  8
0
 10
3506.1669125946050372
 20
161.2137524832689053
 30
0.0
 40
0.1171683206786681
 50
241.8659384480718018
 51
267.7501232463088172
  0
ARC
  5
13C61
  8
0
 10
3505.9217483071010975
 20
161.2683999045381995
 30
0.0
 40
0.0300354329094619
 50
91.267670509869788
 51
178.2540277942775901
  0
ARC
  5
13C62
  8
0
 10
3506.3812375207307923
 20
161.3081790172363981
 30
0.0
 40
0.4910510532498293
 50
184.5393927596821015
 51
201.331635273140904
  0
ARC
  5
13C63
  8
0
 10
3505.9518391160731881
 20
161.1404685239965886
 30
0.0
 40
0.0300632088443458
 50
201.2928193239868904
 51
267.7747221311403223
  0
ARC
  5
13C64
  8
0
 10
3506.7408605758560043
 20
158.679320431874487
 30
0.0
 40
0.0311724150032125
 50
207.2520779409830141
 51
262.3151868658097783
  0
ARC
  5
13C65
  8
0
 10
3510.3586715428500611
 20
160.5427815322869947
 30
0.0
 40
4.100698611706699
 50
180.0788934077760928
 51
207.2520779409830141
  0
ARC
  5
13C66
  8
0
 10
3507.3274956172099337
 20
153.0858094077842111
 30
0.0
 40
0.5907354940732602
 50
155.9059983082688916
 51
178.2475184853178121
  0
ARC
  5
13C67
  8
0
 10
3507.2533903576631928
 20
153.0708188436940134
 30
0.0
 40
0.5174109580547857
 50
176.3369958495829053
 51
229.2275326528834114
  0
ARC
  5
13C68
  8
0
 10
3507.0740686976068901
 20
153.267290986871501
 30
0.0
 40
0.2864922536698421
 50
183.8614034787682101
 51
234.4237189485353099
  0
ARC
  5
13C69
  8
0
 10
3507.1317268185857756
 20
153.3305484492121025
 30
0.0
 40
0.3716239855875128
 50
232.8673558164161932
 51
307.1326441835838068
  0
ARC
  5
13C6A
  8
0
 10
3507.1317268185857756
 20
153.001080129703098
 30
0.0
 40
0.387952143378433
 50
236.1254804602596948
 51
303.8745195397402767
  0
ENDSEC
  0
EOF
