  0
SECTION
  2
HEADER
  9
$ACADVER
  1
AC1009
  9
$INSBASE
 10
56.2161781945722865
 20
-35.9899972710159375
 30
0.0
  9
$EXTMIN
 10
48.7973889698491021
 20
-57.3855030760117586
 30
-0.0015258207003583
  9
$EXTMAX
 10
63.6333175279406404
 20
-35.9845748779257235
 30
0.0000000349246037
  9
$LIMMIN
 10
0.0
 20
0.0
  9
$LIMMAX
 10
11.6929133858000007
 20
8.2677165353999982
  9
$ORTHOMODE
 70
     0
  9
$REGENMODE
 70
     1
  9
$FILLMODE
 70
     1
  9
$QTEXTMODE
 70
     0
  9
$MIRRTEXT
 70
     0
  9
$DRAGMODE
 70
     2
  9
$LTSCALE
 40
0.6431102362
  9
$OSMODE
 70
  2039
  9
$ATTMODE
 70
     1
  9
$TEXTSIZE
 40
0.2
  9
$TRACEWID
 40
0.05
  9
$TEXTSTYLE
  7
STANDARD
  9
$CLAYER
  8
0
  9
$CELTYPE
  6
BYLAYER
  9
$CECOLOR
 62
   256
  9
$DIMSCALE
 40
1.0
  9
$DIMASZ
 40
0.1875
  9
$DIMEXO
 40
0.0625
  9
$DIMDLI
 40
0.4443307087
  9
$DIMRND
 40
0.0
  9
$DIMDLE
 40
0.0
  9
$DIMEXE
 40
0.125
  9
$DIMTP
 40
0.01
  9
$DIMTM
 40
0.01
  9
$DIMTXT
 40
1.0
  9
$DIMCEN
 40
0.1052362205
  9
$DIMTSZ
 40
0.0
  9
$DIMTOL
 70
     1
  9
$DIMLIM
 70
     0
  9
$DIMTIH
 70
     1
  9
$DIMTOH
 70
     1
  9
$DIMSE1
 70
     0
  9
$DIMSE2
 70
     0
  9
$DIMTAD
 70
     0
  9
$DIMZIN
 70
     0
  9
$DIMBLK
  1

  9
$DIMASO
 70
     1
  9
$DIMSHO
 70
     1
  9
$DIMPOST
  1
\X
  9
$DIMAPOST
  1

  9
$DIMALT
 70
     1
  9
$DIMALTD
 70
     2
  9
$DIMALTF
 40
25.3999999999999986
  9
$DIMLFAC
 40
1.0
  9
$DIMTOFL
 70
     0
  9
$DIMTVP
 40
0.0
  9
$DIMTIX
 70
     0
  9
$DIMSOXD
 70
     0
  9
$DIMSAH
 70
     0
  9
$DIMBLK1
  1

  9
$DIMBLK2
  1

  9
$DIMSTYLE
  2
STANDARD
  9
$DIMCLRD
 70
     0
  9
$DIMCLRE
 70
     0
  9
$DIMCLRT
 70
     0
  9
$DIMTFAC
 40
1.0
  9
$DIMGAP
 40
0.09
  9
$LUNITS
 70
     2
  9
$LUPREC
 70
     4
  9
$SKETCHINC
 40
0.1
  9
$FILLETRAD
 40
0.0
  9
$AUNITS
 70
     0
  9
$AUPREC
 70
     0
  9
$MENU
  1
.
  9
$ELEVATION
 40
0.0
  9
$PELEVATION
 40
0.0
  9
$THICKNESS
 40
0.0
  9
$LIMCHECK
 70
     0
  9
$BLIPMODE
 70
     0
  9
$CHAMFERA
 40
0.0
  9
$CHAMFERB
 40
0.0
  9
$SKPOLY
 70
     0
  9
$TDCREATE
 40
2458172.4620254631154239
  9
$TDUPDATE
 40
2459128.8463888890109956
  9
$TDINDWG
 40
0.1382814005
  9
$TDUSRTIMER
 40
0.1382814005
  9
$USRTIMER
 70
     1
  9
$ANGBASE
 50
0.0
  9
$ANGDIR
 70
     0
  9
$PDMODE
 70
     0
  9
$PDSIZE
 40
0.3125
  9
$PLINEWID
 40
0.0
  9
$COORDS
 70
     1
  9
$SPLFRAME
 70
     0
  9
$SPLINETYPE
 70
     6
  9
$SPLINESEGS
 70
     8
  9
$ATTDIA
 70
     1
  9
$ATTREQ
 70
     1
  9
$HANDLING
 70
     1
  9
$HANDSEED
  5
7B25
  9
$SURFTAB1
 70
     6
  9
$SURFTAB2
 70
     6
  9
$SURFTYPE
 70
     6
  9
$SURFU
 70
     6
  9
$SURFV
 70
     6
  9
$UCSNAME
  2

  9
$UCSORG
 10
0.0
 20
0.0
 30
0.0
  9
$UCSXDIR
 10
1.0
 20
0.0
 30
0.0
  9
$UCSYDIR
 10
0.0
 20
1.0
 30
0.0
  9
$PUCSNAME
  2

  9
$PUCSORG
 10
0.0
 20
0.0
 30
0.0
  9
$PUCSXDIR
 10
1.0
 20
0.0
 30
0.0
  9
$PUCSYDIR
 10
0.0
 20
1.0
 30
0.0
  9
$USERI1
 70
     0
  9
$USERI2
 70
     0
  9
$USERI3
 70
     0
  9
$USERI4
 70
     0
  9
$USERI5
 70
     0
  9
$USERR1
 40
0.0
  9
$USERR2
 40
0.0
  9
$USERR3
 40
0.0
  9
$USERR4
 40
0.0
  9
$USERR5
 40
0.0
  9
$WORLDVIEW
 70
     1
  9
$SHADEDGE
 70
     3
  9
$SHADEDIF
 70
    70
  9
$TILEMODE
 70
     1
  9
$MAXACTVP
 70
    64
  9
$PLIMCHECK
 70
     0
  9
$PEXTMIN
 10
1.0000000000000000E+20
 20
1.0000000000000000E+20
 30
1.0000000000000000E+20
  9
$PEXTMAX
 10
-1.0000000000000000E+20
 20
-1.0000000000000000E+20
 30
-1.0000000000000000E+20
  9
$PLIMMIN
 10
0.0
 20
0.0
  9
$PLIMMAX
 10
12.0
 20
9.0
  9
$UNITMODE
 70
     0
  9
$VISRETAIN
 70
     1
  9
$PLINEGEN
 70
     0
  9
$PSLTSCALE
 70
     1
  0
ENDSEC
  0
SECTION
  2
TABLES
  0
TABLE
  2
VPORT
 70
     1
  0
VPORT
  2
*ACTIVE
 70
     0
 10
0.0
 20
0.0
 11
1.0
 21
1.0
 12
-68.3958053511777706
 22
-51.99731314734656
 13
0.0
 23
0.0
 14
1.0
 24
1.0
 15
0.0
 25
0.0
 16
0.0
 26
0.0
 36
30.6214257250603907
 17
124.6111586000725993
 27
5.3122741703778242
 37
0.0
 40
21.5790219140201707
 41
2.6486111111111108
 42
50.0
 43
0.0
 44
0.0
 50
0.0
 51
0.0
 71
     0
 72
   100
 73
     1
 74
     1
 75
     0
 76
     0
 77
     0
 78
     0
  0
ENDTAB
  0
TABLE
  2
LTYPE
 70
     2
  0
LTYPE
  2
CONTINUOUS
 70
     0
  3
Solid line
 72
    65
 73
     0
 40
0.0
  0
LTYPE
  2
PHANTOM2
 70
     0
  3
___ _ _ ___ _ _ ___ _ _ ___ _ _
 72
    65
 73
     6
 40
1.25
 49
0.625
 49
-0.125
 49
0.125
 49
-0.125
 49
0.125
 49
-0.125
  0
ENDTAB
  0
TABLE
  2
LAYER
 70
     2
  0
LAYER
  2
0
 70
     0
 62
   255
  6
CONTINUOUS
  0
LAYER
  2
DEFPOINTS
 70
     0
 62
     7
  6
CONTINUOUS
  0
ENDTAB
  0
TABLE
  2
STYLE
 70
     1
  0
STYLE
  2
STANDARD
 70
     0
 40
0.0
 41
0.8
 50
0.0
 71
     0
 42
0.2
  3
txt
  4

  0
ENDTAB
  0
TABLE
  2
VIEW
 70
     0
  0
ENDTAB
  0
TABLE
  2
UCS
 70
     0
  0
ENDTAB
  0
TABLE
  2
APPID
 70
     9
  0
APPID
  2
ACAD
 70
     0
  0
APPID
  2
ACAD_MLEADERVER
 70
     0
  0
APPID
  2
ACAD_EXEMPT_FROM_CAD_STANDARDS
 70
     0
  0
APPID
  2
ACAD_DSTYLE_DIMJAG
 70
     0
  0
APPID
  2
ACAD_DSTYLE_DIMTALN
 70
     0
  0
APPID
  2
ACAD_NAV_VCDISPLAY
 70
     0
  0
APPID
  2
ACAECLAYERSTANDARD
 70
     0
  0
APPID
  2
ACCMTRANSPARENCY
 70
     0
  0
APPID
  2
ACDBATTR
 70
     0
  0
ENDTAB
  0
TABLE
  2
DIMSTYLE
 70
     1
  0
DIMSTYLE
  2
STANDARD
 70
     0
  3

  4

  5

  6

  7

 40
1.0
 41
0.1875
 42
0.0625
 43
0.38
 44
0.125
 45
0.0
 46
0.0
 47
0.01
 48
0.01
140
0.15625
141
0.09
142
0.0
143
25.3999999999999986
144
1.0
145
0.0
146
1.0
147
0.09
 71
     1
 72
     0
 73
     1
 74
     1
 75
     0
 76
     0
 77
     0
 78
     4
170
     0
171
     2
172
     0
173
     0
174
     0
175
     0
176
     0
177
     0
178
     0
  0
ENDTAB
  0
ENDSEC
  0
SECTION
  2
BLOCKS
  0
BLOCK
  8
0
  2
$MODEL_SPACE
 70
     0
 10
0.0
 20
0.0
 30
0.0
  3
$MODEL_SPACE
  1

  0
ENDBLK
  5
21
  8
0
  0
BLOCK
 67
     1
  8
0
  2
$PAPER_SPACE
 70
     0
 10
0.0
 20
0.0
 30
0.0
  3
$PAPER_SPACE
  1

  0
ENDBLK
  5
1D
 67
     1
  8
0
  0
BLOCK
  8
0
  2
_FILLED
 70
     0
 10
0.0
 20
0.0
 30
0.0
  3
_FILLED
  1

  0
SOLID
  5
69C2
  8
0
  6
BYBLOCK
 62
     0
 10
0.0
 20
0.0
 30
0.0
 11
-1.0
 21
0.1666666667
 31
0.0
 12
-1.0
 22
-0.1666666667
 32
0.0
 13
-1.0
 23
-0.1666666667
 33
0.0
  0
ENDBLK
  5
69C3
  8
0
  6
BYBLOCK
 62
     0
  0
ENDSEC
  0
SECTION
  2
ENTITIES
  0
ATTDEF
  5
702E
  8
DEFPOINTS
 10
56.2164851148203724
 20
-35.9860572349682997
 30
0.0
 40
0.001
  1
K-18131IN-S
  3

  2
MODELNUMBER
 70
     0
1001
ACDBATTR
1070
     0
1070
     1
  0
ATTDEF
  5
702F
  8
DEFPOINTS
 10
56.2164851148203724
 20
-35.9877239016349577
 30
0.0
 40
0.001
  1
PATIO
  3

  2
TRADENAME
 70
     0
1001
ACDBATTR
1070
     0
1070
     1
  0
ATTDEF
  5
7030
  8
DEFPOINTS
 10
56.2164851148203724
 20
-35.9893905683016229
 30
0.0
 40
0.001
  1
TOILET
  3

  2
PRODUCT
 70
     0
1001
ACDBATTR
1070
     0
1070
     1
  0
LINE
  5
74CA
  8
0
 10
51.0605829341722881
 20
-35.9899972710159375
 30
0.0
 11
61.3717734549722778
 21
-35.9899972710159375
 31
0.0
  0
ARC
  5
74CB
  8
0
 10
51.0605829341722881
 20
-36.2286898777042623
 30
0.0
 40
0.2386926066883106
 50
90.0000000000003979
 51
163.9751515291326029
  0
ARC
  5
74CC
  8
0
 10
87.3402551989659059
 20
-46.6487483595227772
 30
0.0
 40
37.9851128131840881
 50
163.9751515291326029
 51
170.7707561505582987
  0
ARC
  5
74CD
  8
0
 10
56.2157967641625333
 20
-105.1564195656007996
 30
0.0
 40
65.7525959412912329
 50
89.9996676275311103
 51
92.1511885610888442
  0
ARC
  5
74CE
  8
0
 10
56.1914942785502021
 20
-104.5094394757364
 30
0.0
 40
65.1051595757016486
 50
92.1511885711161511
 51
93.364739798990783
  0
ARC
  5
74CF
  8
0
 10
57.1684524334829476
 20
-121.1262418379942005
 30
0.0
 40
81.7506565037848105
 50
93.364739798990783
 51
93.8375574146690781
  0
LINE
  5
74D0
  8
0
 10
51.6970489487222906
 20
-39.5588857284159374
 30
0.0
 11
51.6957267634525195
 21
-39.4791666244263411
 31
0.0
  0
LINE
  5
74D1
  8
0
 10
51.7377843019722903
 20
-39.5562793054159414
 30
0.0
 11
51.737831737872142
 21
-39.5183636263787932
 31
0.0
  0
ARC
  5
74D2
  8
0
 10
51.6985800337390415
 20
-39.5183145189922485
 30
0.0
 40
0.0392517348519439
 50
359.9283179014673806
 51
94.1685969133792469
  0
LINE
  5
74D3
  8
0
 10
51.6957267634760882
 20
-39.4791666258472418
 30
0.0
 11
50.6295065215269986
 21
-39.5514173111689971
 31
0.0
  0
ARC
  5
74D4
  8
0
 10
50.6723411035394804
 20
-40.0855416272569727
 30
0.0
 40
0.5358391423297025
 50
94.5850741398175785
 51
125.1323735360378038
  0
ARC
  5
74D5
  8
0
 10
50.7209837264485586
 20
-40.15467001888981
 30
0.0
 40
0.6203662935488155
 50
125.1323735360378038
 51
152.8913774885160137
  0
ARC
  5
74D6
  8
0
 10
60.1973930920651412
 20
-45.0057933921729187
 30
0.0
 40
11.2662919201704597
 50
152.8913774885160137
 51
156.7389961630964876
  0
ARC
  5
74D7
  8
0
 10
57.3897857715249629
 20
-43.798911299763347
 30
0.0
 40
8.2102776447899064
 50
156.7389961630968003
 51
167.0245475389884859
  0
ARC
  5
74D8
  8
0
 10
68.8802990982106138
 20
-46.7800630565879203
 30
0.0
 40
20.0793957034875703
 50
166.0970579181075948
 51
184.8122704994831054
  0
ARC
  5
74D9
  8
0
 10
60.5521117620235572
 20
-47.4801242715870018
 30
0.0
 40
11.7218369657191506
 50
184.8174938304408101
 51
196.9818227841865905
  0
ARC
  5
74DA
  8
0
 10
60.7027255198722315
 20
-47.4341292666159688
 30
0.0
 40
11.8793172645999299
 50
196.9818227931000081
 51
223.4604746774002137
  0
ARC
  5
74DB
  8
0
 10
55.5952108361621882
 20
-52.3812564514832388
 30
0.0
 40
4.7697632360266731
 50
222.5277617344754901
 51
233.947355039658504
  0
ARC
  5
74DC
  8
0
 10
56.2161781945722083
 20
-51.6858253411161002
 30
0.0
 40
5.6982149023998314
 50
233.0146420978117021
 51
252.9230122914518972
  0
ARC
  5
74DD
  8
0
 10
56.2161781945722723
 20
-51.6858253411160291
 30
0.0
 40
5.6982149023999176
 50
252.9230122914514141
 51
270.0
  0
LINE
  5
74DE
  8
0
 10
53.7476742575722781
 20
-39.4501622965159484
 30
0.0
 11
53.7476742575722781
 21
-39.326611444316427
 31
0.0
  0
ARC
  5
74DF
  8
0
 10
53.7083041788717992
 20
-39.326611444316427
 30
0.0
 40
0.0393700787004852
 50
0.0000000000012213
 51
90.0000000001937792
  0
LINE
  5
74E0
  8
0
 10
53.7083041788716713
 20
-39.2872413656159409
 30
0.0
 11
52.4090915804722925
 21
-39.2872413656203392
 31
0.0
  0
ARC
  5
74E1
  8
0
 10
52.4090915804724204
 20
-39.3266114444204717
 30
0.0
 40
0.0393700788001326
 50
90.0000000001962235
 51
179.9999908249340876
  0
LINE
  5
74E2
  8
0
 10
52.3697215016722879
 20
-39.3266114381159397
 30
0.0
 11
52.3697214712566605
 21
-39.5165486640091999
 31
0.0
  0
ARC
  5
74E3
  8
0
 10
52.209015317137812
 20
-39.5395933714385919
 30
0.0
 40
0.0822124364737319
 50
12.8388860281363097
 51
23.0311137448895487
  0
ARC
  5
74E4
  8
0
 10
52.2494259985606107
 20
-39.5224141504516524
 30
0.0
 40
0.0383017452155349
 50
23.0311137448891792
 51
91.1744970434217379
  0
LINE
  5
74E5
  8
0
 10
52.2486409121812301
 20
-39.4841204521981197
 30
0.0
 11
51.8769543750722875
 21
-39.4840918371159404
 31
0.0
  0
ARC
  5
74E6
  8
0
 10
51.8788452348773816
 20
-39.5670862170958912
 30
0.0
 40
0.0830159169018723
 50
91.3051431614259172
 51
169.6921157535500981
  0
LINE
  5
74E7
  8
0
 10
61.371773454972292
 20
-35.9899972710159375
 30
0.0
 11
51.0605829341723023
 21
-35.9899972710159375
 31
0.0
  0
ARC
  5
74E8
  8
0
 10
61.371773454972292
 20
-36.2286898777042623
 30
0.0
 40
0.2386926066883106
 50
16.0248484708673296
 51
89.9999999999995879
  0
ARC
  5
74E9
  8
0
 10
25.0921011901786812
 20
-46.6487483595227772
 30
0.0
 40
37.9851128131840881
 50
9.2292438494416817
 51
16.0248484708673296
  0
ARC
  5
74EA
  8
0
 10
56.2165596249820467
 20
-105.1564195656007996
 30
0.0
 40
65.7525959412912329
 50
87.8488114389111558
 51
90.0003323724688755
  0
ARC
  5
74EB
  8
0
 10
56.2408621105943709
 20
-104.5094394757364
 30
0.0
 40
65.1051595757016486
 50
86.635260201009217
 51
87.8488114288838489
  0
ARC
  5
74EC
  8
0
 10
55.2639039556616325
 20
-121.1262418379942005
 30
0.0
 40
81.7506565037848105
 50
86.1624425853309361
 51
86.635260201009217
  0
LINE
  5
74ED
  8
0
 10
60.7353074404222895
 20
-39.5588857284159374
 30
0.0
 11
60.7366296256920606
 21
-39.4791666244263411
 31
0.0
  0
LINE
  5
74EE
  8
0
 10
60.6945720871722898
 20
-39.5562793054159414
 30
0.0
 11
60.6945246512724523
 21
-39.5183636263787932
 31
0.0
  0
ARC
  5
74EF
  8
0
 10
60.7337763554055385
 20
-39.5183145189922485
 30
0.0
 40
0.0392517348519439
 50
85.8314030866207531
 51
180.071682098532591
  0
LINE
  5
74F0
  8
0
 10
60.7366296256684919
 20
-39.4791666258472418
 30
0.0
 11
61.8028498676175815
 21
-39.5514173111689971
 31
0.0
  0
ARC
  5
74F1
  8
0
 10
61.7600152856051068
 20
-40.0855416272569727
 30
0.0
 40
0.5358391423297025
 50
54.8676264639621607
 51
85.4149258601824073
  0
ARC
  5
74F2
  8
0
 10
61.7113726626960215
 20
-40.15467001888981
 30
0.0
 40
0.6203662935488155
 50
27.1086225114839685
 51
54.8676264639621607
  0
ARC
  5
74F3
  8
0
 10
52.2349632970794389
 20
-45.0057933921729187
 30
0.0
 40
11.2662919201704597
 50
23.2610038369035195
 51
27.1086225114839685
  0
ARC
  5
74F4
  8
0
 10
55.0425706176196101
 20
-43.798911299763347
 30
0.0
 40
8.2102776447899064
 50
12.9754524610114395
 51
23.2610038369031393
  0
ARC
  5
74F5
  8
0
 10
43.5520572909339734
 20
-46.7800630565879203
 30
0.0
 40
20.0793957034875703
 50
355.1877295005168094
 51
13.9029420818924105
  0
ARC
  5
74F6
  8
0
 10
51.8802446271210087
 20
-47.4801242715870018
 30
0.0
 40
11.7218369657191506
 50
343.0181772158134095
 51
355.1825061695590762
  0
ARC
  5
74F7
  8
0
 10
51.7296308692723628
 20
-47.4341292666159688
 30
0.0
 40
11.8793172645999299
 50
316.5395253225998999
 51
343.0181772068999067
  0
ARC
  5
74F8
  8
0
 10
56.8371455529823777
 20
-52.3812564514832388
 30
0.0
 40
4.7697632360266731
 50
306.0526449603415244
 51
317.4722382655244814
  0
ARC
  5
74F9
  8
0
 10
56.2161781945723575
 20
-51.6858253411161002
 30
0.0
 40
5.6982149023998314
 50
287.0769877085480744
 51
306.9853579021882979
  0
ARC
  5
74FA
  8
0
 10
56.2161781945723078
 20
-51.6858253411160291
 30
0.0
 40
5.6982149023999176
 50
270.0
 51
287.0769877085485859
  0
LINE
  5
74FB
  8
0
 10
58.6846821315722877
 20
-39.4501622965159484
 30
0.0
 11
58.6846821315722877
 21
-39.326611444316427
 31
0.0
  0
ARC
  5
74FC
  8
0
 10
58.7240522102727809
 20
-39.326611444316427
 30
0.0
 40
0.0393700787004852
 50
89.9999999998062066
 51
179.9999999999988063
  0
LINE
  5
74FD
  8
0
 10
58.7240522102729088
 20
-39.2872413656159409
 30
0.0
 11
60.0232648086722875
 21
-39.2872413656203392
 31
0.0
  0
ARC
  5
74FE
  8
0
 10
60.0232648086721596
 20
-39.3266114444204717
 30
0.0
 40
0.0393700788001326
 50
0.000009175065882
 51
89.9999999998037765
  0
LINE
  5
74FF
  8
0
 10
60.0626348874722922
 20
-39.3266114381159397
 30
0.0
 11
60.0626349178879124
 21
-39.5165486640091999
 31
0.0
  0
ARC
  5
7500
  8
0
 10
60.2233410720067681
 20
-39.5395933714385919
 30
0.0
 40
0.0822124364737319
 50
156.9688862551103909
 51
167.1611139718636991
  0
ARC
  5
7501
  8
0
 10
60.1829303905839694
 20
-39.5224141504516524
 30
0.0
 40
0.0383017452155349
 50
88.8255029565782479
 51
156.9688862551107889
  0
LINE
  5
7502
  8
0
 10
60.18371547696335
 20
-39.4841204521981197
 30
0.0
 11
60.5554020140722926
 21
-39.4840918371159404
 31
0.0
  0
ARC
  5
7503
  8
0
 10
60.5535111542671984
 20
-39.5670862170958912
 30
0.0
 40
0.0830159169018723
 50
10.3078842464498504
 51
88.6948568385740828
  0
ENDSEC
  0
EOF
