  0
SECTION
  2
HEADER
  9
$ACADVER
  1
AC1009
  9
$INSBASE
 10
4223.3669384205641109
 20
117.2119359492019015
 30
0.0
  9
$EXTMIN
 10
4200.1191113503991801
 20
117.2127696432096968
 30
-0.0000000000000053
  9
$EXTMAX
 10
4223.641784107676358
 20
135.4400804886066112
 30
0.0000000000000099
  9
$LIMMIN
 10
0.0
 20
0.0
  9
$LIMMAX
 10
11.6929133858000007
 20
8.2677165353999982
  9
$ORTHOMODE
 70
     0
  9
$REGENMODE
 70
     1
  9
$FILLMODE
 70
     1
  9
$QTEXTMODE
 70
     0
  9
$MIRRTEXT
 70
     0
  9
$DRAGMODE
 70
     2
  9
$LTSCALE
 40
0.6431102362
  9
$OSMODE
 70
  4095
  9
$ATTMODE
 70
     1
  9
$TEXTSIZE
 40
0.2
  9
$TRACEWID
 40
0.05
  9
$TEXTSTYLE
  7
STANDARD
  9
$CLAYER
  8
0
  9
$CELTYPE
  6
BYLAYER
  9
$CECOLOR
 62
   256
  9
$DIMSCALE
 40
1.0
  9
$DIMASZ
 40
0.1875
  9
$DIMEXO
 40
0.0625
  9
$DIMDLI
 40
0.4443307087
  9
$DIMRND
 40
0.0
  9
$DIMDLE
 40
0.0
  9
$DIMEXE
 40
0.125
  9
$DIMTP
 40
0.01
  9
$DIMTM
 40
0.01
  9
$DIMTXT
 40
2.0
  9
$DIMCEN
 40
0.1052362205
  9
$DIMTSZ
 40
0.0
  9
$DIMTOL
 70
     1
  9
$DIMLIM
 70
     0
  9
$DIMTIH
 70
     1
  9
$DIMTOH
 70
     1
  9
$DIMSE1
 70
     0
  9
$DIMSE2
 70
     0
  9
$DIMTAD
 70
     0
  9
$DIMZIN
 70
     0
  9
$DIMBLK
  1

  9
$DIMASO
 70
     1
  9
$DIMSHO
 70
     1
  9
$DIMPOST
  1
\X
  9
$DIMAPOST
  1

  9
$DIMALT
 70
     1
  9
$DIMALTD
 70
     2
  9
$DIMALTF
 40
25.3999999999999986
  9
$DIMLFAC
 40
1.0
  9
$DIMTOFL
 70
     0
  9
$DIMTVP
 40
0.0
  9
$DIMTIX
 70
     0
  9
$DIMSOXD
 70
     0
  9
$DIMSAH
 70
     0
  9
$DIMBLK1
  1

  9
$DIMBLK2
  1

  9
$DIMSTYLE
  2
STANDARD
  9
$DIMCLRD
 70
     0
  9
$DIMCLRE
 70
     0
  9
$DIMCLRT
 70
     0
  9
$DIMTFAC
 40
1.0
  9
$DIMGAP
 40
0.09
  9
$LUNITS
 70
     2
  9
$LUPREC
 70
     4
  9
$SKETCHINC
 40
0.1
  9
$FILLETRAD
 40
0.0
  9
$AUNITS
 70
     0
  9
$AUPREC
 70
     0
  9
$MENU
  1
.
  9
$ELEVATION
 40
0.0
  9
$PELEVATION
 40
0.0
  9
$THICKNESS
 40
0.0
  9
$LIMCHECK
 70
     0
  9
$BLIPMODE
 70
     0
  9
$CHAMFERA
 40
0.0
  9
$CHAMFERB
 40
0.0
  9
$SKPOLY
 70
     0
  9
$TDCREATE
 40
2458060.468368056230247
  9
$TDUPDATE
 40
2459073.4906018520705402
  9
$TDINDWG
 40
0.3234329861
  9
$TDUSRTIMER
 40
0.3234329861
  9
$USRTIMER
 70
     1
  9
$ANGBASE
 50
0.0
  9
$ANGDIR
 70
     0
  9
$PDMODE
 70
     0
  9
$PDSIZE
 40
0.3125
  9
$PLINEWID
 40
0.0
  9
$COORDS
 70
     1
  9
$SPLFRAME
 70
     0
  9
$SPLINETYPE
 70
     6
  9
$SPLINESEGS
 70
     8
  9
$ATTDIA
 70
     1
  9
$ATTREQ
 70
     1
  9
$HANDLING
 70
     1
  9
$HANDSEED
  5
779E
  9
$SURFTAB1
 70
     6
  9
$SURFTAB2
 70
     6
  9
$SURFTYPE
 70
     6
  9
$SURFU
 70
     6
  9
$SURFV
 70
     6
  9
$UCSNAME
  2

  9
$UCSORG
 10
0.0
 20
0.0
 30
0.0
  9
$UCSXDIR
 10
1.0
 20
0.0
 30
0.0
  9
$UCSYDIR
 10
0.0
 20
1.0
 30
0.0
  9
$PUCSNAME
  2

  9
$PUCSORG
 10
0.0
 20
0.0
 30
0.0
  9
$PUCSXDIR
 10
1.0
 20
0.0
 30
0.0
  9
$PUCSYDIR
 10
0.0
 20
1.0
 30
0.0
  9
$USERI1
 70
     0
  9
$USERI2
 70
     0
  9
$USERI3
 70
     0
  9
$USERI4
 70
     0
  9
$USERI5
 70
     0
  9
$USERR1
 40
0.0
  9
$USERR2
 40
0.0
  9
$USERR3
 40
0.0
  9
$USERR4
 40
0.0
  9
$USERR5
 40
0.0
  9
$WORLDVIEW
 70
     1
  9
$SHADEDGE
 70
     3
  9
$SHADEDIF
 70
    70
  9
$TILEMODE
 70
     1
  9
$MAXACTVP
 70
    64
  9
$PLIMCHECK
 70
     0
  9
$PEXTMIN
 10
1.0000000000000000E+20
 20
1.0000000000000000E+20
 30
1.0000000000000000E+20
  9
$PEXTMAX
 10
-1.0000000000000000E+20
 20
-1.0000000000000000E+20
 30
-1.0000000000000000E+20
  9
$PLIMMIN
 10
0.0
 20
0.0
  9
$PLIMMAX
 10
12.0
 20
9.0
  9
$UNITMODE
 70
     0
  9
$VISRETAIN
 70
     1
  9
$PLINEGEN
 70
     0
  9
$PSLTSCALE
 70
     1
  0
ENDSEC
  0
SECTION
  2
TABLES
  0
TABLE
  2
VPORT
 70
     1
  0
VPORT
  2
*ACTIVE
 70
     0
 10
0.0
 20
0.0
 11
1.0
 21
1.0
 12
136.2699740962252122
 22
0.3607420825097449
 13
0.0
 23
0.0
 14
1.0
 24
1.0
 15
0.0
 25
0.0
 16
0.0
 26
0.0
 36
53.3788880271138382
 17
4075.6104736328129547
 27
125.9656829833983949
 37
0.0
 40
18.3414693684369183
 41
2.005224660397074
 42
50.0
 43
0.0
 44
0.0
 50
0.0
 51
0.0
 71
     0
 72
   100
 73
     1
 74
     1
 75
     0
 76
     0
 77
     0
 78
     0
  0
ENDTAB
  0
TABLE
  2
LTYPE
 70
     2
  0
LTYPE
  2
CONTINUOUS
 70
     0
  3
Solid line
 72
    65
 73
     0
 40
0.0
  0
LTYPE
  2
PHANTOM2
 70
     0
  3
___ _ _ ___ _ _ ___ _ _ ___ _ _
 72
    65
 73
     6
 40
1.25
 49
0.625
 49
-0.125
 49
0.125
 49
-0.125
 49
0.125
 49
-0.125
  0
ENDTAB
  0
TABLE
  2
LAYER
 70
     2
  0
LAYER
  2
0
 70
     0
 62
   255
  6
CONTINUOUS
  0
LAYER
  2
DEFPOINTS
 70
     0
 62
     7
  6
CONTINUOUS
  0
ENDTAB
  0
TABLE
  2
STYLE
 70
     1
  0
STYLE
  2
STANDARD
 70
     0
 40
0.0
 41
0.8
 50
0.0
 71
     0
 42
0.2
  3
txt
  4

  0
ENDTAB
  0
TABLE
  2
VIEW
 70
     0
  0
ENDTAB
  0
TABLE
  2
UCS
 70
     0
  0
ENDTAB
  0
TABLE
  2
APPID
 70
     9
  0
APPID
  2
ACAD
 70
     0
  0
APPID
  2
ACAD_MLEADERVER
 70
     0
  0
APPID
  2
ACAD_EXEMPT_FROM_CAD_STANDARDS
 70
     0
  0
APPID
  2
ACAD_NAV_VCDISPLAY
 70
     0
  0
APPID
  2
ACAECLAYERSTANDARD
 70
     0
  0
APPID
  2
ACCMTRANSPARENCY
 70
     0
  0
APPID
  2
ACAD_DSTYLE_DIMJAG
 70
     0
  0
APPID
  2
ACAD_DSTYLE_DIMTALN
 70
     0
  0
APPID
  2
ACDBATTR
 70
     0
  0
ENDTAB
  0
TABLE
  2
DIMSTYLE
 70
     1
  0
DIMSTYLE
  2
STANDARD
 70
     0
  3

  4

  5

  6

  7

 40
1.0
 41
0.1875
 42
0.0625
 43
0.38
 44
0.125
 45
0.0
 46
0.0
 47
0.01
 48
0.01
140
0.15625
141
0.09
142
0.0
143
25.3999999999999986
144
1.0
145
0.0
146
1.0
147
0.09
 71
     1
 72
     0
 73
     1
 74
     1
 75
     0
 76
     0
 77
     0
 78
     4
170
     0
171
     2
172
     0
173
     0
174
     0
175
     0
176
     0
177
     0
178
     0
  0
ENDTAB
  0
ENDSEC
  0
SECTION
  2
BLOCKS
  0
BLOCK
  8
0
  2
$MODEL_SPACE
 70
     0
 10
0.0
 20
0.0
 30
0.0
  3
$MODEL_SPACE
  1

  0
ENDBLK
  5
21
  8
0
  0
BLOCK
 67
     1
  8
0
  2
$PAPER_SPACE
 70
     0
 10
0.0
 20
0.0
 30
0.0
  3
$PAPER_SPACE
  1

  0
ENDBLK
  5
1D
 67
     1
  8
0
  0
ENDSEC
  0
SECTION
  2
ENTITIES
  0
ATTDEF
  5
3930
  8
DEFPOINTS
 10
4223.3634811772062676
 20
117.2177052928333012
 30
0.0
 40
0.001
  1
K-18132IN-2SR
  3

  2
MODELNUMBER
 70
     0
1001
ACDBATTR
1070
     0
1070
     1
  0
ATTDEF
  5
3931
  8
DEFPOINTS
 10
4223.3634811772062676
 20
117.2160386261665934
 30
0.0
 40
0.001
  1
FREELANCE
  3

  2
TRADENAME
 70
     0
1001
ACDBATTR
1070
     0
1070
     1
  0
ATTDEF
  5
3932
  8
DEFPOINTS
 10
4223.3634811772062676
 20
117.2143719594999993
 30
0.0
 40
0.001
  1
TOILET
  3

  2
PRODUCT
 70
     0
1001
ACDBATTR
1070
     0
1070
     1
  0
LINE
  5
747B
  8
0
 10
4223.3669384205641109
 20
132.7201327573083063
 30
0.0
 11
4223.3669384205641109
 21
120.3473946364510994
 31
0.0
  0
LINE
  5
747C
  8
0
 10
4206.2347683305160899
 20
120.7516165982282956
 30
0.0
 11
4223.1861419313518127
 21
120.7516165982282956
 31
0.0
  0
ARC
  5
747D
  8
0
 10
4223.1346288036465921
 20
132.72173951715979
 30
0.0
 40
0.2323151733966858
 50
359.6037224310045985
 51
85.6496305782992238
  0
LINE
  5
747E
  8
0
 10
4223.1522511490438774
 20
132.9533853518578894
 30
0.0
 11
4200.752485989579327
 21
132.9533853518578894
 31
0.0
  0
ARC
  5
747F
  8
0
 10
4200.7856376034296773
 20
132.720400534295095
 30
0.0
 40
0.2353315846113355
 50
98.0983040453326254
 51
186.2566461531193056
  0
ARC
  5
7480
  8
0
 10
4204.5425108138333599
 20
133.1322860865473103
 30
0.0
 40
4.0147159296069823
 50
186.2566461531193056
 51
199.0581119548681954
  0
ARC
  5
7481
  8
0
 10
4204.2403189304468469
 20
133.0278901214086034
 30
0.0
 40
3.69499972432153
 50
199.0581119548681954
 51
203.3631613249457075
  0
ARC
  5
7482
  8
0
 10
4201.9477659528965887
 20
132.0375634105130018
 30
0.0
 40
1.1976919440944651
 50
203.3631613249457075
 51
222.0411664273698022
  0
ARC
  5
7483
  8
0
 10
3322.012574554620187
 20
-661.4051689369017595
 30
0.0
 40
1183.6387147281750458
 50
42.022299276311152
 51
42.0411664273697596
  0
ARC
  5
7484
  8
0
 10
4148.0520849997956248
 20
82.946483878202784
 30
0.0
 40
71.7031698942650166
 50
39.0604818695949376
 51
42.022299276311152
  0
ARC
  5
7485
  8
0
 10
4122.4850364866806558
 20
62.1979712993916465
 30
0.0
 40
104.6299787877041041
 50
38.2552241891615026
 51
39.0604818695949376
  0
ARC
  5
7486
  8
0
 10
4199.2713709603340249
 20
122.7427897270394936
 30
0.0
 40
6.8454391081788444
 50
36.3664002306450485
 51
38.2552241891615026
  0
ARC
  5
7487
  8
0
 10
4200.0627865208516596
 20
123.3255555338443941
 30
0.0
 40
5.8626092271657537
 50
2.3881622722557339
 51
36.3664002306450485
  0
ARC
  5
7488
  8
0
 10
4206.2325174826710281
 20
120.9484773157091979
 30
0.0
 40
0.1968735848281589
 50
182.5082823017548037
 51
270.6550746342273897
  0
LINE
  5
7489
  8
0
 10
4205.9203038408650173
 20
123.5698459270280978
 30
0.0
 11
4206.0358325212810087
 21
120.9398613789738022
 31
0.0
  0
LINE
  5
748A
  8
0
 10
4220.9801382782497967
 20
120.2468398330307053
 30
0.0
 11
4220.8617052983872782
 21
120.659865307923198
 31
0.0
  0
LINE
  5
748B
  8
0
 10
4223.1700880268781475
 20
120.1611304980002046
 30
0.0
 11
4223.1661108378193603
 21
120.1611303825355037
 31
0.0
  0
LINE
  5
748C
  8
0
 10
4221.4034867285608925
 20
120.1610792104759042
 30
0.0
 11
4221.0938399000096979
 21
120.161070220887197
 31
0.0
  0
LINE
  5
748D
  8
0
 10
4221.653879816170047
 20
120.3185505326281941
 30
0.0
 11
4222.913298205627143
 21
120.3185505326281941
 31
0.0
  0
ARC
  5
748E
  8
0
 10
4223.1685265315536526
 20
120.3591608016730987
 30
0.0
 40
0.198760459712254
 50
304.9345027343082961
 51
356.6062365845489808
  0
ARC
  5
748F
  8
0
 10
4223.1708422720139424
 20
120.355845521874798
 30
0.0
 40
0.1947164846853823
 50
269.7780610559659067
 51
304.9345027343085235
  0
ARC
  5
7490
  8
0
 10
4223.1659470617132683
 20
120.3577668487207006
 30
0.0
 40
0.1966365343888664
 50
205.3569052924318896
 51
270.0477209425455953
  0
ARC
  5
7491
  8
0
 10
4222.9169384048573193
 20
120.2396818684470929
 30
0.0
 40
0.0789526265564543
 50
25.4070159578464114
 51
92.6426228884908056
  0
ARC
  5
7492
  8
0
 10
4221.6537761043282444
 20
120.2398102249410954
 30
0.0
 40
0.0787403759886714
 50
89.9245336017535664
 51
154.9350519747486032
  0
ARC
  5
7493
  8
0
 10
4221.4062551354782045
 20
120.3555729180823022
 30
0.0
 40
0.1945134092429274
 50
269.1845118122766962
 51
334.9350519747487169
  0
ARC
  5
7494
  8
0
 10
4221.093780342906939
 20
120.2792411043333942
 30
0.0
 40
0.1181708984543634
 50
195.913745573362803
 51
270.0288765751992059
  0
ARC
  5
7495
  8
0
 10
4220.7438813338858381
 20
120.6301519595750023
 30
0.0
 40
0.1215128375149171
 50
14.1539695436851307
 51
91.6138356129386295
  0
ARC
  5
7496
  8
0
 10
4223.1888375310099946
 20
120.9313918237122039
 30
0.0
 40
0.1797954336333311
 50
269.1409555453827807
 51
352.1274319383197167
  0
ARC
  5
7497
  8
0
 10
4212.8648412172879034
 20
122.3664659842199995
 30
0.0
 40
3.1107824877121031
 50
276.7218176635529971
 51
328.7271900692956024
  0
ARC
  5
7498
  8
0
 10
4212.798008970346018
 20
124.1999806573463019
 30
0.0
 40
4.9417403580256956
 50
258.1676872554281772
 51
275.0028505213585959
  0
ARC
  5
7499
  8
0
 10
4212.9930793479206841
 20
125.1282236463173945
 30
0.0
 40
5.890258784663482
 50
240.9570806928626041
 51
258.1619377469349956
  0
ARC
  5
749A
  8
0
 10
4212.6201836778718643
 20
124.5305000978873977
 30
0.0
 40
5.1867913184758034
 50
226.7657256419942939
 51
241.3529094044610872
  0
LINE
  5
749B
  8
0
 10
4200.2153425795231669
 20
133.0744604341610966
 30
0.0
 11
4214.6967168052888155
 21
133.0744604341610966
 31
0.0
  0
LINE
  5
749C
  8
0
 10
4200.1763138073711161
 20
133.1193097465647099
 30
0.0
 11
4200.3659167010600868
 21
134.4684044357063044
 31
0.0
  0
ARC
  5
749D
  8
0
 10
4200.2153007391661959
 20
133.1138304906282883
 30
0.0
 40
0.0393700786999959
 50
171.9999999999917009
 51
270.0608908199570237
  0
ARC
  5
749E
  8
0
 10
4200.8373567080134308
 20
134.4056405813020945
 30
0.0
 40
0.4755996021601941
 50
97.3816195646818841
 51
172.4166786386176966
  0
ARC
  5
749F
  8
0
 10
4208.9969744929039734
 20
73.9098504952005158
 30
0.0
 40
61.5191839548427097
 50
95.0423525523244734
 51
97.6793251890542535
  0
ARC
  5
74A0
  8
0
 10
4209.0518553451602202
 20
73.4129334497930444
 30
0.0
 40
62.0190024994088205
 50
87.0325883500540272
 51
95.0525087039664953
  0
ARC
  5
74A3
  8
0
 10
4408.7212147526615809
 20
137.3726720780780113
 30
0.0
 40
190.860270007402903
 50
180.7072574029567136
 51
181.0564051511672972
  0
ARC
  5
74A4
  8
0
 10
4217.500141533493661
 20
133.8465865203019973
 30
0.0
 40
0.3933106713677672
 50
271.5387881102647043
 51
1.05640515116653
  0
ARC
  5
74A5
  8
0
 10
4217.4619110837347762
 20
127.9188652107498001
 30
0.0
 40
5.5347675468210262
 50
89.4948968249111658
 51
99.5389878957680736
  0
ARC
  5
74A6
  8
0
 10
4217.3639774560333535
 20
128.7165055118342991
 30
0.0
 40
4.732060680764592
 50
99.9700900768117151
 51
106.5044460832497037
  0
ARC
  5
74A7
  8
0
 10
4214.7573016018977796
 20
137.6016195553326895
 30
0.0
 40
4.527564491643016
 50
269.2332838645110087
 51
286.1894012023536789
  0
LINE
  5
74A8
  8
0
 10
4217.8630014126647438
 20
132.9744310576836881
 30
0.0
 11
4217.8630014126647438
 21
133.6948433415433044
 31
0.0
  0
LINE
  5
74A9
  8
0
 10
4216.5259962062318664
 20
132.9757745478001141
 30
0.0
 11
4216.5259962062318664
 21
133.3737778585436047
 31
0.0
  0
ARC
  5
74AA
  8
0
 10
4217.8362699873960082
 20
132.9808764148459943
 30
0.0
 40
0.0274974858098267
 50
271.2384045153132206
 51
346.4438572217728165
  0
ARC
  5
74AB
  8
0
 10
4216.5481215123563743
 20
132.9754346053373979
 30
0.0
 40
0.0221279174810473
 50
179.1197525242216955
 51
265.1673636230815987
  0
ARC
  5
74AC
  8
0
 10
4213.9957984554312134
 20
133.0896322002811871
 30
0.0
 40
0.1026583481385094
 50
266.9056791643999986
 51
351.5011872507799922
  0
ARC
  5
74AD
  8
0
 10
4164.4319992964628909
 20
1784.6911793790638967
 30
0.0
 40
1652.4473695181970925
 50
271.6791467663290973
 51
271.7186053190466168
  0
ARC
  5
74AE
  8
0
 10
4203.0284257992288985
 20
133.5938198165636948
 30
0.0
 40
0.643737122265407
 50
233.7832865500799073
 51
264.1936798574412819
  0
ARC
  5
74AF
  8
0
 10
4203.5231888494718078
 20
133.5646052285034102
 30
0.0
 40
0.6114531153370374
 50
271.5825963271337855
 51
306.7162127793305899
  0
LINE
  5
74B0
  8
0
 10
4202.5508790707217486
 20
132.9533853518578894
 30
0.0
 11
4202.5184371002806074
 21
133.0744604341610966
 31
0.0
  0
ARC
  5
74B1
  8
0
 10
4210.500579116958761
 20
133.6440552748792925
 30
0.0
 40
0.6089671367159885
 50
249.2840167378323031
 51
270.0110205777504007
  0
ARC
  5
74B2
  8
0
 10
4210.8535590792462244
 20
-1701.4922059959540093
 30
0.0
 40
1834.5273280811479708
 50
89.9893724764490628
 51
90.0110205777504433
  0
ARC
  5
74B3
  8
0
 10
4211.1939499273066758
 20
133.6445199294950044
 30
0.0
 40
0.6094294130468566
 50
269.9893724764489775
 51
290.707342672019422
  0
CIRCLE
  5
74B4
  8
0
 10
4220.8872724622651731
 20
129.3010527865282029
 30
0.0
 40
0.538225785169522
  0
ARC
  5
74B5
  8
0
 10
4201.6352477387808904
 20
140.294828817007101
 30
0.0
 40
5.4889290377195854
 50
260.8648437516445142
 51
265.4651195593626198
  0
ARC
  5
74B6
  8
0
 10
4202.8398060821564286
 20
-59.9955647305173727
 30
0.0
 40
194.825538707445304
 50
89.2896102117767043
 51
90.4818817533143402
  0
ARC
  5
74B7
  8
0
 10
4215.4469722257681497
 20
1161.382098118606109
 30
0.0
 40
1026.6176884821470594
 50
269.4311918809045778
 51
269.82292025417388
  0
ARC
  5
74B8
  8
0
 10
4213.0287409405364087
 20
159.2461433160027013
 30
0.0
 40
24.4884613054404987
 50
268.2340536027821258
 51
274.3418037844933792
  0
ARC
  5
74B9
  8
0
 10
4216.900497701569293
 20
110.2505386507023957
 30
0.0
 40
24.6601147764335593
 50
92.2923553864527122
 51
94.6935045633968144
  0
ARC
  5
74BA
  8
0
 10
4216.7906028894858537
 20
100.5379292231908011
 30
0.0
 40
34.3641689285183531
 50
88.3151372848358989
 51
91.461510800040017
  0
ARC
  5
74BB
  8
0
 10
4217.7927905801361703
 20
134.8019100663331074
 30
0.0
 40
0.0857236231156529
 50
5.2612863849952927
 51
84.5154499972973241
  0
ARC
  5
7545
  8
0
 10
4217.8347272407809214
 20
135.0187912051731871
 30
0.0
 40
0.0408090147315351
 50
357.1447592618520162
 51
85.2182345578508631
  0
ARC
  5
7587
  8
0
 10
4206.3006446520857935
 20
-33.4166745360877968
 30
0.0
 40
168.870722279262111
 50
86.0824202345389438
 51
87.9768108915699258
  0
ENDSEC
  0
EOF
